ISO-10303-21;
HEADER;
FILE_DESCRIPTION (( 'STEP AP214' ),
    '1' );
FILE_NAME ('30437.STEP',
    '2023-06-22T18:30:36',
    ( '' ),
    ( '' ),
    'SwSTEP 2.0',
    'SolidWorks 2023',
    '' );
FILE_SCHEMA (( 'AUTOMOTIVE_DESIGN' ));
ENDSEC;

DATA;
#1 = CARTESIAN_POINT ( 'NONE',  ( 0.2187500000000000000, 1.125000000000000222, 2.678914873134836296E-17 ) ) ;
#2 = DIRECTION ( 'NONE',  ( 1.000000000000000000, 3.867305681517959248E-17, 0.000000000000000000 ) ) ;
#3 = ORIENTED_EDGE ( 'NONE', *, *, #265, .F. ) ;
#4 = FILL_AREA_STYLE ('',( #137 ) ) ;
#5 =( NAMED_UNIT ( * ) SI_UNIT ( $, .STERADIAN. ) SOLID_ANGLE_UNIT ( ) );
#6 = EDGE_LOOP ( 'NONE', ( #307, #237 ) ) ;
#7 = VECTOR ( 'NONE', #129, 39.37007874015748143 ) ;
#8 = SURFACE_SIDE_STYLE ('',( #167 ) ) ;
#9 = DIMENSIONAL_EXPONENTS ( 1.000000000000000000, 0.000000000000000000, 0.000000000000000000, 0.000000000000000000, 0.000000000000000000, 0.000000000000000000, 0.000000000000000000 ) ;
#10 = SHAPE_DEFINITION_REPRESENTATION ( #104, #179 ) ;
#11 = CARTESIAN_POINT ( 'NONE',  ( 2.678914873134835064E-17, 0.000000000000000000, 0.2187500000000000000 ) ) ;
#12 = PRESENTATION_LAYER_ASSIGNMENT (  '', '', ( #272 ) ) ;
#13 = ADVANCED_FACE ( 'NONE', ( #182 ), #208, .T. ) ;
#14 = DIRECTION ( 'NONE',  ( -0.000000000000000000, -1.000000000000000000, -0.000000000000000000 ) ) ;
#15 = PRESENTATION_LAYER_ASSIGNMENT (  '', '', ( #168 ) ) ;
#16 = COLOUR_RGB ( '',0.7921568627450980005, 0.8196078431372548767, 0.9333333333333333481 ) ;
#17 =( NAMED_UNIT ( * ) PLANE_ANGLE_UNIT ( ) SI_UNIT ( $, .RADIAN. ) );
#18 = LINE ( 'NONE', #289, #214 ) ;
#19 = ORIENTED_EDGE ( 'NONE', *, *, #171, .F. ) ;
#20 = CARTESIAN_POINT ( 'NONE',  ( -0.2187500000000000000, 1.125000000000000222, 0.000000000000000000 ) ) ;
#21 = CIRCLE ( 'NONE', #58, 0.2187500000000000833 ) ;
#22 = FILL_AREA_STYLE_COLOUR ( '', #298 ) ;
#23 = ORIENTED_EDGE ( 'NONE', *, *, #282, .T. ) ;
#24 = FILL_AREA_STYLE_COLOUR ( '', #195 ) ;
#25 = PRESENTATION_STYLE_ASSIGNMENT (( #293 ) ) ;
#26 = VECTOR ( 'NONE', #54, 39.37007874015748143 ) ;
#27 = AXIS2_PLACEMENT_3D ( 'NONE', #294, #96, #118 ) ;
#28 = DIRECTION ( 'NONE',  ( -1.000000000000000000, 0.000000000000000000, 0.000000000000000000 ) ) ;
#29 = ADVANCED_FACE ( 'NONE', ( #188 ), #287, .T. ) ;
#30 = FACE_OUTER_BOUND ( 'NONE', #220, .T. ) ;
#31 = LINE ( 'NONE', #177, #7 ) ;
#32 = DIMENSIONAL_EXPONENTS ( 1.000000000000000000, 0.000000000000000000, 0.000000000000000000, 0.000000000000000000, 0.000000000000000000, 0.000000000000000000, 0.000000000000000000 ) ;
#33 =( GEOMETRIC_REPRESENTATION_CONTEXT ( 3 ) GLOBAL_UNCERTAINTY_ASSIGNED_CONTEXT ( ( #299 ) ) GLOBAL_UNIT_ASSIGNED_CONTEXT ( ( #301, #17, #84 ) ) REPRESENTATION_CONTEXT ( 'NONE', 'WORKASPACE' ) );
#34 = UNCERTAINTY_MEASURE_WITH_UNIT (LENGTH_MEASURE( 1.000000000000000082E-05 ), #173, 'distance_accuracy_value', 'NONE');
#35 = AXIS2_PLACEMENT_3D ( 'NONE', #226, #125, #174 ) ;
#36 = DIMENSIONAL_EXPONENTS ( 1.000000000000000000, 0.000000000000000000, 0.000000000000000000, 0.000000000000000000, 0.000000000000000000, 0.000000000000000000, 0.000000000000000000 ) ;
#37 = DIRECTION ( 'NONE',  ( -1.000000000000000000, 0.000000000000000000, 0.000000000000000000 ) ) ;
#38 = FILL_AREA_STYLE ('',( #22 ) ) ;
#39 = CLOSED_SHELL ( 'NONE', ( #13, #29, #132, #59 ) ) ;
#40 = AXIS2_PLACEMENT_3D ( 'NONE', #219, #231, #297 ) ;
#41 = ORIENTED_EDGE ( 'NONE', *, *, #300, .F. ) ;
#42 = ORIENTED_EDGE ( 'NONE', *, *, #178, .T. ) ;
#43 = VERTEX_POINT ( 'NONE', #236 ) ;
#44 = CIRCLE ( 'NONE', #40, 0.2187500000000000000 ) ;
#45 = DIRECTION ( 'NONE',  ( 0.000000000000000000, 0.000000000000000000, -1.000000000000000000 ) ) ;
#46 = SURFACE_STYLE_USAGE ( .BOTH. , #112 ) ;
#47 = FACE_OUTER_BOUND ( 'NONE', #69, .T. ) ;
#48 = FILL_AREA_STYLE_COLOUR ( '', #228 ) ;
#49 =( NAMED_UNIT ( * ) PLANE_ANGLE_UNIT ( ) SI_UNIT ( $, .RADIAN. ) );
#50 = AXIS2_PLACEMENT_3D ( 'NONE', #212, #308, #87 ) ;
#51 = CYLINDRICAL_SURFACE ( 'NONE', #150, 0.2187500000000000278 ) ;
#52 = VERTEX_POINT ( 'NONE', #20 ) ;
#53 = FACE_OUTER_BOUND ( 'NONE', #269, .T. ) ;
#54 = DIRECTION ( 'NONE',  ( -0.000000000000000000, -1.000000000000000000, -0.000000000000000000 ) ) ;
#55 =( GEOMETRIC_REPRESENTATION_CONTEXT ( 3 ) GLOBAL_UNCERTAINTY_ASSIGNED_CONTEXT ( ( #274 ) ) GLOBAL_UNIT_ASSIGNED_CONTEXT ( ( #85, #245, #284 ) ) REPRESENTATION_CONTEXT ( 'NONE', 'WORKASPACE' ) );
#56 = PRESENTATION_LAYER_ASSIGNMENT (  '', '', ( #181 ) ) ;
#57 = CARTESIAN_POINT ( 'NONE',  ( 1.635818322501681454E-34, 1.125000000000000000, 0.000000000000000000 ) ) ;
#58 = AXIS2_PLACEMENT_3D ( 'NONE', #60, #256, #37 ) ;
#59 = ADVANCED_FACE ( 'NONE', ( #156 ), #209, .T. ) ;
#60 = CARTESIAN_POINT ( 'NONE',  ( -9.184850993605152135E-17, 3.500000000000000000, 0.000000000000000000 ) ) ;
#61 = MANIFOLD_SOLID_BREP ( 'Revolve - Cutting Edge', #39 ) ;
#62 = STYLED_ITEM ( 'NONE', ( #25 ), #132 ) ;
#63 = ORIENTED_EDGE ( 'NONE', *, *, #232, .F. ) ;
#64 = SURFACE_STYLE_USAGE ( .BOTH. , #159 ) ;
#65 = CARTESIAN_POINT ( 'NONE',  ( 0.000000000000000000, 1.125000000000000000, -0.2187500000000000000 ) ) ;
#66 = FILL_AREA_STYLE ('',( #48 ) ) ;
#67 = CYLINDRICAL_SURFACE ( 'NONE', #101, 0.2187500000000000000 ) ;
#68 = DIRECTION ( 'NONE',  ( -0.000000000000000000, -1.000000000000000000, -0.000000000000000000 ) ) ;
#69 = EDGE_LOOP ( 'NONE', ( #217, #158, #23, #130 ) ) ;
#70 = CIRCLE ( 'NONE', #155, 0.2187500000000000000 ) ;
#71 =( CONVERSION_BASED_UNIT ( 'INCH', #145 ) LENGTH_UNIT ( ) NAMED_UNIT ( #99 ) );
#72 = FILL_AREA_STYLE ('',( #91 ) ) ;
#73 =( LENGTH_UNIT ( ) NAMED_UNIT ( * ) SI_UNIT ( $, .METRE. ) );
#74 = CARTESIAN_POINT ( 'NONE',  ( -0.2187500000000001943, 3.500000000000000000, 0.000000000000000000 ) ) ;
#75 = AXIS2_PLACEMENT_3D ( 'NONE', #246, #288, #2 ) ;
#76 = CYLINDRICAL_SURFACE ( 'NONE', #206, 0.2187500000000000278 ) ;
#77 = DIMENSIONAL_EXPONENTS ( 1.000000000000000000, 0.000000000000000000, 0.000000000000000000, 0.000000000000000000, 0.000000000000000000, 0.000000000000000000, 0.000000000000000000 ) ;
#78 = CARTESIAN_POINT ( 'NONE',  ( 0.000000000000000000, 1.125000000000000000, 0.000000000000000000 ) ) ;
#79 = EDGE_CURVE ( 'NONE', #261, #103, #97, .T. ) ;
#80 = CARTESIAN_POINT ( 'NONE',  ( -9.184850993605152135E-17, 3.500000000000000000, 0.000000000000000000 ) ) ;
#81 = AXIS2_PLACEMENT_3D ( 'NONE', #94, #68, #190 ) ;
#82 = ORIENTED_EDGE ( 'NONE', *, *, #83, .T. ) ;
#83 = EDGE_CURVE ( 'NONE', #103, #261, #88, .T. ) ;
#84 =( NAMED_UNIT ( * ) SI_UNIT ( $, .STERADIAN. ) SOLID_ANGLE_UNIT ( ) );
#85 =( CONVERSION_BASED_UNIT ( 'INCH', #163 ) LENGTH_UNIT ( ) NAMED_UNIT ( #9 ) );
#86 = DIRECTION ( 'NONE',  ( 0.000000000000000000, -1.000000000000000000, -0.000000000000000000 ) ) ;
#87 = DIRECTION ( 'NONE',  ( 0.000000000000000000, 0.000000000000000000, -1.000000000000000000 ) ) ;
#88 = CIRCLE ( 'NONE', #81, 0.2187500000000000000 ) ;
#89 = LENGTH_MEASURE_WITH_UNIT ( LENGTH_MEASURE( 0.02539999999999999897 ), #267 );
#90 =( NAMED_UNIT ( * ) SI_UNIT ( $, .STERADIAN. ) SOLID_ANGLE_UNIT ( ) );
#91 = FILL_AREA_STYLE_COLOUR ( '', #16 ) ;
#92 = ORIENTED_EDGE ( 'NONE', *, *, #127, .F. ) ;
#93 = VECTOR ( 'NONE', #120, 39.37007874015748143 ) ;
#94 = CARTESIAN_POINT ( 'NONE',  ( 0.000000000000000000, 0.000000000000000000, 0.000000000000000000 ) ) ;
#95 = APPLICATION_CONTEXT ( 'automotive_design' ) ;
#96 = DIRECTION ( 'NONE',  ( -3.867305681517959248E-17, 1.000000000000000000, -0.000000000000000000 ) ) ;
#97 = CIRCLE ( 'NONE', #254, 0.2187500000000000000 ) ;
#98 =( NAMED_UNIT ( * ) PLANE_ANGLE_UNIT ( ) SI_UNIT ( $, .RADIAN. ) );
#99 = DIMENSIONAL_EXPONENTS ( 1.000000000000000000, 0.000000000000000000, 0.000000000000000000, 0.000000000000000000, 0.000000000000000000, 0.000000000000000000, 0.000000000000000000 ) ;
#100 = FACE_OUTER_BOUND ( 'NONE', #161, .T. ) ;
#101 = AXIS2_PLACEMENT_3D ( 'NONE', #123, #113, #290 ) ;
#102 = LENGTH_MEASURE_WITH_UNIT ( LENGTH_MEASURE( 0.02539999999999999897 ), #263 );
#103 = VERTEX_POINT ( 'NONE', #165 ) ;
#104 = PRODUCT_DEFINITION_SHAPE ( 'NONE', 'NONE',  #193 ) ;
#105 = VERTEX_POINT ( 'NONE', #1 ) ;
#106 = PRESENTATION_LAYER_ASSIGNMENT (  '', '', ( #205 ) ) ;
#107 = PRESENTATION_LAYER_ASSIGNMENT (  '', '', ( #62 ) ) ;
#108 = ORIENTED_EDGE ( 'NONE', *, *, #109, .T. ) ;
#109 = EDGE_CURVE ( 'NONE', #52, #240, #270, .T. ) ;
#110 = DIRECTION ( 'NONE',  ( 0.000000000000000000, 1.000000000000000000, 0.000000000000000000 ) ) ;
#111 = ORIENTED_EDGE ( 'NONE', *, *, #109, .F. ) ;
#112 = SURFACE_SIDE_STYLE ('',( #180 ) ) ;
#113 = DIRECTION ( 'NONE',  ( -0.000000000000000000, -1.000000000000000000, -0.000000000000000000 ) ) ;
#114 = COLOUR_RGB ( '',1.000000000000000000, 0.000000000000000000, 0.000000000000000000 ) ;
#115 = PRODUCT ( '30437', '30437', '', ( #147 ) ) ;
#116 = ORIENTED_EDGE ( 'NONE', *, *, #282, .F. ) ;
#117 = DIRECTION ( 'NONE',  ( -3.867305681517959248E-17, 1.000000000000000000, -0.000000000000000000 ) ) ;
#118 = DIRECTION ( 'NONE',  ( -1.000000000000000000, 0.000000000000000000, 0.000000000000000000 ) ) ;
#119 = CARTESIAN_POINT ( 'NONE',  ( 2.678914873134835064E-17, 1.125000000000000000, 0.2187500000000000000 ) ) ;
#120 = DIRECTION ( 'NONE',  ( -3.867305681517959248E-17, 1.000000000000000000, -0.000000000000000000 ) ) ;
#121 =( LENGTH_UNIT ( ) NAMED_UNIT ( * ) SI_UNIT ( $, .METRE. ) );
#122 = CIRCLE ( 'NONE', #255, 0.2187500000000000000 ) ;
#123 = CARTESIAN_POINT ( 'NONE',  ( 0.000000000000000000, 0.000000000000000000, 0.000000000000000000 ) ) ;
#124 = DIRECTION ( 'NONE',  ( -1.000000000000000000, 0.000000000000000000, 0.000000000000000000 ) ) ;
#125 = DIRECTION ( 'NONE',  ( 0.000000000000000000, 0.000000000000000000, 1.000000000000000000 ) ) ;
#126 = CIRCLE ( 'NONE', #162, 0.2187500000000000000 ) ;
#127 = EDGE_CURVE ( 'NONE', #52, #105, #122, .T. ) ;
#128 = PLANE ( 'NONE',  #157 ) ;
#129 = DIRECTION ( 'NONE',  ( -3.867305681517959248E-17, 1.000000000000000000, -0.000000000000000000 ) ) ;
#130 = ORIENTED_EDGE ( 'NONE', *, *, #79, .F. ) ;
#131 = VERTEX_POINT ( 'NONE', #65 ) ;
#132 = ADVANCED_FACE ( 'NONE', ( #47 ), #67, .T. ) ;
#133 =( NAMED_UNIT ( * ) PLANE_ANGLE_UNIT ( ) SI_UNIT ( $, .RADIAN. ) );
#134 = PRESENTATION_LAYER_ASSIGNMENT (  '', '', ( #285 ) ) ;
#135 = ORIENTED_EDGE ( 'NONE', *, *, #171, .T. ) ;
#136 = PRESENTATION_STYLE_ASSIGNMENT (( #46 ) ) ;
#137 = FILL_AREA_STYLE_COLOUR ( '', #279 ) ;
#138 = SURFACE_STYLE_USAGE ( .BOTH. , #266 ) ;
#139 = DIRECTION ( 'NONE',  ( -0.000000000000000000, -1.000000000000000000, -0.000000000000000000 ) ) ;
#140 = DIRECTION ( 'NONE',  ( -1.000000000000000000, 0.000000000000000000, 0.000000000000000000 ) ) ;
#141 =( GEOMETRIC_REPRESENTATION_CONTEXT ( 3 ) GLOBAL_UNCERTAINTY_ASSIGNED_CONTEXT ( ( #189 ) ) GLOBAL_UNIT_ASSIGNED_CONTEXT ( ( #146, #49, #5 ) ) REPRESENTATION_CONTEXT ( 'NONE', 'WORKASPACE' ) );
#142 = ADVANCED_FACE ( 'NONE', ( #53 ), #51, .T. ) ;
#143 = ORIENTED_EDGE ( 'NONE', *, *, #178, .F. ) ;
#144 = DIRECTION ( 'NONE',  ( -3.867305681517959248E-17, 1.000000000000000000, -0.000000000000000000 ) ) ;
#145 = LENGTH_MEASURE_WITH_UNIT ( LENGTH_MEASURE( 0.02539999999999999897 ), #121 );
#146 =( CONVERSION_BASED_UNIT ( 'INCH', #89 ) LENGTH_UNIT ( ) NAMED_UNIT ( #233 ) );
#147 = PRODUCT_CONTEXT ( 'NONE', #95, 'mechanical' ) ;
#148 =( CONVERSION_BASED_UNIT ( 'INCH', #172 ) LENGTH_UNIT ( ) NAMED_UNIT ( #77 ) );
#149 = CLOSED_SHELL ( 'NONE', ( #183, #238, #142, #277 ) ) ;
#150 = AXIS2_PLACEMENT_3D ( 'NONE', #250, #144, #28 ) ;
#151 = CARTESIAN_POINT ( 'NONE',  ( 0.000000000000000000, 1.125000000000000000, 0.000000000000000000 ) ) ;
#152 =( NAMED_UNIT ( * ) PLANE_ANGLE_UNIT ( ) SI_UNIT ( $, .RADIAN. ) );
#153 = DIRECTION ( 'NONE',  ( -3.867305681517959248E-17, 1.000000000000000000, 0.000000000000000000 ) ) ;
#154 = PLANE ( 'NONE',  #75 ) ;
#155 = AXIS2_PLACEMENT_3D ( 'NONE', #78, #176, #278 ) ;
#156 = FACE_OUTER_BOUND ( 'NONE', #204, .T. ) ;
#157 = AXIS2_PLACEMENT_3D ( 'NONE', #57, #153, #296 ) ;
#158 = ORIENTED_EDGE ( 'NONE', *, *, #221, .T. ) ;
#159 = SURFACE_SIDE_STYLE ('',( #281 ) ) ;
#160 = VERTEX_POINT ( 'NONE', #119 ) ;
#161 = EDGE_LOOP ( 'NONE', ( #92, #19 ) ) ;
#162 = AXIS2_PLACEMENT_3D ( 'NONE', #151, #14, #227 ) ;
#163 = LENGTH_MEASURE_WITH_UNIT ( LENGTH_MEASURE( 0.02539999999999999897 ), #210 );
#164 = MANIFOLD_SOLID_BREP ( 'Revolve - Tool Body (Straight Shanked)', #149 ) ;
#165 = CARTESIAN_POINT ( 'NONE',  ( 0.000000000000000000, 0.000000000000000000, -0.2187500000000000000 ) ) ;
#166 = SURFACE_STYLE_FILL_AREA ( #66 ) ;
#167 = SURFACE_STYLE_FILL_AREA ( #4 ) ;
#168 = STYLED_ITEM ( 'NONE', ( #136 ), #13 ) ;
#169 = PRESENTATION_STYLE_ASSIGNMENT (( #192 ) ) ;
#170 = CARTESIAN_POINT ( 'NONE',  ( 0.000000000000000000, 0.000000000000000000, -0.2187500000000000000 ) ) ;
#171 = EDGE_CURVE ( 'NONE', #105, #52, #44, .T. ) ;
#172 = LENGTH_MEASURE_WITH_UNIT ( LENGTH_MEASURE( 0.02539999999999999897 ), #252 );
#173 =( CONVERSION_BASED_UNIT ( 'INCH', #194 ) LENGTH_UNIT ( ) NAMED_UNIT ( #36 ) );
#174 = DIRECTION ( 'NONE',  ( 1.000000000000000000, 0.000000000000000000, 0.000000000000000000 ) ) ;
#175 = DIMENSIONAL_EXPONENTS ( 1.000000000000000000, 0.000000000000000000, 0.000000000000000000, 0.000000000000000000, 0.000000000000000000, 0.000000000000000000, 0.000000000000000000 ) ;
#176 = DIRECTION ( 'NONE',  ( -0.000000000000000000, -1.000000000000000000, -0.000000000000000000 ) ) ;
#177 = CARTESIAN_POINT ( 'NONE',  ( 0.2187499999999999167, 3.500000000000000000, 2.678914873134835372E-17 ) ) ;
#178 = EDGE_CURVE ( 'NONE', #131, #160, #126, .T. ) ;
#179 = ADVANCED_BREP_SHAPE_REPRESENTATION ( '30437', ( #61, #164, #35 ), #216 ) ;
#180 = SURFACE_STYLE_FILL_AREA ( #305 ) ;
#181 = STYLED_ITEM ( 'NONE', ( #211 ), #61 ) ;
#182 = FACE_OUTER_BOUND ( 'NONE', #191, .T. ) ;
#183 = ADVANCED_FACE ( 'NONE', ( #30 ), #76, .T. ) ;
#184 = ORIENTED_EDGE ( 'NONE', *, *, #79, .T. ) ;
#185 = SURFACE_SIDE_STYLE ('',( #260 ) ) ;
#186 = MECHANICAL_DESIGN_GEOMETRIC_PRESENTATION_REPRESENTATION (  '', ( #168 ), #55 ) ;
#187 = MECHANICAL_DESIGN_GEOMETRIC_PRESENTATION_REPRESENTATION (  '', ( #181 ), #33 ) ;
#188 = FACE_OUTER_BOUND ( 'NONE', #243, .T. ) ;
#189 = UNCERTAINTY_MEASURE_WITH_UNIT (LENGTH_MEASURE( 1.000000000000000082E-05 ), #146, 'distance_accuracy_value', 'NONE');
#190 = DIRECTION ( 'NONE',  ( 0.000000000000000000, 0.000000000000000000, -1.000000000000000000 ) ) ;
#191 = EDGE_LOOP ( 'NONE', ( #42, #203, #249, #116 ) ) ;
#192 = SURFACE_STYLE_USAGE ( .BOTH. , #222 ) ;
#193 = PRODUCT_DEFINITION ( 'UNKNOWN', '', #224, #202 ) ;
#194 = LENGTH_MEASURE_WITH_UNIT ( LENGTH_MEASURE( 0.02539999999999999897 ), #73 );
#195 = COLOUR_RGB ( '',0.7921568627450980005, 0.8196078431372548767, 0.9333333333333333481 ) ;
#196 = ORIENTED_EDGE ( 'NONE', *, *, #265, .T. ) ;
#197 = SURFACE_STYLE_FILL_AREA ( #72 ) ;
#198 = CARTESIAN_POINT ( 'NONE',  ( 0.000000000000000000, 1.125000000000000222, 0.000000000000000000 ) ) ;
#199 = DIRECTION ( 'NONE',  ( -3.867305681517959248E-17, 1.000000000000000000, -0.000000000000000000 ) ) ;
#200 =( NAMED_UNIT ( * ) SI_UNIT ( $, .STERADIAN. ) SOLID_ANGLE_UNIT ( ) );
#201 = MECHANICAL_DESIGN_GEOMETRIC_PRESENTATION_REPRESENTATION (  '', ( #285 ), #258 ) ;
#202 = PRODUCT_DEFINITION_CONTEXT ( 'detailed design', #273, 'design' ) ;
#203 = ORIENTED_EDGE ( 'NONE', *, *, #271, .T. ) ;
#204 = EDGE_LOOP ( 'NONE', ( #82, #184 ) ) ;
#205 = STYLED_ITEM ( 'NONE', ( #247 ), #29 ) ;
#206 = AXIS2_PLACEMENT_3D ( 'NONE', #80, #199, #124 ) ;
#207 = CARTESIAN_POINT ( 'NONE',  ( 0.000000000000000000, 1.125000000000000000, 0.000000000000000000 ) ) ;
#208 = CYLINDRICAL_SURFACE ( 'NONE', #50, 0.2187500000000000000 ) ;
#209 = PLANE ( 'NONE',  #241 ) ;
#210 =( LENGTH_UNIT ( ) NAMED_UNIT ( * ) SI_UNIT ( $, .METRE. ) );
#211 = PRESENTATION_STYLE_ASSIGNMENT (( #64 ) ) ;
#212 = CARTESIAN_POINT ( 'NONE',  ( 0.000000000000000000, 0.000000000000000000, 0.000000000000000000 ) ) ;
#213 = CARTESIAN_POINT ( 'NONE',  ( -0.2187500000000001388, 3.500000000000000000, 0.000000000000000000 ) ) ;
#214 = VECTOR ( 'NONE', #139, 39.37007874015748143 ) ;
#215 =( NAMED_UNIT ( * ) PLANE_ANGLE_UNIT ( ) SI_UNIT ( $, .RADIAN. ) );
#216 =( GEOMETRIC_REPRESENTATION_CONTEXT ( 3 ) GLOBAL_UNCERTAINTY_ASSIGNED_CONTEXT ( ( #235 ) ) GLOBAL_UNIT_ASSIGNED_CONTEXT ( ( #71, #152, #291 ) ) REPRESENTATION_CONTEXT ( 'NONE', 'WORKASPACE' ) );
#217 = ORIENTED_EDGE ( 'NONE', *, *, #271, .F. ) ;
#218 = DIRECTION ( 'NONE',  ( 0.000000000000000000, 0.000000000000000000, -1.000000000000000000 ) ) ;
#219 = CARTESIAN_POINT ( 'NONE',  ( 0.000000000000000000, 1.125000000000000222, 0.000000000000000000 ) ) ;
#220 = EDGE_LOOP ( 'NONE', ( #264, #196, #63, #111 ) ) ;
#221 = EDGE_CURVE ( 'NONE', #160, #131, #70, .T. ) ;
#222 = SURFACE_SIDE_STYLE ('',( #197 ) ) ;
#223 = APPLICATION_PROTOCOL_DEFINITION ( 'draft international standard', 'automotive_design', 1998, #273 ) ;
#224 = PRODUCT_DEFINITION_FORMATION_WITH_SPECIFIED_SOURCE ( 'ANY', '', #115, .NOT_KNOWN. ) ;
#225 = DIRECTION ( 'NONE',  ( -0.000000000000000000, -1.000000000000000000, -0.000000000000000000 ) ) ;
#226 = CARTESIAN_POINT ( 'NONE',  ( 0.000000000000000000, 0.000000000000000000, 0.000000000000000000 ) ) ;
#227 = DIRECTION ( 'NONE',  ( 0.000000000000000000, 0.000000000000000000, -1.000000000000000000 ) ) ;
#228 = COLOUR_RGB ( '',1.000000000000000000, 0.000000000000000000, 0.000000000000000000 ) ;
#229 =( GEOMETRIC_REPRESENTATION_CONTEXT ( 3 ) GLOBAL_UNCERTAINTY_ASSIGNED_CONTEXT ( ( #262 ) ) GLOBAL_UNIT_ASSIGNED_CONTEXT ( ( #148, #98, #200 ) ) REPRESENTATION_CONTEXT ( 'NONE', 'WORKASPACE' ) );
#230 = UNCERTAINTY_MEASURE_WITH_UNIT (LENGTH_MEASURE( 1.000000000000000082E-05 ), #283, 'distance_accuracy_value', 'NONE');
#231 = DIRECTION ( 'NONE',  ( -3.867305681517959248E-17, 1.000000000000000000, -0.000000000000000000 ) ) ;
#232 = EDGE_CURVE ( 'NONE', #240, #43, #21, .T. ) ;
#233 = DIMENSIONAL_EXPONENTS ( 1.000000000000000000, 0.000000000000000000, 0.000000000000000000, 0.000000000000000000, 0.000000000000000000, 0.000000000000000000, 0.000000000000000000 ) ;
#234 = FILL_AREA_STYLE ('',( #24 ) ) ;
#235 = UNCERTAINTY_MEASURE_WITH_UNIT (LENGTH_MEASURE( 1.000000000000000082E-05 ), #71, 'distance_accuracy_value', 'NONE');
#236 = CARTESIAN_POINT ( 'NONE',  ( 0.2187500000000000000, 3.500000000000000000, 2.678914873134836296E-17 ) ) ;
#237 = ORIENTED_EDGE ( 'NONE', *, *, #300, .T. ) ;
#238 = ADVANCED_FACE ( 'NONE', ( #100 ), #128, .F. ) ;
#239 = DIRECTION ( 'NONE',  ( 0.000000000000000000, -0.000000000000000000, 1.000000000000000000 ) ) ;
#240 = VERTEX_POINT ( 'NONE', #74 ) ;
#241 = AXIS2_PLACEMENT_3D ( 'NONE', #306, #86, #45 ) ;
#242 = SURFACE_STYLE_USAGE ( .BOTH. , #185 ) ;
#243 = EDGE_LOOP ( 'NONE', ( #143, #302 ) ) ;
#244 = CARTESIAN_POINT ( 'NONE',  ( 0.000000000000000000, 0.000000000000000000, 0.000000000000000000 ) ) ;
#245 =( NAMED_UNIT ( * ) PLANE_ANGLE_UNIT ( ) SI_UNIT ( $, .RADIAN. ) );
#246 = CARTESIAN_POINT ( 'NONE',  ( 0.2187500000000000000, 3.500000000000000000, 0.000000000000000000 ) ) ;
#247 = PRESENTATION_STYLE_ASSIGNMENT (( #138 ) ) ;
#248 = MECHANICAL_DESIGN_GEOMETRIC_PRESENTATION_REPRESENTATION (  '', ( #62 ), #141 ) ;
#249 = ORIENTED_EDGE ( 'NONE', *, *, #83, .F. ) ;
#250 = CARTESIAN_POINT ( 'NONE',  ( -9.184850993605152135E-17, 3.500000000000000000, 0.000000000000000000 ) ) ;
#251 = APPLICATION_PROTOCOL_DEFINITION ( 'draft international standard', 'automotive_design', 1998, #95 ) ;
#252 =( LENGTH_UNIT ( ) NAMED_UNIT ( * ) SI_UNIT ( $, .METRE. ) );
#253 = LINE ( 'NONE', #170, #26 ) ;
#254 = AXIS2_PLACEMENT_3D ( 'NONE', #244, #225, #218 ) ;
#255 = AXIS2_PLACEMENT_3D ( 'NONE', #198, #117, #140 ) ;
#256 = DIRECTION ( 'NONE',  ( -3.867305681517959248E-17, 1.000000000000000000, -0.000000000000000000 ) ) ;
#257 = PRESENTATION_STYLE_ASSIGNMENT (( #242 ) ) ;
#258 =( GEOMETRIC_REPRESENTATION_CONTEXT ( 3 ) GLOBAL_UNCERTAINTY_ASSIGNED_CONTEXT ( ( #230 ) ) GLOBAL_UNIT_ASSIGNED_CONTEXT ( ( #283, #133, #280 ) ) REPRESENTATION_CONTEXT ( 'NONE', 'WORKASPACE' ) );
#259 = AXIS2_PLACEMENT_3D ( 'NONE', #207, #110, #239 ) ;
#260 = SURFACE_STYLE_FILL_AREA ( #38 ) ;
#261 = VERTEX_POINT ( 'NONE', #11 ) ;
#262 = UNCERTAINTY_MEASURE_WITH_UNIT (LENGTH_MEASURE( 1.000000000000000082E-05 ), #148, 'distance_accuracy_value', 'NONE');
#263 =( LENGTH_UNIT ( ) NAMED_UNIT ( * ) SI_UNIT ( $, .METRE. ) );
#264 = ORIENTED_EDGE ( 'NONE', *, *, #127, .T. ) ;
#265 = EDGE_CURVE ( 'NONE', #105, #43, #31, .T. ) ;
#266 = SURFACE_SIDE_STYLE ('',( #166 ) ) ;
#267 =( LENGTH_UNIT ( ) NAMED_UNIT ( * ) SI_UNIT ( $, .METRE. ) );
#268 = CIRCLE ( 'NONE', #27, 0.2187500000000000833 ) ;
#269 = EDGE_LOOP ( 'NONE', ( #3, #135, #108, #41 ) ) ;
#270 = LINE ( 'NONE', #213, #93 ) ;
#271 = EDGE_CURVE ( 'NONE', #160, #261, #18, .T. ) ;
#272 = STYLED_ITEM ( 'NONE', ( #169 ), #164 ) ;
#273 = APPLICATION_CONTEXT ( 'automotive_design' ) ;
#274 = UNCERTAINTY_MEASURE_WITH_UNIT (LENGTH_MEASURE( 1.000000000000000082E-05 ), #85, 'distance_accuracy_value', 'NONE');
#275 = FACE_OUTER_BOUND ( 'NONE', #6, .T. ) ;
#276 =( GEOMETRIC_REPRESENTATION_CONTEXT ( 3 ) GLOBAL_UNCERTAINTY_ASSIGNED_CONTEXT ( ( #34 ) ) GLOBAL_UNIT_ASSIGNED_CONTEXT ( ( #173, #215, #90 ) ) REPRESENTATION_CONTEXT ( 'NONE', 'WORKASPACE' ) );
#277 = ADVANCED_FACE ( 'NONE', ( #275 ), #154, .F. ) ;
#278 = DIRECTION ( 'NONE',  ( 0.000000000000000000, 0.000000000000000000, -1.000000000000000000 ) ) ;
#279 = COLOUR_RGB ( '',1.000000000000000000, 0.000000000000000000, 0.000000000000000000 ) ;
#280 =( NAMED_UNIT ( * ) SI_UNIT ( $, .STERADIAN. ) SOLID_ANGLE_UNIT ( ) );
#281 = SURFACE_STYLE_FILL_AREA ( #234 ) ;
#282 = EDGE_CURVE ( 'NONE', #131, #103, #253, .T. ) ;
#283 =( CONVERSION_BASED_UNIT ( 'INCH', #102 ) LENGTH_UNIT ( ) NAMED_UNIT ( #32 ) );
#284 =( NAMED_UNIT ( * ) SI_UNIT ( $, .STERADIAN. ) SOLID_ANGLE_UNIT ( ) );
#285 = STYLED_ITEM ( 'NONE', ( #257 ), #59 ) ;
#286 = LENGTH_MEASURE_WITH_UNIT ( LENGTH_MEASURE( 0.02539999999999999897 ), #304 );
#287 = PLANE ( 'NONE',  #259 ) ;
#288 = DIRECTION ( 'NONE',  ( 3.867305681517959248E-17, -1.000000000000000000, 0.000000000000000000 ) ) ;
#289 = CARTESIAN_POINT ( 'NONE',  ( 2.678914873134835064E-17, 0.000000000000000000, 0.2187500000000000000 ) ) ;
#290 = DIRECTION ( 'NONE',  ( 0.000000000000000000, 0.000000000000000000, -1.000000000000000000 ) ) ;
#291 =( NAMED_UNIT ( * ) SI_UNIT ( $, .STERADIAN. ) SOLID_ANGLE_UNIT ( ) );
#292 = MECHANICAL_DESIGN_GEOMETRIC_PRESENTATION_REPRESENTATION (  '', ( #205 ), #276 ) ;
#293 = SURFACE_STYLE_USAGE ( .BOTH. , #8 ) ;
#294 = CARTESIAN_POINT ( 'NONE',  ( -9.184850993605152135E-17, 3.500000000000000000, 0.000000000000000000 ) ) ;
#295 = PRODUCT_RELATED_PRODUCT_CATEGORY ( 'part', '', ( #115 ) ) ;
#296 = DIRECTION ( 'NONE',  ( -1.000000000000000000, -3.867305681517959248E-17, 0.000000000000000000 ) ) ;
#297 = DIRECTION ( 'NONE',  ( -1.000000000000000000, 0.000000000000000000, 0.000000000000000000 ) ) ;
#298 = COLOUR_RGB ( '',1.000000000000000000, 0.000000000000000000, 0.000000000000000000 ) ;
#299 = UNCERTAINTY_MEASURE_WITH_UNIT (LENGTH_MEASURE( 1.000000000000000082E-05 ), #301, 'distance_accuracy_value', 'NONE');
#300 = EDGE_CURVE ( 'NONE', #43, #240, #268, .T. ) ;
#301 =( CONVERSION_BASED_UNIT ( 'INCH', #286 ) LENGTH_UNIT ( ) NAMED_UNIT ( #175 ) );
#302 = ORIENTED_EDGE ( 'NONE', *, *, #221, .F. ) ;
#303 = FILL_AREA_STYLE_COLOUR ( '', #114 ) ;
#304 =( LENGTH_UNIT ( ) NAMED_UNIT ( * ) SI_UNIT ( $, .METRE. ) );
#305 = FILL_AREA_STYLE ('',( #303 ) ) ;
#306 = CARTESIAN_POINT ( 'NONE',  ( 0.000000000000000000, 0.000000000000000000, 0.000000000000000000 ) ) ;
#307 = ORIENTED_EDGE ( 'NONE', *, *, #232, .T. ) ;
#308 = DIRECTION ( 'NONE',  ( -0.000000000000000000, -1.000000000000000000, -0.000000000000000000 ) ) ;
#309 = MECHANICAL_DESIGN_GEOMETRIC_PRESENTATION_REPRESENTATION (  '', ( #272 ), #229 ) ;
ENDSEC;
END-ISO-10303-21;
