ISO-10303-21;
HEADER;
FILE_DESCRIPTION (( 'STEP AP214' ),
    '1' );
FILE_NAME ('01392.STEP',
    '2023-06-22T14:29:56',
    ( '' ),
    ( '' ),
    'SwSTEP 2.0',
    'SolidWorks 2023',
    '' );
FILE_SCHEMA (( 'AUTOMOTIVE_DESIGN' ));
ENDSEC;

DATA;
#1 = SURFACE_SIDE_STYLE ('',( #281 ) ) ;
#2 = SURFACE_STYLE_FILL_AREA ( #46 ) ;
#3 = LENGTH_MEASURE_WITH_UNIT ( LENGTH_MEASURE( 0.02539999999999999897 ), #221 );
#4 = PRESENTATION_LAYER_ASSIGNMENT (  '', '', ( #87 ) ) ;
#5 = SURFACE_STYLE_USAGE ( .BOTH. , #110 ) ;
#6 = CIRCLE ( 'NONE', #68, 0.1875000000000000278 ) ;
#7 = CYLINDRICAL_SURFACE ( 'NONE', #99, 0.1875000000000000555 ) ;
#8 = ORIENTED_EDGE ( 'NONE', *, *, #306, .T. ) ;
#9 = CARTESIAN_POINT ( 'NONE',  ( -6.123233995736766036E-17, 4.000000000000000000, 0.000000000000000000 ) ) ;
#10 =( GEOMETRIC_REPRESENTATION_CONTEXT ( 3 ) GLOBAL_UNCERTAINTY_ASSIGNED_CONTEXT ( ( #206 ) ) GLOBAL_UNIT_ASSIGNED_CONTEXT ( ( #217, #84, #90 ) ) REPRESENTATION_CONTEXT ( 'NONE', 'WORKASPACE' ) );
#11 = DIRECTION ( 'NONE',  ( -3.061616997868383018E-17, 1.000000000000000000, -0.000000000000000000 ) ) ;
#12 = PRESENTATION_STYLE_ASSIGNMENT (( #65 ) ) ;
#13 = EDGE_LOOP ( 'NONE', ( #235, #207, #193, #62 ) ) ;
#14 = VERTEX_POINT ( 'NONE', #271 ) ;
#15 = ORIENTED_EDGE ( 'NONE', *, *, #239, .T. ) ;
#16 =( CONVERSION_BASED_UNIT ( 'INCH', #272 ) LENGTH_UNIT ( ) NAMED_UNIT ( #96 ) );
#17 = DIMENSIONAL_EXPONENTS ( 1.000000000000000000, 0.000000000000000000, 0.000000000000000000, 0.000000000000000000, 0.000000000000000000, 0.000000000000000000, 0.000000000000000000 ) ;
#18 = CIRCLE ( 'NONE', #295, 0.1875000000000000833 ) ;
#19 = FILL_AREA_STYLE_COLOUR ( '', #270 ) ;
#20 =( CONVERSION_BASED_UNIT ( 'INCH', #226 ) LENGTH_UNIT ( ) NAMED_UNIT ( #17 ) );
#21 = EDGE_CURVE ( 'NONE', #288, #14, #6, .T. ) ;
#22 = PRESENTATION_STYLE_ASSIGNMENT (( #23 ) ) ;
#23 = SURFACE_STYLE_USAGE ( .BOTH. , #71 ) ;
#24 = PRODUCT ( '01392', '01392', '', ( #26 ) ) ;
#25 = DIRECTION ( 'NONE',  ( -1.000000000000000000, 0.000000000000000000, 0.000000000000000000 ) ) ;
#26 = PRODUCT_CONTEXT ( 'NONE', #285, 'mechanical' ) ;
#27 = SURFACE_STYLE_USAGE ( .BOTH. , #284 ) ;
#28 = DIRECTION ( 'NONE',  ( 0.000000000000000000, -0.000000000000000000, 1.000000000000000000 ) ) ;
#29 = PRODUCT_DEFINITION ( 'UNKNOWN', '', #92, #163 ) ;
#30 = CLOSED_SHELL ( 'NONE', ( #52, #301, #273, #200 ) ) ;
#31 = FACE_OUTER_BOUND ( 'NONE', #13, .T. ) ;
#32 = EDGE_LOOP ( 'NONE', ( #15, #233 ) ) ;
#33 = DIRECTION ( 'NONE',  ( -1.000000000000000000, 0.000000000000000000, 0.000000000000000000 ) ) ;
#34 = ORIENTED_EDGE ( 'NONE', *, *, #286, .F. ) ;
#35 =( NAMED_UNIT ( * ) SI_UNIT ( $, .STERADIAN. ) SOLID_ANGLE_UNIT ( ) );
#36 = EDGE_LOOP ( 'NONE', ( #8, #169 ) ) ;
#37 =( LENGTH_UNIT ( ) NAMED_UNIT ( * ) SI_UNIT ( $, .METRE. ) );
#38 =( GEOMETRIC_REPRESENTATION_CONTEXT ( 3 ) GLOBAL_UNCERTAINTY_ASSIGNED_CONTEXT ( ( #45 ) ) GLOBAL_UNIT_ASSIGNED_CONTEXT ( ( #218, #153, #111 ) ) REPRESENTATION_CONTEXT ( 'NONE', 'WORKASPACE' ) );
#39 = PLANE ( 'NONE',  #147 ) ;
#40 = PRODUCT_DEFINITION_SHAPE ( 'NONE', 'NONE',  #29 ) ;
#41 = ADVANCED_FACE ( 'NONE', ( #302 ), #103, .T. ) ;
#42 = ADVANCED_FACE ( 'NONE', ( #85 ), #280, .T. ) ;
#43 = FILL_AREA_STYLE ('',( #146 ) ) ;
#44 = PRESENTATION_LAYER_ASSIGNMENT (  '', '', ( #89 ) ) ;
#45 = UNCERTAINTY_MEASURE_WITH_UNIT (LENGTH_MEASURE( 1.000000000000000082E-05 ), #218, 'distance_accuracy_value', 'NONE');
#46 = FILL_AREA_STYLE ('',( #19 ) ) ;
#47 = FACE_OUTER_BOUND ( 'NONE', #36, .T. ) ;
#48 = CARTESIAN_POINT ( 'NONE',  ( -6.123233995736766036E-17, 4.000000000000000000, 0.000000000000000000 ) ) ;
#49 = AXIS2_PLACEMENT_3D ( 'NONE', #179, #204, #28 ) ;
#50 = FILL_AREA_STYLE ('',( #159 ) ) ;
#51 = CARTESIAN_POINT ( 'NONE',  ( -0.1875000000000001388, 4.000000000000000000, 0.000000000000000000 ) ) ;
#52 = ADVANCED_FACE ( 'NONE', ( #223 ), #151, .T. ) ;
#53 = AXIS2_PLACEMENT_3D ( 'NONE', #194, #130, #170 ) ;
#54 = SURFACE_STYLE_FILL_AREA ( #50 ) ;
#55 = LINE ( 'NONE', #136, #264 ) ;
#56 = ORIENTED_EDGE ( 'NONE', *, *, #239, .F. ) ;
#57 = CARTESIAN_POINT ( 'NONE',  ( -6.123233995736766036E-17, 4.000000000000000000, 0.000000000000000000 ) ) ;
#58 = CIRCLE ( 'NONE', #166, 0.1875000000000000278 ) ;
#59 = DIRECTION ( 'NONE',  ( -3.061616997868383018E-17, 1.000000000000000000, -0.000000000000000000 ) ) ;
#60 = DIMENSIONAL_EXPONENTS ( 1.000000000000000000, 0.000000000000000000, 0.000000000000000000, 0.000000000000000000, 0.000000000000000000, 0.000000000000000000, 0.000000000000000000 ) ;
#61 = FACE_OUTER_BOUND ( 'NONE', #83, .T. ) ;
#62 = ORIENTED_EDGE ( 'NONE', *, *, #265, .F. ) ;
#63 =( NAMED_UNIT ( * ) PLANE_ANGLE_UNIT ( ) SI_UNIT ( $, .RADIAN. ) );
#64 = ORIENTED_EDGE ( 'NONE', *, *, #178, .F. ) ;
#65 = SURFACE_STYLE_USAGE ( .BOTH. , #140 ) ;
#66 = VECTOR ( 'NONE', #11, 39.37007874015748143 ) ;
#67 = ORIENTED_EDGE ( 'NONE', *, *, #21, .F. ) ;
#68 = AXIS2_PLACEMENT_3D ( 'NONE', #102, #192, #299 ) ;
#69 = DIRECTION ( 'NONE',  ( -3.061616997868383018E-17, 1.000000000000000000, -0.000000000000000000 ) ) ;
#70 = CIRCLE ( 'NONE', #80, 0.1875000000000000278 ) ;
#71 = SURFACE_SIDE_STYLE ('',( #2 ) ) ;
#72 = DIRECTION ( 'NONE',  ( 0.000000000000000000, 0.000000000000000000, -1.000000000000000000 ) ) ;
#73 = CYLINDRICAL_SURFACE ( 'NONE', #216, 0.1875000000000000278 ) ;
#74 = ORIENTED_EDGE ( 'NONE', *, *, #286, .T. ) ;
#75 = DIRECTION ( 'NONE',  ( -0.000000000000000000, -1.000000000000000000, -0.000000000000000000 ) ) ;
#76 = ORIENTED_EDGE ( 'NONE', *, *, #162, .F. ) ;
#77 = CARTESIAN_POINT ( 'NONE',  ( 2.296212748401287726E-17, 0.000000000000000000, 0.1875000000000000278 ) ) ;
#78 = DIRECTION ( 'NONE',  ( -3.061616997868383018E-17, 1.000000000000000000, -0.000000000000000000 ) ) ;
#79 = SURFACE_STYLE_FILL_AREA ( #43 ) ;
#80 = AXIS2_PLACEMENT_3D ( 'NONE', #290, #202, #175 ) ;
#81 = PRESENTATION_STYLE_ASSIGNMENT (( #303 ) ) ;
#82 = APPLICATION_CONTEXT ( 'automotive_design' ) ;
#83 = EDGE_LOOP ( 'NONE', ( #120, #74, #188, #164 ) ) ;
#84 =( NAMED_UNIT ( * ) PLANE_ANGLE_UNIT ( ) SI_UNIT ( $, .RADIAN. ) );
#85 = FACE_OUTER_BOUND ( 'NONE', #32, .T. ) ;
#86 = MECHANICAL_DESIGN_GEOMETRIC_PRESENTATION_REPRESENTATION (  '', ( #305 ), #189 ) ;
#87 = STYLED_ITEM ( 'NONE', ( #22 ), #42 ) ;
#88 =( LENGTH_UNIT ( ) NAMED_UNIT ( * ) SI_UNIT ( $, .METRE. ) );
#89 = STYLED_ITEM ( 'NONE', ( #107 ), #114 ) ;
#90 =( NAMED_UNIT ( * ) SI_UNIT ( $, .STERADIAN. ) SOLID_ANGLE_UNIT ( ) );
#91 = FACE_OUTER_BOUND ( 'NONE', #137, .T. ) ;
#92 = PRODUCT_DEFINITION_FORMATION_WITH_SPECIFIED_SOURCE ( 'ANY', '', #24, .NOT_KNOWN. ) ;
#93 = VERTEX_POINT ( 'NONE', #127 ) ;
#94 = LENGTH_MEASURE_WITH_UNIT ( LENGTH_MEASURE( 0.02539999999999999897 ), #37 );
#95 = EDGE_CURVE ( 'NONE', #180, #125, #18, .T. ) ;
#96 = DIMENSIONAL_EXPONENTS ( 1.000000000000000000, 0.000000000000000000, 0.000000000000000000, 0.000000000000000000, 0.000000000000000000, 0.000000000000000000, 0.000000000000000000 ) ;
#97 = DIMENSIONAL_EXPONENTS ( 1.000000000000000000, 0.000000000000000000, 0.000000000000000000, 0.000000000000000000, 0.000000000000000000, 0.000000000000000000, 0.000000000000000000 ) ;
#98 = ORIENTED_EDGE ( 'NONE', *, *, #232, .T. ) ;
#99 = AXIS2_PLACEMENT_3D ( 'NONE', #9, #59, #121 ) ;
#100 = PRESENTATION_LAYER_ASSIGNMENT (  '', '', ( #119 ) ) ;
#101 = AXIS2_PLACEMENT_3D ( 'NONE', #129, #250, #131 ) ;
#102 = CARTESIAN_POINT ( 'NONE',  ( 0.000000000000000000, 2.000000000000000000, 0.000000000000000000 ) ) ;
#103 = CYLINDRICAL_SURFACE ( 'NONE', #53, 0.1875000000000000278 ) ;
#104 = COLOUR_RGB ( '',1.000000000000000000, 0.000000000000000000, 0.000000000000000000 ) ;
#105 = DIRECTION ( 'NONE',  ( -3.061616997868383018E-17, 1.000000000000000000, -0.000000000000000000 ) ) ;
#106 = VECTOR ( 'NONE', #261, 39.37007874015748143 ) ;
#107 = PRESENTATION_STYLE_ASSIGNMENT (( #5 ) ) ;
#108 = APPLICATION_PROTOCOL_DEFINITION ( 'draft international standard', 'automotive_design', 1998, #285 ) ;
#109 = CARTESIAN_POINT ( 'NONE',  ( 0.000000000000000000, 0.000000000000000000, 0.000000000000000000 ) ) ;
#110 = SURFACE_SIDE_STYLE ('',( #219 ) ) ;
#111 =( NAMED_UNIT ( * ) SI_UNIT ( $, .STERADIAN. ) SOLID_ANGLE_UNIT ( ) );
#112 = CIRCLE ( 'NONE', #248, 0.1875000000000000278 ) ;
#113 = CARTESIAN_POINT ( 'NONE',  ( -0.1875000000000000278, 2.000000000000000000, 0.000000000000000000 ) ) ;
#114 = ADVANCED_FACE ( 'NONE', ( #247 ), #152, .T. ) ;
#115 = CARTESIAN_POINT ( 'NONE',  ( 0.1875000000000000278, 4.000000000000000000, 0.000000000000000000 ) ) ;
#116 = FILL_AREA_STYLE ('',( #165 ) ) ;
#117 = ORIENTED_EDGE ( 'NONE', *, *, #306, .F. ) ;
#118 = CARTESIAN_POINT ( 'NONE',  ( 0.000000000000000000, 0.000000000000000000, 0.000000000000000000 ) ) ;
#119 = STYLED_ITEM ( 'NONE', ( #128 ), #171 ) ;
#120 = ORIENTED_EDGE ( 'NONE', *, *, #232, .F. ) ;
#121 = DIRECTION ( 'NONE',  ( -1.000000000000000000, 0.000000000000000000, 0.000000000000000000 ) ) ;
#122 = CARTESIAN_POINT ( 'NONE',  ( 8.787654976534324059E-35, 2.000000000000000000, 0.000000000000000000 ) ) ;
#123 = ORIENTED_EDGE ( 'NONE', *, *, #309, .T. ) ;
#124 = DIMENSIONAL_EXPONENTS ( 1.000000000000000000, 0.000000000000000000, 0.000000000000000000, 0.000000000000000000, 0.000000000000000000, 0.000000000000000000, 0.000000000000000000 ) ;
#125 = VERTEX_POINT ( 'NONE', #51 ) ;
#126 = DIMENSIONAL_EXPONENTS ( 1.000000000000000000, 0.000000000000000000, 0.000000000000000000, 0.000000000000000000, 0.000000000000000000, 0.000000000000000000, 0.000000000000000000 ) ;
#127 = CARTESIAN_POINT ( 'NONE',  ( 0.000000000000000000, 0.000000000000000000, -0.1875000000000000278 ) ) ;
#128 = PRESENTATION_STYLE_ASSIGNMENT (( #198 ) ) ;
#129 = CARTESIAN_POINT ( 'NONE',  ( 0.000000000000000000, 0.000000000000000000, 0.000000000000000000 ) ) ;
#130 = DIRECTION ( 'NONE',  ( -0.000000000000000000, -1.000000000000000000, -0.000000000000000000 ) ) ;
#131 = DIRECTION ( 'NONE',  ( 0.000000000000000000, 0.000000000000000000, -1.000000000000000000 ) ) ;
#132 = PLANE ( 'NONE',  #291 ) ;
#133 = UNCERTAINTY_MEASURE_WITH_UNIT (LENGTH_MEASURE( 1.000000000000000082E-05 ), #16, 'distance_accuracy_value', 'NONE');
#134 = DIRECTION ( 'NONE',  ( -3.061616997868383018E-17, 1.000000000000000000, -0.000000000000000000 ) ) ;
#135 = DIRECTION ( 'NONE',  ( -0.000000000000000000, -1.000000000000000000, -0.000000000000000000 ) ) ;
#136 = CARTESIAN_POINT ( 'NONE',  ( -0.1875000000000001110, 4.000000000000000000, 0.000000000000000000 ) ) ;
#137 = EDGE_LOOP ( 'NONE', ( #64, #34 ) ) ;
#138 = DIRECTION ( 'NONE',  ( -3.061616997868383018E-17, 1.000000000000000000, -0.000000000000000000 ) ) ;
#139 = ORIENTED_EDGE ( 'NONE', *, *, #214, .F. ) ;
#140 = SURFACE_SIDE_STYLE ('',( #258 ) ) ;
#141 = EDGE_CURVE ( 'NONE', #142, #125, #55, .T. ) ;
#142 = VERTEX_POINT ( 'NONE', #113 ) ;
#143 =( CONVERSION_BASED_UNIT ( 'INCH', #94 ) LENGTH_UNIT ( ) NAMED_UNIT ( #126 ) );
#144 = AXIS2_PLACEMENT_3D ( 'NONE', #208, #231, #190 ) ;
#145 = SURFACE_SIDE_STYLE ('',( #79 ) ) ;
#146 = FILL_AREA_STYLE_COLOUR ( '', #227 ) ;
#147 = AXIS2_PLACEMENT_3D ( 'NONE', #122, #300, #255 ) ;
#148 = FILL_AREA_STYLE ('',( #195 ) ) ;
#149 = COLOUR_RGB ( '',0.7921568627450980005, 0.8196078431372548767, 0.9333333333333333481 ) ;
#150 = UNCERTAINTY_MEASURE_WITH_UNIT (LENGTH_MEASURE( 1.000000000000000082E-05 ), #20, 'distance_accuracy_value', 'NONE');
#151 = CYLINDRICAL_SURFACE ( 'NONE', #187, 0.1875000000000000555 ) ;
#152 = PLANE ( 'NONE',  #49 ) ;
#153 =( NAMED_UNIT ( * ) PLANE_ANGLE_UNIT ( ) SI_UNIT ( $, .RADIAN. ) );
#154 = AXIS2_PLACEMENT_3D ( 'NONE', #197, #251, #172 ) ;
#155 = UNCERTAINTY_MEASURE_WITH_UNIT (LENGTH_MEASURE( 1.000000000000000082E-05 ), #143, 'distance_accuracy_value', 'NONE');
#156 =( NAMED_UNIT ( * ) PLANE_ANGLE_UNIT ( ) SI_UNIT ( $, .RADIAN. ) );
#157 =( LENGTH_UNIT ( ) NAMED_UNIT ( * ) SI_UNIT ( $, .METRE. ) );
#158 = FILL_AREA_STYLE_COLOUR ( '', #104 ) ;
#159 = FILL_AREA_STYLE_COLOUR ( '', #149 ) ;
#160 = ORIENTED_EDGE ( 'NONE', *, *, #141, .F. ) ;
#161 = DIRECTION ( 'NONE',  ( 1.000000000000000000, 3.061616997868383018E-17, 0.000000000000000000 ) ) ;
#162 = EDGE_CURVE ( 'NONE', #14, #288, #58, .T. ) ;
#163 = PRODUCT_DEFINITION_CONTEXT ( 'detailed design', #82, 'design' ) ;
#164 = ORIENTED_EDGE ( 'NONE', *, *, #95, .F. ) ;
#165 = FILL_AREA_STYLE_COLOUR ( '', #244 ) ;
#166 = AXIS2_PLACEMENT_3D ( 'NONE', #228, #201, #287 ) ;
#167 = LENGTH_MEASURE_WITH_UNIT ( LENGTH_MEASURE( 0.02539999999999999897 ), #269 );
#168 = PRODUCT_RELATED_PRODUCT_CATEGORY ( 'part', '', ( #24 ) ) ;
#169 = ORIENTED_EDGE ( 'NONE', *, *, #95, .T. ) ;
#170 = DIRECTION ( 'NONE',  ( 0.000000000000000000, 0.000000000000000000, -1.000000000000000000 ) ) ;
#171 = ADVANCED_FACE ( 'NONE', ( #31 ), #73, .T. ) ;
#172 = DIRECTION ( 'NONE',  ( 1.000000000000000000, 0.000000000000000000, 0.000000000000000000 ) ) ;
#173 =( NAMED_UNIT ( * ) PLANE_ANGLE_UNIT ( ) SI_UNIT ( $, .RADIAN. ) );
#174 = MECHANICAL_DESIGN_GEOMETRIC_PRESENTATION_REPRESENTATION (  '', ( #87 ), #238 ) ;
#175 = DIRECTION ( 'NONE',  ( -1.000000000000000000, 0.000000000000000000, 0.000000000000000000 ) ) ;
#176 =( GEOMETRIC_REPRESENTATION_CONTEXT ( 3 ) GLOBAL_UNCERTAINTY_ASSIGNED_CONTEXT ( ( #133 ) ) GLOBAL_UNIT_ASSIGNED_CONTEXT ( ( #16, #241, #181 ) ) REPRESENTATION_CONTEXT ( 'NONE', 'WORKASPACE' ) );
#177 = CARTESIAN_POINT ( 'NONE',  ( -6.123233995736766036E-17, 4.000000000000000000, 0.000000000000000000 ) ) ;
#178 = EDGE_CURVE ( 'NONE', #142, #294, #70, .T. ) ;
#179 = CARTESIAN_POINT ( 'NONE',  ( 0.000000000000000000, 2.000000000000000000, 0.000000000000000000 ) ) ;
#180 = VERTEX_POINT ( 'NONE', #224 ) ;
#181 =( NAMED_UNIT ( * ) SI_UNIT ( $, .STERADIAN. ) SOLID_ANGLE_UNIT ( ) );
#182 = MANIFOLD_SOLID_BREP ( 'Revolve - Tool Body (Straight Shanked)', #30 ) ;
#183 = LINE ( 'NONE', #292, #307 ) ;
#184 = ORIENTED_EDGE ( 'NONE', *, *, #178, .T. ) ;
#185 = CLOSED_SHELL ( 'NONE', ( #41, #114, #171, #42 ) ) ;
#186 =( LENGTH_UNIT ( ) NAMED_UNIT ( * ) SI_UNIT ( $, .METRE. ) );
#187 = AXIS2_PLACEMENT_3D ( 'NONE', #177, #69, #25 ) ;
#188 = ORIENTED_EDGE ( 'NONE', *, *, #141, .T. ) ;
#189 =( GEOMETRIC_REPRESENTATION_CONTEXT ( 3 ) GLOBAL_UNCERTAINTY_ASSIGNED_CONTEXT ( ( #211 ) ) GLOBAL_UNIT_ASSIGNED_CONTEXT ( ( #267, #304, #308 ) ) REPRESENTATION_CONTEXT ( 'NONE', 'WORKASPACE' ) );
#190 = DIRECTION ( 'NONE',  ( 0.000000000000000000, 0.000000000000000000, -1.000000000000000000 ) ) ;
#191 = ADVANCED_BREP_SHAPE_REPRESENTATION ( '01392', ( #293, #182, #154 ), #176 ) ;
#192 = DIRECTION ( 'NONE',  ( -0.000000000000000000, -1.000000000000000000, -0.000000000000000000 ) ) ;
#193 = ORIENTED_EDGE ( 'NONE', *, *, #214, .T. ) ;
#194 = CARTESIAN_POINT ( 'NONE',  ( 0.000000000000000000, 0.000000000000000000, 0.000000000000000000 ) ) ;
#195 = FILL_AREA_STYLE_COLOUR ( '', #268 ) ;
#196 = CIRCLE ( 'NONE', #144, 0.1875000000000000278 ) ;
#197 = CARTESIAN_POINT ( 'NONE',  ( 0.000000000000000000, 0.000000000000000000, 0.000000000000000000 ) ) ;
#198 = SURFACE_STYLE_USAGE ( .BOTH. , #1 ) ;
#199 =( NAMED_UNIT ( * ) SI_UNIT ( $, .STERADIAN. ) SOLID_ANGLE_UNIT ( ) );
#200 = ADVANCED_FACE ( 'NONE', ( #47 ), #132, .F. ) ;
#201 = DIRECTION ( 'NONE',  ( -0.000000000000000000, -1.000000000000000000, -0.000000000000000000 ) ) ;
#202 = DIRECTION ( 'NONE',  ( -3.061616997868383018E-17, 1.000000000000000000, -0.000000000000000000 ) ) ;
#203 = MECHANICAL_DESIGN_GEOMETRIC_PRESENTATION_REPRESENTATION (  '', ( #89 ), #10 ) ;
#204 = DIRECTION ( 'NONE',  ( 0.000000000000000000, 1.000000000000000000, 0.000000000000000000 ) ) ;
#205 = DIRECTION ( 'NONE',  ( 3.061616997868383018E-17, -1.000000000000000000, 0.000000000000000000 ) ) ;
#206 = UNCERTAINTY_MEASURE_WITH_UNIT (LENGTH_MEASURE( 1.000000000000000082E-05 ), #217, 'distance_accuracy_value', 'NONE');
#207 = ORIENTED_EDGE ( 'NONE', *, *, #162, .T. ) ;
#208 = CARTESIAN_POINT ( 'NONE',  ( 0.000000000000000000, 0.000000000000000000, 0.000000000000000000 ) ) ;
#209 = CIRCLE ( 'NONE', #266, 0.1875000000000000833 ) ;
#210 = CARTESIAN_POINT ( 'NONE',  ( 0.000000000000000000, 2.000000000000000000, 0.000000000000000000 ) ) ;
#211 = UNCERTAINTY_MEASURE_WITH_UNIT (LENGTH_MEASURE( 1.000000000000000082E-05 ), #267, 'distance_accuracy_value', 'NONE');
#212 = DIRECTION ( 'NONE',  ( -1.000000000000000000, 0.000000000000000000, 0.000000000000000000 ) ) ;
#213 = DIRECTION ( 'NONE',  ( -0.000000000000000000, -1.000000000000000000, -0.000000000000000000 ) ) ;
#214 = EDGE_CURVE ( 'NONE', #288, #93, #236, .T. ) ;
#215 = MECHANICAL_DESIGN_GEOMETRIC_PRESENTATION_REPRESENTATION (  '', ( #220 ), #274 ) ;
#216 = AXIS2_PLACEMENT_3D ( 'NONE', #109, #135, #72 ) ;
#217 =( CONVERSION_BASED_UNIT ( 'INCH', #253 ) LENGTH_UNIT ( ) NAMED_UNIT ( #124 ) );
#218 =( CONVERSION_BASED_UNIT ( 'INCH', #3 ) LENGTH_UNIT ( ) NAMED_UNIT ( #279 ) );
#219 = SURFACE_STYLE_FILL_AREA ( #148 ) ;
#220 = STYLED_ITEM ( 'NONE', ( #12 ), #293 ) ;
#221 =( LENGTH_UNIT ( ) NAMED_UNIT ( * ) SI_UNIT ( $, .METRE. ) );
#222 = DIRECTION ( 'NONE',  ( -1.000000000000000000, 0.000000000000000000, 0.000000000000000000 ) ) ;
#223 = FACE_OUTER_BOUND ( 'NONE', #257, .T. ) ;
#224 = CARTESIAN_POINT ( 'NONE',  ( 0.1875000000000000278, 4.000000000000000000, 2.296212748401288342E-17 ) ) ;
#225 = CIRCLE ( 'NONE', #283, 0.1875000000000000278 ) ;
#226 = LENGTH_MEASURE_WITH_UNIT ( LENGTH_MEASURE( 0.02539999999999999897 ), #157 );
#227 = COLOUR_RGB ( '',1.000000000000000000, 0.000000000000000000, 0.000000000000000000 ) ;
#228 = CARTESIAN_POINT ( 'NONE',  ( 0.000000000000000000, 2.000000000000000000, 0.000000000000000000 ) ) ;
#229 = ORIENTED_EDGE ( 'NONE', *, *, #21, .T. ) ;
#230 = PRESENTATION_LAYER_ASSIGNMENT (  '', '', ( #245 ) ) ;
#231 = DIRECTION ( 'NONE',  ( -0.000000000000000000, -1.000000000000000000, -0.000000000000000000 ) ) ;
#232 = EDGE_CURVE ( 'NONE', #294, #180, #259, .T. ) ;
#233 = ORIENTED_EDGE ( 'NONE', *, *, #265, .T. ) ;
#234 = DIRECTION ( 'NONE',  ( 0.000000000000000000, 0.000000000000000000, -1.000000000000000000 ) ) ;
#235 = ORIENTED_EDGE ( 'NONE', *, *, #309, .F. ) ;
#236 = LINE ( 'NONE', #263, #106 ) ;
#237 = CARTESIAN_POINT ( 'NONE',  ( 0.1875000000000000278, 2.000000000000000000, 2.296212748401288342E-17 ) ) ;
#238 =( GEOMETRIC_REPRESENTATION_CONTEXT ( 3 ) GLOBAL_UNCERTAINTY_ASSIGNED_CONTEXT ( ( #256 ) ) GLOBAL_UNIT_ASSIGNED_CONTEXT ( ( #246, #156, #199 ) ) REPRESENTATION_CONTEXT ( 'NONE', 'WORKASPACE' ) );
#239 = EDGE_CURVE ( 'NONE', #93, #260, #225, .T. ) ;
#240 =( GEOMETRIC_REPRESENTATION_CONTEXT ( 3 ) GLOBAL_UNCERTAINTY_ASSIGNED_CONTEXT ( ( #150 ) ) GLOBAL_UNIT_ASSIGNED_CONTEXT ( ( #20, #173, #278 ) ) REPRESENTATION_CONTEXT ( 'NONE', 'WORKASPACE' ) );
#241 =( NAMED_UNIT ( * ) PLANE_ANGLE_UNIT ( ) SI_UNIT ( $, .RADIAN. ) );
#242 = PRESENTATION_LAYER_ASSIGNMENT (  '', '', ( #220 ) ) ;
#243 = MECHANICAL_DESIGN_GEOMETRIC_PRESENTATION_REPRESENTATION (  '', ( #119 ), #38 ) ;
#244 = COLOUR_RGB ( '',0.7921568627450980005, 0.8196078431372548767, 0.9333333333333333481 ) ;
#245 = STYLED_ITEM ( 'NONE', ( #252 ), #182 ) ;
#246 =( CONVERSION_BASED_UNIT ( 'INCH', #275 ) LENGTH_UNIT ( ) NAMED_UNIT ( #97 ) );
#247 = FACE_OUTER_BOUND ( 'NONE', #262, .T. ) ;
#248 = AXIS2_PLACEMENT_3D ( 'NONE', #210, #78, #212 ) ;
#249 = PRESENTATION_LAYER_ASSIGNMENT (  '', '', ( #305 ) ) ;
#250 = DIRECTION ( 'NONE',  ( 0.000000000000000000, -1.000000000000000000, -0.000000000000000000 ) ) ;
#251 = DIRECTION ( 'NONE',  ( 0.000000000000000000, 0.000000000000000000, 1.000000000000000000 ) ) ;
#252 = PRESENTATION_STYLE_ASSIGNMENT (( #27 ) ) ;
#253 = LENGTH_MEASURE_WITH_UNIT ( LENGTH_MEASURE( 0.02539999999999999897 ), #88 );
#254 = FILL_AREA_STYLE ('',( #158 ) ) ;
#255 = DIRECTION ( 'NONE',  ( -1.000000000000000000, -3.061616997868383018E-17, 0.000000000000000000 ) ) ;
#256 = UNCERTAINTY_MEASURE_WITH_UNIT (LENGTH_MEASURE( 1.000000000000000082E-05 ), #246, 'distance_accuracy_value', 'NONE');
#257 = EDGE_LOOP ( 'NONE', ( #184, #98, #117, #160 ) ) ;
#258 = SURFACE_STYLE_FILL_AREA ( #116 ) ;
#259 = LINE ( 'NONE', #298, #66 ) ;
#260 = VERTEX_POINT ( 'NONE', #77 ) ;
#261 = DIRECTION ( 'NONE',  ( -0.000000000000000000, -1.000000000000000000, -0.000000000000000000 ) ) ;
#262 = EDGE_LOOP ( 'NONE', ( #67, #76 ) ) ;
#263 = CARTESIAN_POINT ( 'NONE',  ( 0.000000000000000000, 0.000000000000000000, -0.1875000000000000278 ) ) ;
#264 = VECTOR ( 'NONE', #134, 39.37007874015748143 ) ;
#265 = EDGE_CURVE ( 'NONE', #260, #93, #196, .T. ) ;
#266 = AXIS2_PLACEMENT_3D ( 'NONE', #57, #138, #33 ) ;
#267 =( CONVERSION_BASED_UNIT ( 'INCH', #167 ) LENGTH_UNIT ( ) NAMED_UNIT ( #60 ) );
#268 = COLOUR_RGB ( '',1.000000000000000000, 0.000000000000000000, 0.000000000000000000 ) ;
#269 =( LENGTH_UNIT ( ) NAMED_UNIT ( * ) SI_UNIT ( $, .METRE. ) );
#270 = COLOUR_RGB ( '',1.000000000000000000, 0.000000000000000000, 0.000000000000000000 ) ;
#271 = CARTESIAN_POINT ( 'NONE',  ( 2.296212748401287726E-17, 2.000000000000000000, 0.1875000000000000278 ) ) ;
#272 = LENGTH_MEASURE_WITH_UNIT ( LENGTH_MEASURE( 0.02539999999999999897 ), #186 );
#273 = ADVANCED_FACE ( 'NONE', ( #61 ), #7, .T. ) ;
#274 =( GEOMETRIC_REPRESENTATION_CONTEXT ( 3 ) GLOBAL_UNCERTAINTY_ASSIGNED_CONTEXT ( ( #155 ) ) GLOBAL_UNIT_ASSIGNED_CONTEXT ( ( #143, #63, #35 ) ) REPRESENTATION_CONTEXT ( 'NONE', 'WORKASPACE' ) );
#275 = LENGTH_MEASURE_WITH_UNIT ( LENGTH_MEASURE( 0.02539999999999999897 ), #282 );
#276 = MECHANICAL_DESIGN_GEOMETRIC_PRESENTATION_REPRESENTATION (  '', ( #245 ), #240 ) ;
#277 = SHAPE_DEFINITION_REPRESENTATION ( #40, #191 ) ;
#278 =( NAMED_UNIT ( * ) SI_UNIT ( $, .STERADIAN. ) SOLID_ANGLE_UNIT ( ) );
#279 = DIMENSIONAL_EXPONENTS ( 1.000000000000000000, 0.000000000000000000, 0.000000000000000000, 0.000000000000000000, 0.000000000000000000, 0.000000000000000000, 0.000000000000000000 ) ;
#280 = PLANE ( 'NONE',  #101 ) ;
#281 = SURFACE_STYLE_FILL_AREA ( #254 ) ;
#282 =( LENGTH_UNIT ( ) NAMED_UNIT ( * ) SI_UNIT ( $, .METRE. ) );
#283 = AXIS2_PLACEMENT_3D ( 'NONE', #118, #213, #234 ) ;
#284 = SURFACE_SIDE_STYLE ('',( #54 ) ) ;
#285 = APPLICATION_CONTEXT ( 'automotive_design' ) ;
#286 = EDGE_CURVE ( 'NONE', #294, #142, #112, .T. ) ;
#287 = DIRECTION ( 'NONE',  ( 0.000000000000000000, 0.000000000000000000, -1.000000000000000000 ) ) ;
#288 = VERTEX_POINT ( 'NONE', #296 ) ;
#289 = APPLICATION_PROTOCOL_DEFINITION ( 'draft international standard', 'automotive_design', 1998, #82 ) ;
#290 = CARTESIAN_POINT ( 'NONE',  ( 0.000000000000000000, 2.000000000000000000, 0.000000000000000000 ) ) ;
#291 = AXIS2_PLACEMENT_3D ( 'NONE', #115, #205, #161 ) ;
#292 = CARTESIAN_POINT ( 'NONE',  ( 2.296212748401287726E-17, 0.000000000000000000, 0.1875000000000000278 ) ) ;
#293 = MANIFOLD_SOLID_BREP ( 'Revolve - Cutting Edge', #185 ) ;
#294 = VERTEX_POINT ( 'NONE', #237 ) ;
#295 = AXIS2_PLACEMENT_3D ( 'NONE', #48, #105, #222 ) ;
#296 = CARTESIAN_POINT ( 'NONE',  ( 0.000000000000000000, 2.000000000000000000, -0.1875000000000000278 ) ) ;
#297 = EDGE_LOOP ( 'NONE', ( #229, #123, #56, #139 ) ) ;
#298 = CARTESIAN_POINT ( 'NONE',  ( 0.1874999999999999722, 4.000000000000000000, 2.296212748401288034E-17 ) ) ;
#299 = DIRECTION ( 'NONE',  ( 0.000000000000000000, 0.000000000000000000, -1.000000000000000000 ) ) ;
#300 = DIRECTION ( 'NONE',  ( -3.061616997868383018E-17, 1.000000000000000000, 0.000000000000000000 ) ) ;
#301 = ADVANCED_FACE ( 'NONE', ( #91 ), #39, .F. ) ;
#302 = FACE_OUTER_BOUND ( 'NONE', #297, .T. ) ;
#303 = SURFACE_STYLE_USAGE ( .BOTH. , #145 ) ;
#304 =( NAMED_UNIT ( * ) PLANE_ANGLE_UNIT ( ) SI_UNIT ( $, .RADIAN. ) );
#305 = STYLED_ITEM ( 'NONE', ( #81 ), #41 ) ;
#306 = EDGE_CURVE ( 'NONE', #125, #180, #209, .T. ) ;
#307 = VECTOR ( 'NONE', #75, 39.37007874015748143 ) ;
#308 =( NAMED_UNIT ( * ) SI_UNIT ( $, .STERADIAN. ) SOLID_ANGLE_UNIT ( ) );
#309 = EDGE_CURVE ( 'NONE', #14, #260, #183, .T. ) ;
ENDSEC;
END-ISO-10303-21;
