ISO-10303-21;
HEADER;
FILE_DESCRIPTION (( 'STEP AP214' ),
    '1' );
FILE_NAME ('Micro_SEM-031-02.STEP',
    '2021-09-02T00:27:21',
    ( '' ),
    ( '' ),
    'SwSTEP 2.0',
    'SolidWorks 2020',
    '' );
FILE_SCHEMA (( 'AUTOMOTIVE_DESIGN' ));
ENDSEC;

DATA;
#1 = EDGE_CURVE ( 'NONE', #24, #106, #140, .T. ) ;
#2 = CARTESIAN_POINT ( 'NONE',  ( -0.04750000000000064587, 0.0000000000000000000, 1.500000000000000222 ) ) ;
#3 =( GEOMETRIC_REPRESENTATION_CONTEXT ( 3 ) GLOBAL_UNCERTAINTY_ASSIGNED_CONTEXT ( ( #61 ) ) GLOBAL_UNIT_ASSIGNED_CONTEXT ( ( #184, #187, #88 ) ) REPRESENTATION_CONTEXT ( 'NONE', 'WORKASPACE' ) );
#4 = SURFACE_STYLE_FILL_AREA ( #21 ) ;
#5 = EDGE_CURVE ( 'NONE', #24, #121, #191, .T. ) ;
#6 =( NAMED_UNIT ( * ) PLANE_ANGLE_UNIT ( ) SI_UNIT ( $, .RADIAN. ) );
#7 = PRODUCT_RELATED_PRODUCT_CATEGORY ( 'part', '', ( #34 ) ) ;
#8 = EDGE_LOOP ( 'NONE', ( #109, #77, #188, #162 ) ) ;
#9 = ORIENTED_EDGE ( 'NONE', *, *, #120, .F. ) ;
#10 = ORIENTED_EDGE ( 'NONE', *, *, #120, .T. ) ;
#11 = ORIENTED_EDGE ( 'NONE', *, *, #87, .T. ) ;
#12 = STYLED_ITEM ( 'NONE', ( #154 ), #117 ) ;
#13 = FILL_AREA_STYLE_COLOUR ( '', #133 ) ;
#14 = DIRECTION ( 'NONE',  ( -0.0000000000000000000, -0.0000000000000000000, -1.000000000000000000 ) ) ;
#15 = DIRECTION ( 'NONE',  ( 1.000000000000000000, 0.0000000000000000000, -0.0000000000000000000 ) ) ;
#16 = AXIS2_PLACEMENT_3D ( 'NONE', #146, #181, #115 ) ;
#17 = PRODUCT_DEFINITION_CONTEXT ( 'detailed design', #149, 'design' ) ;
#18 = DIRECTION ( 'NONE',  ( 1.000000000000000000, 0.0000000000000000000, 0.0000000000000000000 ) ) ;
#19 = CARTESIAN_POINT ( 'NONE',  ( 0.06250000000000000000, 7.654042494670956004E-18, 1.485000000000000764 ) ) ;
#20 = VECTOR ( 'NONE', #43, 39.37007874015748143 ) ;
#21 = FILL_AREA_STYLE ('',( #48 ) ) ;
#22 = SURFACE_STYLE_USAGE ( .BOTH. , #62 ) ;
#23 = AXIS2_PLACEMENT_3D ( 'NONE', #192, #95, #93 ) ;
#24 = VERTEX_POINT ( 'NONE', #165 ) ;
#25 = AXIS2_PLACEMENT_3D ( 'NONE', #168, #27, #15 ) ;
#26 = ORIENTED_EDGE ( 'NONE', *, *, #166, .T. ) ;
#27 = DIRECTION ( 'NONE',  ( 0.0000000000000000000, 0.0000000000000000000, 1.000000000000000000 ) ) ;
#28 = CARTESIAN_POINT ( 'NONE',  ( -0.06250000000000000000, 0.0000000000000000000, 1.485000000000000764 ) ) ;
#29 = CARTESIAN_POINT ( 'NONE',  ( 0.06250000000000000000, 7.654042494670956004E-18, 1.500000000000000222 ) ) ;
#30 = SURFACE_STYLE_USAGE ( .BOTH. , #58 ) ;
#31 = CARTESIAN_POINT ( 'NONE',  ( 0.0000000000000000000, 0.0000000000000000000, 0.0000000000000000000 ) ) ;
#32 = LENGTH_MEASURE_WITH_UNIT ( LENGTH_MEASURE( 0.02539999999999999897 ), #134 );
#33 = CARTESIAN_POINT ( 'NONE',  ( -0.06250000000000000000, 0.0000000000000000000, 0.0000000000000000000 ) ) ;
#34 = PRODUCT ( 'Micro_SEM-031-02', 'Micro_SEM-031-02', '', ( #174 ) ) ;
#35 = VERTEX_POINT ( 'NONE', #28 ) ;
#36 = ORIENTED_EDGE ( 'NONE', *, *, #151, .T. ) ;
#37 = PRODUCT_DEFINITION_FORMATION_WITH_SPECIFIED_SOURCE ( 'ANY', '', #34, .NOT_KNOWN. ) ;
#38 = ORIENTED_EDGE ( 'NONE', *, *, #151, .F. ) ;
#39 = APPLICATION_CONTEXT ( 'automotive_design' ) ;
#40 = CYLINDRICAL_SURFACE ( 'NONE', #148, 0.06250000000000000000 ) ;
#41 = VECTOR ( 'NONE', #83, 39.37007874015748143 ) ;
#42 = DIRECTION ( 'NONE',  ( 1.000000000000000000, 0.0000000000000000000, 0.0000000000000000000 ) ) ;
#43 = DIRECTION ( 'NONE',  ( -0.0000000000000000000, -0.0000000000000000000, -1.000000000000000000 ) ) ;
#44 = FACE_OUTER_BOUND ( 'NONE', #128, .T. ) ;
#45 = CYLINDRICAL_SURFACE ( 'NONE', #54, 0.06250000000000000000 ) ;
#46 =( NAMED_UNIT ( * ) SI_UNIT ( $, .STERADIAN. ) SOLID_ANGLE_UNIT ( ) );
#47 = AXIS2_PLACEMENT_3D ( 'NONE', #198, #116, #195 ) ;
#48 = FILL_AREA_STYLE_COLOUR ( '', #92 ) ;
#49 = LENGTH_MEASURE_WITH_UNIT ( LENGTH_MEASURE( 0.02539999999999999897 ), #172 );
#50 = APPLICATION_PROTOCOL_DEFINITION ( 'draft international standard', 'automotive_design', 1998, #149 ) ;
#51 = PRESENTATION_LAYER_ASSIGNMENT (  '', '', ( #113 ) ) ;
#52 = EDGE_LOOP ( 'NONE', ( #96, #124, #38, #67 ) ) ;
#53 = DIMENSIONAL_EXPONENTS ( 1.000000000000000000, 0.0000000000000000000, 0.0000000000000000000, 0.0000000000000000000, 0.0000000000000000000, 0.0000000000000000000, 0.0000000000000000000 ) ;
#54 = AXIS2_PLACEMENT_3D ( 'NONE', #72, #14, #199 ) ;
#55 = CARTESIAN_POINT ( 'NONE',  ( 0.0000000000000000000, 0.0000000000000000000, 1.500000000000000222 ) ) ;
#56 = FACE_OUTER_BOUND ( 'NONE', #142, .T. ) ;
#57 =( GEOMETRIC_REPRESENTATION_CONTEXT ( 3 ) GLOBAL_UNCERTAINTY_ASSIGNED_CONTEXT ( ( #197 ) ) GLOBAL_UNIT_ASSIGNED_CONTEXT ( ( #76, #6, #46 ) ) REPRESENTATION_CONTEXT ( 'NONE', 'WORKASPACE' ) );
#58 = SURFACE_SIDE_STYLE ('',( #130 ) ) ;
#59 = DIRECTION ( 'NONE',  ( 0.0000000000000000000, 0.0000000000000000000, 1.000000000000000000 ) ) ;
#60 = CARTESIAN_POINT ( 'NONE',  ( -0.04750000000000064587, 0.0000000000000000000, 1.500000000000000222 ) ) ;
#61 = UNCERTAINTY_MEASURE_WITH_UNIT (LENGTH_MEASURE( 1.000000000000000082E-05 ), #184, 'distance_accuracy_value', 'NONE');
#62 = SURFACE_SIDE_STYLE ('',( #4 ) ) ;
#63 = ADVANCED_FACE ( 'NONE', ( #150 ), #40, .T. ) ;
#64 = APPLICATION_PROTOCOL_DEFINITION ( 'draft international standard', 'automotive_design', 1998, #39 ) ;
#65 = ORIENTED_EDGE ( 'NONE', *, *, #94, .T. ) ;
#66 = ORIENTED_EDGE ( 'NONE', *, *, #143, .F. ) ;
#67 = ORIENTED_EDGE ( 'NONE', *, *, #90, .F. ) ;
#68 = FILL_AREA_STYLE ('',( #13 ) ) ;
#69 = DIRECTION ( 'NONE',  ( -0.0000000000000000000, -0.0000000000000000000, -1.000000000000000000 ) ) ;
#70 = FACE_OUTER_BOUND ( 'NONE', #158, .T. ) ;
#71 = CIRCLE ( 'NONE', #139, 0.04750000000000064587 ) ;
#72 = CARTESIAN_POINT ( 'NONE',  ( 0.0000000000000000000, 0.0000000000000000000, 1.500000000000000222 ) ) ;
#73 = DIRECTION ( 'NONE',  ( 0.0000000000000000000, 0.0000000000000000000, 1.000000000000000000 ) ) ;
#74 = PRODUCT_DEFINITION ( 'UNKNOWN', '', #37, #17 ) ;
#75 =( NAMED_UNIT ( * ) PLANE_ANGLE_UNIT ( ) SI_UNIT ( $, .RADIAN. ) );
#76 =( CONVERSION_BASED_UNIT ( 'INCH', #32 ) LENGTH_UNIT ( ) NAMED_UNIT ( #156 ) );
#77 = ORIENTED_EDGE ( 'NONE', *, *, #87, .F. ) ;
#78 = VECTOR ( 'NONE', #85, 39.37007874015748143 ) ;
#79 = ORIENTED_EDGE ( 'NONE', *, *, #1, .T. ) ;
#80 = SHAPE_DEFINITION_REPRESENTATION ( #89, #117 ) ;
#81 = ORIENTED_EDGE ( 'NONE', *, *, #111, .T. ) ;
#82 = CARTESIAN_POINT ( 'NONE',  ( 0.0000000000000000000, 0.0000000000000000000, 1.485000000000000764 ) ) ;
#83 = DIRECTION ( 'NONE',  ( -0.7071067811865456854, 0.0000000000000000000, -0.7071067811865493491 ) ) ;
#84 = ADVANCED_FACE ( 'NONE', ( #97 ), #129, .T. ) ;
#85 = DIRECTION ( 'NONE',  ( -0.0000000000000000000, -0.0000000000000000000, -1.000000000000000000 ) ) ;
#86 = LINE ( 'NONE', #167, #20 ) ;
#87 = EDGE_CURVE ( 'NONE', #106, #24, #71, .T. ) ;
#88 =( NAMED_UNIT ( * ) SI_UNIT ( $, .STERADIAN. ) SOLID_ANGLE_UNIT ( ) );
#89 = PRODUCT_DEFINITION_SHAPE ( 'NONE', 'NONE',  #74 ) ;
#90 = EDGE_CURVE ( 'NONE', #106, #35, #110, .T. ) ;
#91 = DIRECTION ( 'NONE',  ( 0.0000000000000000000, 0.0000000000000000000, 1.000000000000000000 ) ) ;
#92 = COLOUR_RGB ( '',0.7921568627450980005, 0.8196078431372548767, 0.9333333333333333481 ) ;
#93 = DIRECTION ( 'NONE',  ( 1.000000000000000000, 0.0000000000000000000, 0.0000000000000000000 ) ) ;
#94 = EDGE_CURVE ( 'NONE', #175, #176, #137, .T. ) ;
#95 = DIRECTION ( 'NONE',  ( 0.0000000000000000000, 0.0000000000000000000, 1.000000000000000000 ) ) ;
#96 = ORIENTED_EDGE ( 'NONE', *, *, #1, .F. ) ;
#97 = FACE_OUTER_BOUND ( 'NONE', #8, .T. ) ;
#98 = AXIS2_PLACEMENT_3D ( 'NONE', #147, #101, #102 ) ;
#99 = ADVANCED_FACE ( 'NONE', ( #44 ), #45, .T. ) ;
#100 = DIRECTION ( 'NONE',  ( -1.000000000000000000, 0.0000000000000000000, 0.0000000000000000000 ) ) ;
#101 = DIRECTION ( 'NONE',  ( 0.0000000000000000000, 0.0000000000000000000, -1.000000000000000000 ) ) ;
#102 = DIRECTION ( 'NONE',  ( 1.000000000000000000, 0.0000000000000000000, 0.0000000000000000000 ) ) ;
#103 =( GEOMETRIC_REPRESENTATION_CONTEXT ( 3 ) GLOBAL_UNCERTAINTY_ASSIGNED_CONTEXT ( ( #185 ) ) GLOBAL_UNIT_ASSIGNED_CONTEXT ( ( #171, #75, #104 ) ) REPRESENTATION_CONTEXT ( 'NONE', 'WORKASPACE' ) );
#104 =( NAMED_UNIT ( * ) SI_UNIT ( $, .STERADIAN. ) SOLID_ANGLE_UNIT ( ) );
#105 =( LENGTH_UNIT ( ) NAMED_UNIT ( * ) SI_UNIT ( $, .METRE. ) );
#106 = VERTEX_POINT ( 'NONE', #60 ) ;
#107 = CARTESIAN_POINT ( 'NONE',  ( 0.04750000000000064587, 5.817072295950006528E-18, 1.500000000000000222 ) ) ;
#108 = MECHANICAL_DESIGN_GEOMETRIC_PRESENTATION_REPRESENTATION (  '', ( #12 ), #3 ) ;
#109 = ORIENTED_EDGE ( 'NONE', *, *, #5, .F. ) ;
#110 = LINE ( 'NONE', #2, #41 ) ;
#111 = EDGE_CURVE ( 'NONE', #176, #175, #169, .T. ) ;
#112 = CARTESIAN_POINT ( 'NONE',  ( 0.0000000000000000000, 0.0000000000000000000, 0.0000000000000000000 ) ) ;
#113 = STYLED_ITEM ( 'NONE', ( #114 ), #160 ) ;
#114 = PRESENTATION_STYLE_ASSIGNMENT (( #30 ) ) ;
#115 = DIRECTION ( 'NONE',  ( 1.000000000000000000, 0.0000000000000000000, 0.0000000000000000000 ) ) ;
#116 = DIRECTION ( 'NONE',  ( 0.0000000000000000000, 0.0000000000000000000, -1.000000000000000000 ) ) ;
#117 = ADVANCED_BREP_SHAPE_REPRESENTATION ( 'Micro_SEM-031-02', ( #160, #173 ), #103 ) ;
#118 = CARTESIAN_POINT ( 'NONE',  ( 0.0000000000000000000, 0.0000000000000000000, 0.0000000000000000000 ) ) ;
#119 = LENGTH_MEASURE_WITH_UNIT ( LENGTH_MEASURE( 0.02539999999999999897 ), #105 );
#120 = EDGE_CURVE ( 'NONE', #35, #175, #86, .T. ) ;
#121 = VERTEX_POINT ( 'NONE', #19 ) ;
#122 = VECTOR ( 'NONE', #131, 39.37007874015748143 ) ;
#123 = AXIS2_PLACEMENT_3D ( 'NONE', #135, #177, #132 ) ;
#124 = ORIENTED_EDGE ( 'NONE', *, *, #5, .T. ) ;
#125 = ADVANCED_FACE ( 'NONE', ( #196 ), #189, .T. ) ;
#126 = EDGE_LOOP ( 'NONE', ( #66, #26, #10, #65 ) ) ;
#127 = CLOSED_SHELL ( 'NONE', ( #125, #99, #63, #157, #141, #84 ) ) ;
#128 = EDGE_LOOP ( 'NONE', ( #36, #190, #81, #9 ) ) ;
#129 = CONICAL_SURFACE ( 'NONE', #123, 0.04750000000000064587, 0.7853981633974457255 ) ;
#130 = SURFACE_STYLE_FILL_AREA ( #68 ) ;
#131 = DIRECTION ( 'NONE',  ( 0.7071067811865456854, 8.659560562354911904E-17, -0.7071067811865493491 ) ) ;
#132 = DIRECTION ( 'NONE',  ( -1.000000000000000000, 0.0000000000000000000, 0.0000000000000000000 ) ) ;
#133 = COLOUR_RGB ( '',0.7921568627450980005, 0.8196078431372548767, 0.9333333333333333481 ) ;
#134 =( LENGTH_UNIT ( ) NAMED_UNIT ( * ) SI_UNIT ( $, .METRE. ) );
#135 = CARTESIAN_POINT ( 'NONE',  ( 0.0000000000000000000, 0.0000000000000000000, 1.500000000000000222 ) ) ;
#136 = DIRECTION ( 'NONE',  ( 1.000000000000000000, 0.0000000000000000000, 0.0000000000000000000 ) ) ;
#137 = CIRCLE ( 'NONE', #16, 0.06250000000000000000 ) ;
#138 = DIRECTION ( 'NONE',  ( 0.0000000000000000000, 0.0000000000000000000, -1.000000000000000000 ) ) ;
#139 = AXIS2_PLACEMENT_3D ( 'NONE', #145, #59, #42 ) ;
#140 = CIRCLE ( 'NONE', #23, 0.04750000000000064587 ) ;
#141 = ADVANCED_FACE ( 'NONE', ( #56 ), #163, .F. ) ;
#142 = EDGE_LOOP ( 'NONE', ( #159, #194 ) ) ;
#143 = EDGE_CURVE ( 'NONE', #121, #176, #179, .T. ) ;
#144 = PRESENTATION_LAYER_ASSIGNMENT (  '', '', ( #12 ) ) ;
#145 = CARTESIAN_POINT ( 'NONE',  ( 0.0000000000000000000, 0.0000000000000000000, 1.500000000000000222 ) ) ;
#146 = CARTESIAN_POINT ( 'NONE',  ( 0.0000000000000000000, 0.0000000000000000000, 0.0000000000000000000 ) ) ;
#147 = CARTESIAN_POINT ( 'NONE',  ( 0.0000000000000000000, 0.0000000000000000000, 1.485000000000000764 ) ) ;
#148 = AXIS2_PLACEMENT_3D ( 'NONE', #55, #69, #100 ) ;
#149 = APPLICATION_CONTEXT ( 'automotive_design' ) ;
#150 = FACE_OUTER_BOUND ( 'NONE', #126, .T. ) ;
#151 = EDGE_CURVE ( 'NONE', #35, #121, #155, .T. ) ;
#152 = AXIS2_PLACEMENT_3D ( 'NONE', #82, #138, #136 ) ;
#153 = CARTESIAN_POINT ( 'NONE',  ( 0.06250000000000000000, 7.654042494670956004E-18, 0.0000000000000000000 ) ) ;
#154 = PRESENTATION_STYLE_ASSIGNMENT (( #22 ) ) ;
#155 = CIRCLE ( 'NONE', #98, 0.06250000000000000000 ) ;
#156 = DIMENSIONAL_EXPONENTS ( 1.000000000000000000, 0.0000000000000000000, 0.0000000000000000000, 0.0000000000000000000, 0.0000000000000000000, 0.0000000000000000000, 0.0000000000000000000 ) ;
#157 = ADVANCED_FACE ( 'NONE', ( #70 ), #170, .T. ) ;
#158 = EDGE_LOOP ( 'NONE', ( #11, #79 ) ) ;
#159 = ORIENTED_EDGE ( 'NONE', *, *, #94, .F. ) ;
#160 = MANIFOLD_SOLID_BREP ( 'Chamfer', #127 ) ;
#161 = DIRECTION ( 'NONE',  ( 1.000000000000000000, 0.0000000000000000000, 0.0000000000000000000 ) ) ;
#162 = ORIENTED_EDGE ( 'NONE', *, *, #166, .F. ) ;
#163 = PLANE ( 'NONE',  #193 ) ;
#164 = CIRCLE ( 'NONE', #152, 0.06250000000000000000 ) ;
#165 = CARTESIAN_POINT ( 'NONE',  ( 0.04750000000000064587, 6.735557395310482421E-18, 1.500000000000000222 ) ) ;
#166 = EDGE_CURVE ( 'NONE', #121, #35, #164, .T. ) ;
#167 = CARTESIAN_POINT ( 'NONE',  ( -0.06250000000000000000, 0.0000000000000000000, 1.500000000000000222 ) ) ;
#168 = CARTESIAN_POINT ( 'NONE',  ( 0.0000000000000000000, 0.0000000000000000000, 1.500000000000000222 ) ) ;
#169 = CIRCLE ( 'NONE', #182, 0.06250000000000000000 ) ;
#170 = PLANE ( 'NONE',  #25 ) ;
#171 =( CONVERSION_BASED_UNIT ( 'INCH', #49 ) LENGTH_UNIT ( ) NAMED_UNIT ( #53 ) );
#172 =( LENGTH_UNIT ( ) NAMED_UNIT ( * ) SI_UNIT ( $, .METRE. ) );
#173 = AXIS2_PLACEMENT_3D ( 'NONE', #118, #91, #161 ) ;
#174 = PRODUCT_CONTEXT ( 'NONE', #39, 'mechanical' ) ;
#175 = VERTEX_POINT ( 'NONE', #33 ) ;
#176 = VERTEX_POINT ( 'NONE', #153 ) ;
#177 = DIRECTION ( 'NONE',  ( 0.0000000000000000000, 0.0000000000000000000, -1.000000000000000000 ) ) ;
#178 = MECHANICAL_DESIGN_GEOMETRIC_PRESENTATION_REPRESENTATION (  '', ( #113 ), #57 ) ;
#179 = LINE ( 'NONE', #29, #78 ) ;
#180 = DIRECTION ( 'NONE',  ( 0.0000000000000000000, 0.0000000000000000000, 1.000000000000000000 ) ) ;
#181 = DIRECTION ( 'NONE',  ( 0.0000000000000000000, 0.0000000000000000000, 1.000000000000000000 ) ) ;
#182 = AXIS2_PLACEMENT_3D ( 'NONE', #31, #180, #18 ) ;
#183 = DIRECTION ( 'NONE',  ( 1.000000000000000000, 0.0000000000000000000, -0.0000000000000000000 ) ) ;
#184 =( CONVERSION_BASED_UNIT ( 'INCH', #119 ) LENGTH_UNIT ( ) NAMED_UNIT ( #186 ) );
#185 = UNCERTAINTY_MEASURE_WITH_UNIT (LENGTH_MEASURE( 1.000000000000000082E-05 ), #171, 'distance_accuracy_value', 'NONE');
#186 = DIMENSIONAL_EXPONENTS ( 1.000000000000000000, 0.0000000000000000000, 0.0000000000000000000, 0.0000000000000000000, 0.0000000000000000000, 0.0000000000000000000, 0.0000000000000000000 ) ;
#187 =( NAMED_UNIT ( * ) PLANE_ANGLE_UNIT ( ) SI_UNIT ( $, .RADIAN. ) );
#188 = ORIENTED_EDGE ( 'NONE', *, *, #90, .T. ) ;
#189 = CONICAL_SURFACE ( 'NONE', #47, 0.04750000000000064587, 0.7853981633974457255 ) ;
#190 = ORIENTED_EDGE ( 'NONE', *, *, #143, .T. ) ;
#191 = LINE ( 'NONE', #107, #122 ) ;
#192 = CARTESIAN_POINT ( 'NONE',  ( 0.0000000000000000000, 0.0000000000000000000, 1.500000000000000222 ) ) ;
#193 = AXIS2_PLACEMENT_3D ( 'NONE', #112, #73, #183 ) ;
#194 = ORIENTED_EDGE ( 'NONE', *, *, #111, .F. ) ;
#195 = DIRECTION ( 'NONE',  ( -1.000000000000000000, 0.0000000000000000000, 0.0000000000000000000 ) ) ;
#196 = FACE_OUTER_BOUND ( 'NONE', #52, .T. ) ;
#197 = UNCERTAINTY_MEASURE_WITH_UNIT (LENGTH_MEASURE( 1.000000000000000082E-05 ), #76, 'distance_accuracy_value', 'NONE');
#198 = CARTESIAN_POINT ( 'NONE',  ( 0.0000000000000000000, 0.0000000000000000000, 1.500000000000000222 ) ) ;
#199 = DIRECTION ( 'NONE',  ( -1.000000000000000000, 0.0000000000000000000, 0.0000000000000000000 ) ) ;
ENDSEC;
END-ISO-10303-21;
