ISO-10303-21;
HEADER;
FILE_DESCRIPTION (( 'STEP AP214' ),
    '1' );
FILE_NAME ('Micro_GEMM-100-3.STEP',
    '2021-09-01T21:52:21',
    ( '' ),
    ( '' ),
    'SwSTEP 2.0',
    'SolidWorks 2020',
    '' );
FILE_SCHEMA (( 'AUTOMOTIVE_DESIGN' ));
ENDSEC;

DATA;
#1 = PRESENTATION_LAYER_ASSIGNMENT (  '', '', ( #22 ) ) ;
#2 = CONICAL_SURFACE ( 'NONE', #213, 0.1966536495000000273, 0.1745329251994338915 ) ;
#3 = PLANE ( 'NONE',  #26 ) ;
#4 = DIRECTION ( 'NONE',  ( -0.0000000000000000000, -0.0000000000000000000, -1.000000000000000000 ) ) ;
#5 = FACE_OUTER_BOUND ( 'NONE', #13, .T. ) ;
#6 = CARTESIAN_POINT ( 'NONE',  ( 0.0000000000000000000, 0.0000000000000000000, 2.834646000000000665 ) ) ;
#7 = CYLINDRICAL_SURFACE ( 'NONE', #82, 0.1966536495000000273 ) ;
#8 = AXIS2_PLACEMENT_3D ( 'NONE', #6, #61, #216 ) ;
#9 = PRODUCT_RELATED_PRODUCT_CATEGORY ( 'part', '', ( #83 ) ) ;
#10 = LINE ( 'NONE', #196, #228 ) ;
#11 = CARTESIAN_POINT ( 'NONE',  ( 9.160737698129936696E-17, 0.0000000000000000000, 0.7480309999999998904 ) ) ;
#12 = DIRECTION ( 'NONE',  ( -0.0000000000000000000, -0.0000000000000000000, -1.000000000000000000 ) ) ;
#13 = EDGE_LOOP ( 'NONE', ( #187, #19, #181, #137 ) ) ;
#14 = DIRECTION ( 'NONE',  ( -1.000000000000000000, 0.0000000000000000000, 0.0000000000000000000 ) ) ;
#15 = ORIENTED_EDGE ( 'NONE', *, *, #104, .F. ) ;
#16 = PRESENTATION_STYLE_ASSIGNMENT (( #43 ) ) ;
#17 = DIRECTION ( 'NONE',  ( -1.000000000000000000, 0.0000000000000000000, 0.0000000000000000000 ) ) ;
#18 = EDGE_CURVE ( 'NONE', #166, #117, #254, .T. ) ;
#19 = ORIENTED_EDGE ( 'NONE', *, *, #292, .T. ) ;
#20 = ORIENTED_EDGE ( 'NONE', *, *, #192, .T. ) ;
#21 = EDGE_CURVE ( 'NONE', #166, #208, #139, .T. ) ;
#22 = STYLED_ITEM ( 'NONE', ( #16 ), #56 ) ;
#23 = CARTESIAN_POINT ( 'NONE',  ( -0.1818505000000002481, 0.0000000000000000000, 2.834646000000000665 ) ) ;
#24 = DIRECTION ( 'NONE',  ( -1.000000000000000000, 0.0000000000000000000, 0.0000000000000000000 ) ) ;
#25 =( LENGTH_UNIT ( ) NAMED_UNIT ( * ) SI_UNIT ( $, .METRE. ) );
#26 = AXIS2_PLACEMENT_3D ( 'NONE', #30, #35, #258 ) ;
#27 =( GEOMETRIC_REPRESENTATION_CONTEXT ( 3 ) GLOBAL_UNCERTAINTY_ASSIGNED_CONTEXT ( ( #99 ) ) GLOBAL_UNIT_ASSIGNED_CONTEXT ( ( #271, #230, #274 ) ) REPRESENTATION_CONTEXT ( 'NONE', 'WORKASPACE' ) );
#28 = ADVANCED_FACE ( 'NONE', ( #144 ), #211, .T. ) ;
#29 = AXIS2_PLACEMENT_3D ( 'NONE', #171, #50, #74 ) ;
#30 = CARTESIAN_POINT ( 'NONE',  ( 0.0000000000000000000, 0.0000000000000000000, 2.834646000000000665 ) ) ;
#31 = EDGE_CURVE ( 'NONE', #38, #293, #180, .T. ) ;
#32 = PRODUCT_DEFINITION_FORMATION_WITH_SPECIFIED_SOURCE ( 'ANY', '', #83, .NOT_KNOWN. ) ;
#33 = FACE_OUTER_BOUND ( 'NONE', #289, .T. ) ;
#34 = DIRECTION ( 'NONE',  ( 1.224646799147353207E-16, 0.0000000000000000000, 1.000000000000000000 ) ) ;
#35 = DIRECTION ( 'NONE',  ( 0.0000000000000000000, 0.0000000000000000000, 1.000000000000000000 ) ) ;
#36 = CARTESIAN_POINT ( 'NONE',  ( 0.0000000000000000000, 0.0000000000000000000, 0.0000000000000000000 ) ) ;
#37 = CARTESIAN_POINT ( 'NONE',  ( -0.1818505000000002481, 0.0000000000000000000, 2.834646000000000665 ) ) ;
#38 = VERTEX_POINT ( 'NONE', #251 ) ;
#39 = PRODUCT_DEFINITION_CONTEXT ( 'detailed design', #170, 'design' ) ;
#40 = EDGE_CURVE ( 'NONE', #73, #199, #78, .T. ) ;
#41 = ORIENTED_EDGE ( 'NONE', *, *, #91, .F. ) ;
#42 = FACE_OUTER_BOUND ( 'NONE', #184, .T. ) ;
#43 = SURFACE_STYLE_USAGE ( .BOTH. , #221 ) ;
#44 = ORIENTED_EDGE ( 'NONE', *, *, #54, .F. ) ;
#45 = DIRECTION ( 'NONE',  ( 0.0000000000000000000, 0.0000000000000000000, 1.000000000000000000 ) ) ;
#46 = EDGE_CURVE ( 'NONE', #199, #95, #96, .T. ) ;
#47 = DIRECTION ( 'NONE',  ( 1.000000000000000000, 0.0000000000000000000, 0.0000000000000000000 ) ) ;
#48 = AXIS2_PLACEMENT_3D ( 'NONE', #11, #158, #219 ) ;
#49 = STYLED_ITEM ( 'NONE', ( #231 ), #101 ) ;
#50 = DIRECTION ( 'NONE',  ( 0.0000000000000000000, 0.0000000000000000000, -1.000000000000000000 ) ) ;
#51 = FILL_AREA_STYLE ('',( #140 ) ) ;
#52 = EDGE_CURVE ( 'NONE', #73, #208, #53, .T. ) ;
#53 = CIRCLE ( 'NONE', #29, 0.1968504999999999838 ) ;
#54 = EDGE_CURVE ( 'NONE', #95, #199, #255, .T. ) ;
#55 = FACE_OUTER_BOUND ( 'NONE', #120, .T. ) ;
#56 = MANIFOLD_SOLID_BREP ( 'Cut-Revolve1', #265 ) ;
#57 = COLOUR_RGB ( '',0.7921568627450980005, 0.8196078431372548767, 0.9333333333333333481 ) ;
#58 = DIMENSIONAL_EXPONENTS ( 1.000000000000000000, 0.0000000000000000000, 0.0000000000000000000, 0.0000000000000000000, 0.0000000000000000000, 0.0000000000000000000, 0.0000000000000000000 ) ;
#59 = CARTESIAN_POINT ( 'NONE',  ( 0.0000000000000000000, 0.0000000000000000000, 2.834646000000000665 ) ) ;
#60 = CARTESIAN_POINT ( 'NONE',  ( 0.1968504999999999838, 2.410723347355560646E-17, 2.819646000000000097 ) ) ;
#61 = DIRECTION ( 'NONE',  ( 0.0000000000000000000, 0.0000000000000000000, 1.000000000000000000 ) ) ;
#62 = EDGE_CURVE ( 'NONE', #208, #73, #87, .T. ) ;
#63 = FACE_OUTER_BOUND ( 'NONE', #71, .T. ) ;
#64 = CARTESIAN_POINT ( 'NONE',  ( 0.0000000000000000000, 0.0000000000000000000, 2.834646000000000665 ) ) ;
#65 = CONICAL_SURFACE ( 'NONE', #263, 0.1818505000000002481, 0.7853981633974312926 ) ;
#66 = AXIS2_PLACEMENT_3D ( 'NONE', #138, #45, #205 ) ;
#67 = AXIS2_PLACEMENT_3D ( 'NONE', #124, #143, #229 ) ;
#68 = DIRECTION ( 'NONE',  ( -1.000000000000000000, 0.0000000000000000000, 1.224646799147353207E-16 ) ) ;
#69 = ORIENTED_EDGE ( 'NONE', *, *, #126, .T. ) ;
#70 = LENGTH_MEASURE_WITH_UNIT ( LENGTH_MEASURE( 0.02539999999999999897 ), #278 );
#71 = EDGE_LOOP ( 'NONE', ( #291, #15, #113, #245 ) ) ;
#72 = FILL_AREA_STYLE_COLOUR ( '', #133 ) ;
#73 = VERTEX_POINT ( 'NONE', #60 ) ;
#74 = DIRECTION ( 'NONE',  ( 1.000000000000000000, 0.0000000000000000000, 0.0000000000000000000 ) ) ;
#75 = MECHANICAL_DESIGN_GEOMETRIC_PRESENTATION_REPRESENTATION (  '', ( #49 ), #27 ) ;
#76 = VECTOR ( 'NONE', #149, 39.37007874015748854 ) ;
#77 = ORIENTED_EDGE ( 'NONE', *, *, #46, .F. ) ;
#78 = LINE ( 'NONE', #267, #186 ) ;
#79 = ORIENTED_EDGE ( 'NONE', *, *, #40, .T. ) ;
#80 = DIRECTION ( 'NONE',  ( 1.000000000000000000, 0.0000000000000000000, 0.0000000000000000000 ) ) ;
#81 = DIRECTION ( 'NONE',  ( -1.224646799147353207E-16, -0.0000000000000000000, -1.000000000000000000 ) ) ;
#82 = AXIS2_PLACEMENT_3D ( 'NONE', #36, #285, #68 ) ;
#83 = PRODUCT ( 'Micro_GEMM-100-3', 'Micro_GEMM-100-3', '', ( #227 ) ) ;
#84 = APPLICATION_CONTEXT ( 'automotive_design' ) ;
#85 = ADVANCED_FACE ( 'NONE', ( #33 ), #238, .T. ) ;
#86 = PRODUCT_DEFINITION ( 'UNKNOWN', '', #32, #39 ) ;
#87 = CIRCLE ( 'NONE', #240, 0.1968504999999999838 ) ;
#88 = CARTESIAN_POINT ( 'NONE',  ( -0.1968504999999999006, 0.0000000000000000000, 0.7491473946618323332 ) ) ;
#89 = FACE_OUTER_BOUND ( 'NONE', #100, .T. ) ;
#90 = DIRECTION ( 'NONE',  ( -1.224646799147353207E-16, -0.0000000000000000000, -1.000000000000000000 ) ) ;
#91 = EDGE_CURVE ( 'NONE', #38, #269, #111, .T. ) ;
#92 = VECTOR ( 'NONE', #127, 39.37007874015748143 ) ;
#93 = ORIENTED_EDGE ( 'NONE', *, *, #40, .F. ) ;
#94 = ORIENTED_EDGE ( 'NONE', *, *, #52, .T. ) ;
#95 = VERTEX_POINT ( 'NONE', #88 ) ;
#96 = CIRCLE ( 'NONE', #217, 0.1968504999999999838 ) ;
#97 = CARTESIAN_POINT ( 'NONE',  ( 0.0000000000000000000, 0.0000000000000000000, 2.834646000000000665 ) ) ;
#98 = CARTESIAN_POINT ( 'NONE',  ( 9.174409589621918238E-17, 0.0000000000000000000, 0.7491473946618323332 ) ) ;
#99 = UNCERTAINTY_MEASURE_WITH_UNIT (LENGTH_MEASURE( 1.000000000000000082E-05 ), #271, 'distance_accuracy_value', 'NONE');
#100 = EDGE_LOOP ( 'NONE', ( #296, #20, #243, #249 ) ) ;
#101 = ADVANCED_BREP_SHAPE_REPRESENTATION ( 'Micro_GEMM-100-3', ( #56, #234 ), #176 ) ;
#102 = FACE_OUTER_BOUND ( 'NONE', #250, .T. ) ;
#103 = CARTESIAN_POINT ( 'NONE',  ( 0.1968505000000000948, 2.410723347355561570E-17, 0.7491473946618323332 ) ) ;
#104 = EDGE_CURVE ( 'NONE', #293, #38, #283, .T. ) ;
#105 = AXIS2_PLACEMENT_3D ( 'NONE', #183, #163, #167 ) ;
#106 = AXIS2_PLACEMENT_3D ( 'NONE', #109, #177, #151 ) ;
#107 = CARTESIAN_POINT ( 'NONE',  ( 0.1818505000000002481, 2.227026327483460228E-17, 2.834646000000000665 ) ) ;
#108 = CARTESIAN_POINT ( 'NONE',  ( 0.1818505000000002481, 2.318874837419510283E-17, 2.834646000000000665 ) ) ;
#109 = CARTESIAN_POINT ( 'NONE',  ( 9.160737698129936696E-17, 0.0000000000000000000, 0.7480309999999998904 ) ) ;
#110 = CARTESIAN_POINT ( 'NONE',  ( -0.1968504999999999838, 0.0000000000000000000, 2.834646000000000665 ) ) ;
#111 = LINE ( 'NONE', #281, #118 ) ;
#112 = ORIENTED_EDGE ( 'NONE', *, *, #212, .F. ) ;
#113 = ORIENTED_EDGE ( 'NONE', *, *, #214, .T. ) ;
#114 = CARTESIAN_POINT ( 'NONE',  ( 9.160737698129936696E-17, 0.0000000000000000000, 0.7480309999999998904 ) ) ;
#115 = DIRECTION ( 'NONE',  ( 0.1736481776669313859, 0.0000000000000000000, 0.9848077530122077983 ) ) ;
#116 = ADVANCED_FACE ( 'NONE', ( #55 ), #3, .T. ) ;
#117 = VERTEX_POINT ( 'NONE', #108 ) ;
#118 = VECTOR ( 'NONE', #287, 39.37007874015748143 ) ;
#119 = AXIS2_PLACEMENT_3D ( 'NONE', #64, #12, #282 ) ;
#120 = EDGE_LOOP ( 'NONE', ( #203, #266 ) ) ;
#121 = DIRECTION ( 'NONE',  ( -1.000000000000000000, 0.0000000000000000000, 1.224646799147353207E-16 ) ) ;
#122 = SURFACE_SIDE_STYLE ('',( #145 ) ) ;
#123 = DIMENSIONAL_EXPONENTS ( 1.000000000000000000, 0.0000000000000000000, 0.0000000000000000000, 0.0000000000000000000, 0.0000000000000000000, 0.0000000000000000000, 0.0000000000000000000 ) ;
#124 = CARTESIAN_POINT ( 'NONE',  ( 9.174409589621918238E-17, 0.0000000000000000000, 0.7491473946618323332 ) ) ;
#125 = CARTESIAN_POINT ( 'NONE',  ( 0.0000000000000000000, 0.0000000000000000000, 0.0000000000000000000 ) ) ;
#126 = EDGE_CURVE ( 'NONE', #208, #95, #154, .T. ) ;
#127 = DIRECTION ( 'NONE',  ( -1.224646799147353207E-16, -0.0000000000000000000, -1.000000000000000000 ) ) ;
#128 = AXIS2_PLACEMENT_3D ( 'NONE', #114, #272, #24 ) ;
#129 = DIRECTION ( 'NONE',  ( -1.000000000000000000, 0.0000000000000000000, 0.0000000000000000000 ) ) ;
#130 =( NAMED_UNIT ( * ) SI_UNIT ( $, .STERADIAN. ) SOLID_ANGLE_UNIT ( ) );
#131 = AXIS2_PLACEMENT_3D ( 'NONE', #97, #168, #47 ) ;
#132 = DIRECTION ( 'NONE',  ( -1.000000000000000000, 0.0000000000000000000, 1.224646799147353207E-16 ) ) ;
#133 = COLOUR_RGB ( '',0.7921568627450980005, 0.8196078431372548767, 0.9333333333333333481 ) ;
#134 =( NAMED_UNIT ( * ) PLANE_ANGLE_UNIT ( ) SI_UNIT ( $, .RADIAN. ) );
#135 = ORIENTED_EDGE ( 'NONE', *, *, #62, .T. ) ;
#136 = ORIENTED_EDGE ( 'NONE', *, *, #18, .F. ) ;
#137 = ORIENTED_EDGE ( 'NONE', *, *, #21, .F. ) ;
#138 = CARTESIAN_POINT ( 'NONE',  ( 0.0000000000000000000, 0.0000000000000000000, 0.0000000000000000000 ) ) ;
#139 = LINE ( 'NONE', #23, #76 ) ;
#140 = FILL_AREA_STYLE_COLOUR ( '', #57 ) ;
#141 = VECTOR ( 'NONE', #115, 39.37007874015748143 ) ;
#142 = ADVANCED_FACE ( 'NONE', ( #5 ), #65, .T. ) ;
#143 = DIRECTION ( 'NONE',  ( -1.224646799147353207E-16, -0.0000000000000000000, -1.000000000000000000 ) ) ;
#144 = FACE_OUTER_BOUND ( 'NONE', #295, .T. ) ;
#145 = SURFACE_STYLE_FILL_AREA ( #51 ) ;
#146 = APPLICATION_PROTOCOL_DEFINITION ( 'draft international standard', 'automotive_design', 1998, #170 ) ;
#147 = ADVANCED_FACE ( 'NONE', ( #89 ), #2, .T. ) ;
#148 = AXIS2_PLACEMENT_3D ( 'NONE', #244, #153, #14 ) ;
#149 = DIRECTION ( 'NONE',  ( -0.7071067811865354713, 0.0000000000000000000, -0.7071067811865594521 ) ) ;
#150 = DIRECTION ( 'NONE',  ( -0.1736481776669311916, 2.126576849575783316E-17, 0.9848077530122080203 ) ) ;
#151 = DIRECTION ( 'NONE',  ( -1.000000000000000000, 0.0000000000000000000, 0.0000000000000000000 ) ) ;
#152 = CARTESIAN_POINT ( 'NONE',  ( 9.160737698129936696E-17, 0.0000000000000000000, 0.7480309999999998904 ) ) ;
#153 = DIRECTION ( 'NONE',  ( 0.0000000000000000000, 0.0000000000000000000, -1.000000000000000000 ) ) ;
#154 = LINE ( 'NONE', #110, #191 ) ;
#155 = CARTESIAN_POINT ( 'NONE',  ( 0.0000000000000000000, 0.0000000000000000000, 0.0000000000000000000 ) ) ;
#156 = CARTESIAN_POINT ( 'NONE',  ( -0.1966536494999999996, 0.0000000000000000000, 4.816625248016410340E-17 ) ) ;
#157 = ORIENTED_EDGE ( 'NONE', *, *, #104, .T. ) ;
#158 = DIRECTION ( 'NONE',  ( 1.224646799147353207E-16, 0.0000000000000000000, 1.000000000000000000 ) ) ;
#159 = UNCERTAINTY_MEASURE_WITH_UNIT (LENGTH_MEASURE( 1.000000000000000082E-05 ), #257, 'distance_accuracy_value', 'NONE');
#160 =( CONVERSION_BASED_UNIT ( 'INCH', #70 ) LENGTH_UNIT ( ) NAMED_UNIT ( #58 ) );
#161 = ORIENTED_EDGE ( 'NONE', *, *, #292, .F. ) ;
#162 = FILL_AREA_STYLE ('',( #72 ) ) ;
#163 = DIRECTION ( 'NONE',  ( -1.224646799147353207E-16, -0.0000000000000000000, -1.000000000000000000 ) ) ;
#164 = EDGE_LOOP ( 'NONE', ( #161, #136, #218, #220 ) ) ;
#165 = AXIS2_PLACEMENT_3D ( 'NONE', #188, #247, #17 ) ;
#166 = VERTEX_POINT ( 'NONE', #37 ) ;
#167 = DIRECTION ( 'NONE',  ( -1.000000000000000000, 0.0000000000000000000, 1.224646799147353207E-16 ) ) ;
#168 = DIRECTION ( 'NONE',  ( 0.0000000000000000000, 0.0000000000000000000, 1.000000000000000000 ) ) ;
#169 = DIRECTION ( 'NONE',  ( 1.000000000000000000, 0.0000000000000000000, 0.0000000000000000000 ) ) ;
#170 = APPLICATION_CONTEXT ( 'automotive_design' ) ;
#171 = CARTESIAN_POINT ( 'NONE',  ( 0.0000000000000000000, 0.0000000000000000000, 2.819646000000000097 ) ) ;
#172 = SHAPE_DEFINITION_REPRESENTATION ( #195, #101 ) ;
#173 = CONICAL_SURFACE ( 'NONE', #148, 0.1818505000000002481, 0.7853981633974312926 ) ;
#174 = SURFACE_STYLE_USAGE ( .BOTH. , #122 ) ;
#175 = DIRECTION ( 'NONE',  ( 0.0000000000000000000, 0.0000000000000000000, 1.000000000000000000 ) ) ;
#176 =( GEOMETRIC_REPRESENTATION_CONTEXT ( 3 ) GLOBAL_UNCERTAINTY_ASSIGNED_CONTEXT ( ( #159 ) ) GLOBAL_UNIT_ASSIGNED_CONTEXT ( ( #257, #222, #209 ) ) REPRESENTATION_CONTEXT ( 'NONE', 'WORKASPACE' ) );
#177 = DIRECTION ( 'NONE',  ( -1.224646799147353207E-16, -0.0000000000000000000, -1.000000000000000000 ) ) ;
#178 = LINE ( 'NONE', #276, #92 ) ;
#179 = DIRECTION ( 'NONE',  ( 1.000000000000000000, 0.0000000000000000000, 0.0000000000000000000 ) ) ;
#180 = CIRCLE ( 'NONE', #128, 0.1966536495000000273 ) ;
#181 = ORIENTED_EDGE ( 'NONE', *, *, #62, .F. ) ;
#182 = ORIENTED_EDGE ( 'NONE', *, *, #91, .T. ) ;
#183 = CARTESIAN_POINT ( 'NONE',  ( 2.949332346337811403E-33, 0.0000000000000000000, 2.408312624008205170E-17 ) ) ;
#184 = EDGE_LOOP ( 'NONE', ( #197, #264 ) ) ;
#185 = CARTESIAN_POINT ( 'NONE',  ( 0.1966536494999999996, 2.408312624008205170E-17, 3.791200677927629740E-33 ) ) ;
#186 = VECTOR ( 'NONE', #294, 39.37007874015748143 ) ;
#187 = ORIENTED_EDGE ( 'NONE', *, *, #273, .F. ) ;
#188 = CARTESIAN_POINT ( 'NONE',  ( 0.0000000000000000000, 0.0000000000000000000, 2.834646000000000665 ) ) ;
#189 = LINE ( 'NONE', #224, #141 ) ;
#190 =( LENGTH_UNIT ( ) NAMED_UNIT ( * ) SI_UNIT ( $, .METRE. ) );
#191 = VECTOR ( 'NONE', #4, 39.37007874015748143 ) ;
#192 = EDGE_CURVE ( 'NONE', #38, #95, #10, .T. ) ;
#193 = DIRECTION ( 'NONE',  ( 0.0000000000000000000, 0.0000000000000000000, -1.000000000000000000 ) ) ;
#194 = CIRCLE ( 'NONE', #275, 0.1966536494999999996 ) ;
#195 = PRODUCT_DEFINITION_SHAPE ( 'NONE', 'NONE',  #86 ) ;
#196 = CARTESIAN_POINT ( 'NONE',  ( -0.1966536494999999440, 2.408312624008205478E-17, 0.7480309999999998904 ) ) ;
#197 = ORIENTED_EDGE ( 'NONE', *, *, #260, .T. ) ;
#198 = PRESENTATION_LAYER_ASSIGNMENT (  '', '', ( #49 ) ) ;
#199 = VERTEX_POINT ( 'NONE', #103 ) ;
#200 = PLANE ( 'NONE',  #66 ) ;
#201 = FACE_OUTER_BOUND ( 'NONE', #164, .T. ) ;
#202 = UNCERTAINTY_MEASURE_WITH_UNIT (LENGTH_MEASURE( 1.000000000000000082E-05 ), #160, 'distance_accuracy_value', 'NONE');
#203 = ORIENTED_EDGE ( 'NONE', *, *, #18, .T. ) ;
#204 = ORIENTED_EDGE ( 'NONE', *, *, #126, .F. ) ;
#205 = DIRECTION ( 'NONE',  ( 1.000000000000000000, 0.0000000000000000000, -0.0000000000000000000 ) ) ;
#206 = VECTOR ( 'NONE', #239, 39.37007874015748854 ) ;
#207 =( GEOMETRIC_REPRESENTATION_CONTEXT ( 3 ) GLOBAL_UNCERTAINTY_ASSIGNED_CONTEXT ( ( #202 ) ) GLOBAL_UNIT_ASSIGNED_CONTEXT ( ( #160, #134, #130 ) ) REPRESENTATION_CONTEXT ( 'NONE', 'WORKASPACE' ) );
#208 = VERTEX_POINT ( 'NONE', #233 ) ;
#209 =( NAMED_UNIT ( * ) SI_UNIT ( $, .STERADIAN. ) SOLID_ANGLE_UNIT ( ) );
#210 = CARTESIAN_POINT ( 'NONE',  ( 0.0000000000000000000, 0.0000000000000000000, 2.819646000000000097 ) ) ;
#211 = CYLINDRICAL_SURFACE ( 'NONE', #252, 0.1966536495000000273 ) ;
#212 = EDGE_CURVE ( 'NONE', #293, #223, #178, .T. ) ;
#213 = AXIS2_PLACEMENT_3D ( 'NONE', #152, #34, #215 ) ;
#214 = EDGE_CURVE ( 'NONE', #293, #199, #189, .T. ) ;
#215 = DIRECTION ( 'NONE',  ( 1.000000000000000000, 0.0000000000000000000, 0.0000000000000000000 ) ) ;
#216 = DIRECTION ( 'NONE',  ( 1.000000000000000000, 0.0000000000000000000, 0.0000000000000000000 ) ) ;
#217 = AXIS2_PLACEMENT_3D ( 'NONE', #98, #81, #169 ) ;
#218 = ORIENTED_EDGE ( 'NONE', *, *, #21, .T. ) ;
#219 = DIRECTION ( 'NONE',  ( 1.000000000000000000, 0.0000000000000000000, 0.0000000000000000000 ) ) ;
#220 = ORIENTED_EDGE ( 'NONE', *, *, #52, .F. ) ;
#221 = SURFACE_SIDE_STYLE ('',( #246 ) ) ;
#222 =( NAMED_UNIT ( * ) PLANE_ANGLE_UNIT ( ) SI_UNIT ( $, .RADIAN. ) );
#223 = VERTEX_POINT ( 'NONE', #185 ) ;
#224 = CARTESIAN_POINT ( 'NONE',  ( 0.1966536495000001383, 0.0000000000000000000, 0.7480309999999998904 ) ) ;
#225 = ORIENTED_EDGE ( 'NONE', *, *, #260, .F. ) ;
#226 = ORIENTED_EDGE ( 'NONE', *, *, #297, .F. ) ;
#227 = PRODUCT_CONTEXT ( 'NONE', #84, 'mechanical' ) ;
#228 = VECTOR ( 'NONE', #150, 39.37007874015747433 ) ;
#229 = DIRECTION ( 'NONE',  ( 1.000000000000000000, 0.0000000000000000000, 0.0000000000000000000 ) ) ;
#230 =( NAMED_UNIT ( * ) PLANE_ANGLE_UNIT ( ) SI_UNIT ( $, .RADIAN. ) );
#231 = PRESENTATION_STYLE_ASSIGNMENT (( #174 ) ) ;
#232 = DIMENSIONAL_EXPONENTS ( 1.000000000000000000, 0.0000000000000000000, 0.0000000000000000000, 0.0000000000000000000, 0.0000000000000000000, 0.0000000000000000000, 0.0000000000000000000 ) ;
#233 = CARTESIAN_POINT ( 'NONE',  ( -0.1968504999999999838, 0.0000000000000000000, 2.819646000000000097 ) ) ;
#234 = AXIS2_PLACEMENT_3D ( 'NONE', #125, #175, #80 ) ;
#235 = ADVANCED_FACE ( 'NONE', ( #63 ), #290, .T. ) ;
#236 = DIRECTION ( 'NONE',  ( -1.224646799147353207E-16, -0.0000000000000000000, -1.000000000000000000 ) ) ;
#237 = CARTESIAN_POINT ( 'NONE',  ( 0.1966536495000001383, 0.0000000000000000000, 0.7480309999999998904 ) ) ;
#238 = CYLINDRICAL_SURFACE ( 'NONE', #119, 0.1968504999999999838 ) ;
#239 = DIRECTION ( 'NONE',  ( 0.7071067811865354713, 8.659560562354783714E-17, -0.7071067811865594521 ) ) ;
#240 = AXIS2_PLACEMENT_3D ( 'NONE', #210, #193, #179 ) ;
#241 = ADVANCED_FACE ( 'NONE', ( #102 ), #299, .T. ) ;
#242 = FACE_OUTER_BOUND ( 'NONE', #270, .T. ) ;
#243 = ORIENTED_EDGE ( 'NONE', *, *, #54, .T. ) ;
#244 = CARTESIAN_POINT ( 'NONE',  ( 0.0000000000000000000, 0.0000000000000000000, 2.834646000000000665 ) ) ;
#245 = ORIENTED_EDGE ( 'NONE', *, *, #46, .T. ) ;
#246 = SURFACE_STYLE_FILL_AREA ( #162 ) ;
#247 = DIRECTION ( 'NONE',  ( -0.0000000000000000000, -0.0000000000000000000, -1.000000000000000000 ) ) ;
#248 = ORIENTED_EDGE ( 'NONE', *, *, #31, .T. ) ;
#249 = ORIENTED_EDGE ( 'NONE', *, *, #214, .F. ) ;
#250 = EDGE_LOOP ( 'NONE', ( #93, #94, #69, #77 ) ) ;
#251 = CARTESIAN_POINT ( 'NONE',  ( -0.1966536494999999440, 2.409517985681882908E-17, 0.7480309999999998904 ) ) ;
#252 = AXIS2_PLACEMENT_3D ( 'NONE', #155, #236, #121 ) ;
#253 = ADVANCED_FACE ( 'NONE', ( #201 ), #173, .T. ) ;
#254 = CIRCLE ( 'NONE', #131, 0.1818505000000002481 ) ;
#255 = CIRCLE ( 'NONE', #67, 0.1968504999999999838 ) ;
#256 = DIRECTION ( 'NONE',  ( 0.0000000000000000000, 0.0000000000000000000, -1.000000000000000000 ) ) ;
#257 =( CONVERSION_BASED_UNIT ( 'INCH', #277 ) LENGTH_UNIT ( ) NAMED_UNIT ( #123 ) );
#258 = DIRECTION ( 'NONE',  ( 1.000000000000000000, 0.0000000000000000000, -0.0000000000000000000 ) ) ;
#259 = LINE ( 'NONE', #107, #206 ) ;
#260 = EDGE_CURVE ( 'NONE', #269, #223, #194, .T. ) ;
#261 = CIRCLE ( 'NONE', #8, 0.1818505000000002481 ) ;
#262 = ORIENTED_EDGE ( 'NONE', *, *, #212, .T. ) ;
#263 = AXIS2_PLACEMENT_3D ( 'NONE', #59, #256, #129 ) ;
#264 = ORIENTED_EDGE ( 'NONE', *, *, #297, .T. ) ;
#265 = CLOSED_SHELL ( 'NONE', ( #286, #147, #142, #85, #241, #116, #253, #235, #28, #268 ) ) ;
#266 = ORIENTED_EDGE ( 'NONE', *, *, #273, .T. ) ;
#267 = CARTESIAN_POINT ( 'NONE',  ( 0.1968504999999999838, 2.410723347355560646E-17, 2.834646000000000665 ) ) ;
#268 = ADVANCED_FACE ( 'NONE', ( #42 ), #200, .F. ) ;
#269 = VERTEX_POINT ( 'NONE', #156 ) ;
#270 = EDGE_LOOP ( 'NONE', ( #248, #262, #225, #41 ) ) ;
#271 =( CONVERSION_BASED_UNIT ( 'INCH', #298 ) LENGTH_UNIT ( ) NAMED_UNIT ( #232 ) );
#272 = DIRECTION ( 'NONE',  ( -1.224646799147353207E-16, -0.0000000000000000000, -1.000000000000000000 ) ) ;
#273 = EDGE_CURVE ( 'NONE', #117, #166, #261, .T. ) ;
#274 =( NAMED_UNIT ( * ) SI_UNIT ( $, .STERADIAN. ) SOLID_ANGLE_UNIT ( ) );
#275 = AXIS2_PLACEMENT_3D ( 'NONE', #284, #90, #132 ) ;
#276 = CARTESIAN_POINT ( 'NONE',  ( 0.1966536495000000273, 2.408312624008205478E-17, -2.408312624008205478E-17 ) ) ;
#277 = LENGTH_MEASURE_WITH_UNIT ( LENGTH_MEASURE( 0.02539999999999999897 ), #190 );
#278 =( LENGTH_UNIT ( ) NAMED_UNIT ( * ) SI_UNIT ( $, .METRE. ) );
#279 = APPLICATION_PROTOCOL_DEFINITION ( 'draft international standard', 'automotive_design', 1998, #84 ) ;
#280 = MECHANICAL_DESIGN_GEOMETRIC_PRESENTATION_REPRESENTATION (  '', ( #22 ), #207 ) ;
#281 = CARTESIAN_POINT ( 'NONE',  ( -0.1966536495000000273, 0.0000000000000000000, 2.408312624008205478E-17 ) ) ;
#282 = DIRECTION ( 'NONE',  ( -1.000000000000000000, 0.0000000000000000000, 0.0000000000000000000 ) ) ;
#283 = CIRCLE ( 'NONE', #106, 0.1966536495000000273 ) ;
#284 = CARTESIAN_POINT ( 'NONE',  ( 2.949332346337811403E-33, 0.0000000000000000000, 2.408312624008205170E-17 ) ) ;
#285 = DIRECTION ( 'NONE',  ( -1.224646799147353207E-16, -0.0000000000000000000, -1.000000000000000000 ) ) ;
#286 = ADVANCED_FACE ( 'NONE', ( #242 ), #7, .T. ) ;
#287 = DIRECTION ( 'NONE',  ( -1.224646799147353207E-16, -0.0000000000000000000, -1.000000000000000000 ) ) ;
#288 = CIRCLE ( 'NONE', #105, 0.1966536494999999996 ) ;
#289 = EDGE_LOOP ( 'NONE', ( #135, #79, #44, #204 ) ) ;
#290 = CONICAL_SURFACE ( 'NONE', #48, 0.1966536495000000273, 0.1745329251994338915 ) ;
#291 = ORIENTED_EDGE ( 'NONE', *, *, #192, .F. ) ;
#292 = EDGE_CURVE ( 'NONE', #117, #73, #259, .T. ) ;
#293 = VERTEX_POINT ( 'NONE', #237 ) ;
#294 = DIRECTION ( 'NONE',  ( -0.0000000000000000000, -0.0000000000000000000, -1.000000000000000000 ) ) ;
#295 = EDGE_LOOP ( 'NONE', ( #112, #157, #182, #226 ) ) ;
#296 = ORIENTED_EDGE ( 'NONE', *, *, #31, .F. ) ;
#297 = EDGE_CURVE ( 'NONE', #223, #269, #288, .T. ) ;
#298 = LENGTH_MEASURE_WITH_UNIT ( LENGTH_MEASURE( 0.02539999999999999897 ), #25 );
#299 = CYLINDRICAL_SURFACE ( 'NONE', #165, 0.1968504999999999838 ) ;
ENDSEC;
END-ISO-10303-21;
