ISO-10303-21;
HEADER;
FILE_DESCRIPTION (( 'STEP AP214' ),
    '1' );
FILE_NAME ('82855.STEP',
    '2023-06-23T06:59:50',
    ( '' ),
    ( '' ),
    'SwSTEP 2.0',
    'SolidWorks 2023',
    '' );
FILE_SCHEMA (( 'AUTOMOTIVE_DESIGN' ));
ENDSEC;

DATA;
#1 = ADVANCED_FACE ( 'NONE', ( #160 ), #106, .T. ) ;
#2 = MECHANICAL_DESIGN_GEOMETRIC_PRESENTATION_REPRESENTATION (  '', ( #269 ), #31 ) ;
#3 = DIRECTION ( 'NONE',  ( -1.000000000000000000, 0.000000000000000000, 0.000000000000000000 ) ) ;
#4 = SURFACE_SIDE_STYLE ('',( #69 ) ) ;
#5 = UNCERTAINTY_MEASURE_WITH_UNIT (LENGTH_MEASURE( 1.000000000000000082E-05 ), #126, 'distance_accuracy_value', 'NONE');
#6 = SURFACE_STYLE_USAGE ( .BOTH. , #80 ) ;
#7 = DIRECTION ( 'NONE',  ( -6.123233995736766036E-17, 1.000000000000000000, -0.000000000000000000 ) ) ;
#8 =( NAMED_UNIT ( * ) PLANE_ANGLE_UNIT ( ) SI_UNIT ( $, .RADIAN. ) );
#9 = FILL_AREA_STYLE_COLOUR ( '', #157 ) ;
#10 = ORIENTED_EDGE ( 'NONE', *, *, #140, .T. ) ;
#11 = MANIFOLD_SOLID_BREP ( 'Revolve - Cutting Edge', #119 ) ;
#12 = PRESENTATION_LAYER_ASSIGNMENT (  '', '', ( #146 ) ) ;
#13 = UNCERTAINTY_MEASURE_WITH_UNIT (LENGTH_MEASURE( 1.000000000000000082E-05 ), #197, 'distance_accuracy_value', 'NONE');
#14 = CARTESIAN_POINT ( 'NONE',  ( 0.1875000000000000278, 5.000000000000000000, 0.000000000000000000 ) ) ;
#15 = SURFACE_STYLE_USAGE ( .BOTH. , #90 ) ;
#16 = DIRECTION ( 'NONE',  ( 0.000000000000000000, 0.000000000000000000, -1.000000000000000000 ) ) ;
#17 = ORIENTED_EDGE ( 'NONE', *, *, #136, .T. ) ;
#18 = AXIS2_PLACEMENT_3D ( 'NONE', #263, #21, #139 ) ;
#19 = CARTESIAN_POINT ( 'NONE',  ( -1.224646799147353207E-16, 5.000000000000000000, 0.000000000000000000 ) ) ;
#20 = LENGTH_MEASURE_WITH_UNIT ( LENGTH_MEASURE( 0.02539999999999999897 ), #189 );
#21 = DIRECTION ( 'NONE',  ( -6.123233995736766036E-17, 1.000000000000000000, -0.000000000000000000 ) ) ;
#22 = EDGE_LOOP ( 'NONE', ( #182, #108, #10, #153 ) ) ;
#23 = CIRCLE ( 'NONE', #195, 0.1875000000000000278 ) ;
#24 = CARTESIAN_POINT ( 'NONE',  ( 0.000000000000000000, 0.000000000000000000, 0.000000000000000000 ) ) ;
#25 = DIRECTION ( 'NONE',  ( -6.123233995736766036E-17, 1.000000000000000000, -0.000000000000000000 ) ) ;
#26 = DIRECTION ( 'NONE',  ( 1.000000000000000000, 0.000000000000000000, 0.000000000000000000 ) ) ;
#27 = CARTESIAN_POINT ( 'NONE',  ( 2.296212748401287726E-17, 0.000000000000000000, 0.1875000000000000278 ) ) ;
#28 = ADVANCED_FACE ( 'NONE', ( #132 ), #211, .F. ) ;
#29 = DIMENSIONAL_EXPONENTS ( 1.000000000000000000, 0.000000000000000000, 0.000000000000000000, 0.000000000000000000, 0.000000000000000000, 0.000000000000000000, 0.000000000000000000 ) ;
#30 = CIRCLE ( 'NONE', #18, 0.1875000000000000278 ) ;
#31 =( GEOMETRIC_REPRESENTATION_CONTEXT ( 3 ) GLOBAL_UNCERTAINTY_ASSIGNED_CONTEXT ( ( #133 ) ) GLOBAL_UNIT_ASSIGNED_CONTEXT ( ( #145, #118, #266 ) ) REPRESENTATION_CONTEXT ( 'NONE', 'WORKASPACE' ) );
#32 = DIRECTION ( 'NONE',  ( -0.000000000000000000, -1.000000000000000000, -0.000000000000000000 ) ) ;
#33 = CARTESIAN_POINT ( 'NONE',  ( 0.1875000000000000278, 3.000000000000000444, 2.296212748401288650E-17 ) ) ;
#34 = AXIS2_PLACEMENT_3D ( 'NONE', #226, #293, #181 ) ;
#35 =( CONVERSION_BASED_UNIT ( 'INCH', #252 ) LENGTH_UNIT ( ) NAMED_UNIT ( #295 ) );
#36 = CARTESIAN_POINT ( 'NONE',  ( 0.000000000000000000, 0.000000000000000000, -0.1875000000000000278 ) ) ;
#37 = ORIENTED_EDGE ( 'NONE', *, *, #184, .F. ) ;
#38 = AXIS2_PLACEMENT_3D ( 'NONE', #54, #141, #287 ) ;
#39 =( GEOMETRIC_REPRESENTATION_CONTEXT ( 3 ) GLOBAL_UNCERTAINTY_ASSIGNED_CONTEXT ( ( #82 ) ) GLOBAL_UNIT_ASSIGNED_CONTEXT ( ( #161, #103, #110 ) ) REPRESENTATION_CONTEXT ( 'NONE', 'WORKASPACE' ) );
#40 = DIRECTION ( 'NONE',  ( -0.000000000000000000, -1.000000000000000000, -0.000000000000000000 ) ) ;
#41 = FILL_AREA_STYLE ('',( #48 ) ) ;
#42 =( NAMED_UNIT ( * ) PLANE_ANGLE_UNIT ( ) SI_UNIT ( $, .RADIAN. ) );
#43 = LENGTH_MEASURE_WITH_UNIT ( LENGTH_MEASURE( 0.02539999999999999897 ), #215 );
#44 = PRESENTATION_LAYER_ASSIGNMENT (  '', '', ( #61 ) ) ;
#45 = CARTESIAN_POINT ( 'NONE',  ( 0.000000000000000000, 3.000000000000000444, 0.000000000000000000 ) ) ;
#46 = EDGE_LOOP ( 'NONE', ( #264, #272 ) ) ;
#47 = FILL_AREA_STYLE ('',( #131 ) ) ;
#48 = FILL_AREA_STYLE_COLOUR ( '', #76 ) ;
#49 = CIRCLE ( 'NONE', #247, 0.1875000000000001388 ) ;
#50 =( LENGTH_UNIT ( ) NAMED_UNIT ( * ) SI_UNIT ( $, .METRE. ) );
#51 = CARTESIAN_POINT ( 'NONE',  ( -1.224646799147353207E-16, 5.000000000000000000, 0.000000000000000000 ) ) ;
#52 = CARTESIAN_POINT ( 'NONE',  ( -1.224646799147353207E-16, 5.000000000000000000, 0.000000000000000000 ) ) ;
#53 =( GEOMETRIC_REPRESENTATION_CONTEXT ( 3 ) GLOBAL_UNCERTAINTY_ASSIGNED_CONTEXT ( ( #201 ) ) GLOBAL_UNIT_ASSIGNED_CONTEXT ( ( #259, #42, #158 ) ) REPRESENTATION_CONTEXT ( 'NONE', 'WORKASPACE' ) );
#54 = CARTESIAN_POINT ( 'NONE',  ( 0.000000000000000000, 3.000000000000000444, 0.000000000000000000 ) ) ;
#55 = EDGE_CURVE ( 'NONE', #163, #183, #30, .T. ) ;
#56 = PRODUCT_DEFINITION ( 'UNKNOWN', '', #307, #75 ) ;
#57 = ORIENTED_EDGE ( 'NONE', *, *, #170, .F. ) ;
#58 = FACE_OUTER_BOUND ( 'NONE', #150, .T. ) ;
#59 = DIMENSIONAL_EXPONENTS ( 1.000000000000000000, 0.000000000000000000, 0.000000000000000000, 0.000000000000000000, 0.000000000000000000, 0.000000000000000000, 0.000000000000000000 ) ;
#60 = EDGE_CURVE ( 'NONE', #183, #239, #238, .T. ) ;
#61 = STYLED_ITEM ( 'NONE', ( #123 ), #218 ) ;
#62 = PLANE ( 'NONE',  #65 ) ;
#63 = ORIENTED_EDGE ( 'NONE', *, *, #136, .F. ) ;
#64 = DIRECTION ( 'NONE',  ( 1.000000000000000000, 6.123233995736766036E-17, 0.000000000000000000 ) ) ;
#65 = AXIS2_PLACEMENT_3D ( 'NONE', #14, #302, #64 ) ;
#66 = VERTEX_POINT ( 'NONE', #196 ) ;
#67 = DIRECTION ( 'NONE',  ( 0.000000000000000000, 0.000000000000000000, -1.000000000000000000 ) ) ;
#68 = DIRECTION ( 'NONE',  ( 0.000000000000000000, 0.000000000000000000, 1.000000000000000000 ) ) ;
#69 = SURFACE_STYLE_FILL_AREA ( #268 ) ;
#70 = CIRCLE ( 'NONE', #256, 0.1875000000000000278 ) ;
#71 = SURFACE_SIDE_STYLE ('',( #203 ) ) ;
#72 = CARTESIAN_POINT ( 'NONE',  ( -1.224646799147353207E-16, 5.000000000000000000, 0.000000000000000000 ) ) ;
#73 = ADVANCED_FACE ( 'NONE', ( #172 ), #116, .T. ) ;
#74 =( LENGTH_UNIT ( ) NAMED_UNIT ( * ) SI_UNIT ( $, .METRE. ) );
#75 = PRODUCT_DEFINITION_CONTEXT ( 'detailed design', #227, 'design' ) ;
#76 = COLOUR_RGB ( '',0.7921568627450980005, 0.8196078431372548767, 0.9333333333333333481 ) ;
#77 = CARTESIAN_POINT ( 'NONE',  ( 0.000000000000000000, 0.000000000000000000, -0.1875000000000000278 ) ) ;
#78 = AXIS2_PLACEMENT_3D ( 'NONE', #138, #40, #299 ) ;
#79 = AXIS2_PLACEMENT_3D ( 'NONE', #24, #68, #26 ) ;
#80 = SURFACE_SIDE_STYLE ('',( #253 ) ) ;
#81 = ORIENTED_EDGE ( 'NONE', *, *, #127, .F. ) ;
#82 = UNCERTAINTY_MEASURE_WITH_UNIT (LENGTH_MEASURE( 1.000000000000000082E-05 ), #161, 'distance_accuracy_value', 'NONE');
#83 =( LENGTH_UNIT ( ) NAMED_UNIT ( * ) SI_UNIT ( $, .METRE. ) );
#84 = DIMENSIONAL_EXPONENTS ( 1.000000000000000000, 0.000000000000000000, 0.000000000000000000, 0.000000000000000000, 0.000000000000000000, 0.000000000000000000, 0.000000000000000000 ) ;
#85 = VERTEX_POINT ( 'NONE', #27 ) ;
#86 =( GEOMETRIC_REPRESENTATION_CONTEXT ( 3 ) GLOBAL_UNCERTAINTY_ASSIGNED_CONTEXT ( ( #5 ) ) GLOBAL_UNIT_ASSIGNED_CONTEXT ( ( #126, #176, #222 ) ) REPRESENTATION_CONTEXT ( 'NONE', 'WORKASPACE' ) );
#87 = DIRECTION ( 'NONE',  ( -6.123233995736766036E-17, 1.000000000000000000, -0.000000000000000000 ) ) ;
#88 = APPLICATION_CONTEXT ( 'automotive_design' ) ;
#89 = DIRECTION ( 'NONE',  ( -6.123233995736766036E-17, 1.000000000000000000, 0.000000000000000000 ) ) ;
#90 = SURFACE_SIDE_STYLE ('',( #107 ) ) ;
#91 = CARTESIAN_POINT ( 'NONE',  ( 3.515061990613729624E-34, 3.000000000000000444, 0.000000000000000000 ) ) ;
#92 =( GEOMETRIC_REPRESENTATION_CONTEXT ( 3 ) GLOBAL_UNCERTAINTY_ASSIGNED_CONTEXT ( ( #156 ) ) GLOBAL_UNIT_ASSIGNED_CONTEXT ( ( #232, #257, #236 ) ) REPRESENTATION_CONTEXT ( 'NONE', 'WORKASPACE' ) );
#93 = DIRECTION ( 'NONE',  ( -6.123233995736766036E-17, 1.000000000000000000, -0.000000000000000000 ) ) ;
#94 = CARTESIAN_POINT ( 'NONE',  ( 0.000000000000000000, 3.000000000000000444, 0.000000000000000000 ) ) ;
#95 = PRESENTATION_LAYER_ASSIGNMENT (  '', '', ( #115 ) ) ;
#96 = SURFACE_STYLE_FILL_AREA ( #144 ) ;
#97 = FILL_AREA_STYLE_COLOUR ( '', #235 ) ;
#98 = MECHANICAL_DESIGN_GEOMETRIC_PRESENTATION_REPRESENTATION (  '', ( #61 ), #151 ) ;
#99 = CARTESIAN_POINT ( 'NONE',  ( 0.000000000000000000, 3.000000000000000444, 0.000000000000000000 ) ) ;
#100 = DIRECTION ( 'NONE',  ( -1.000000000000000000, 0.000000000000000000, 0.000000000000000000 ) ) ;
#101 = ORIENTED_EDGE ( 'NONE', *, *, #173, .T. ) ;
#102 = VECTOR ( 'NONE', #303, 39.37007874015748143 ) ;
#103 =( NAMED_UNIT ( * ) PLANE_ANGLE_UNIT ( ) SI_UNIT ( $, .RADIAN. ) );
#104 = ADVANCED_FACE ( 'NONE', ( #171 ), #308, .T. ) ;
#105 = LENGTH_MEASURE_WITH_UNIT ( LENGTH_MEASURE( 0.02539999999999999897 ), #83 );
#106 = CYLINDRICAL_SURFACE ( 'NONE', #177, 0.1875000000000000833 ) ;
#107 = SURFACE_STYLE_FILL_AREA ( #47 ) ;
#108 = ORIENTED_EDGE ( 'NONE', *, *, #225, .T. ) ;
#109 = DIRECTION ( 'NONE',  ( -0.000000000000000000, -1.000000000000000000, -0.000000000000000000 ) ) ;
#110 =( NAMED_UNIT ( * ) SI_UNIT ( $, .STERADIAN. ) SOLID_ANGLE_UNIT ( ) );
#111 = CARTESIAN_POINT ( 'NONE',  ( 0.1874999999999999445, 5.000000000000000000, 2.296212748401288342E-17 ) ) ;
#112 = MANIFOLD_SOLID_BREP ( 'Revolve - Tool Body (Straight Shanked)', #220 ) ;
#113 = PRODUCT_RELATED_PRODUCT_CATEGORY ( 'part', '', ( #124 ) ) ;
#114 = SURFACE_STYLE_FILL_AREA ( #41 ) ;
#115 = STYLED_ITEM ( 'NONE', ( #309 ), #104 ) ;
#116 = CYLINDRICAL_SURFACE ( 'NONE', #178, 0.1875000000000000833 ) ;
#117 = LENGTH_MEASURE_WITH_UNIT ( LENGTH_MEASURE( 0.02539999999999999897 ), #50 );
#118 =( NAMED_UNIT ( * ) PLANE_ANGLE_UNIT ( ) SI_UNIT ( $, .RADIAN. ) );
#119 = CLOSED_SHELL ( 'NONE', ( #218, #104, #267, #199 ) ) ;
#120 = VECTOR ( 'NONE', #213, 39.37007874015748143 ) ;
#121 = APPLICATION_PROTOCOL_DEFINITION ( 'draft international standard', 'automotive_design', 1998, #88 ) ;
#122 = COLOUR_RGB ( '',0.7921568627450980005, 0.8196078431372548767, 0.9333333333333333481 ) ;
#123 = PRESENTATION_STYLE_ASSIGNMENT (( #6 ) ) ;
#124 = PRODUCT ( '82855', '82855', '', ( #244 ) ) ;
#125 = PLANE ( 'NONE',  #34 ) ;
#126 =( CONVERSION_BASED_UNIT ( 'INCH', #224 ) LENGTH_UNIT ( ) NAMED_UNIT ( #285 ) );
#127 = EDGE_CURVE ( 'NONE', #130, #239, #49, .T. ) ;
#128 = VECTOR ( 'NONE', #288, 39.37007874015748143 ) ;
#129 = FILL_AREA_STYLE_COLOUR ( '', #207 ) ;
#130 = VERTEX_POINT ( 'NONE', #283 ) ;
#131 = FILL_AREA_STYLE_COLOUR ( '', #281 ) ;
#132 = FACE_OUTER_BOUND ( 'NONE', #255, .T. ) ;
#133 = UNCERTAINTY_MEASURE_WITH_UNIT (LENGTH_MEASURE( 1.000000000000000082E-05 ), #145, 'distance_accuracy_value', 'NONE');
#134 = CARTESIAN_POINT ( 'NONE',  ( 2.296212748401287726E-17, 0.000000000000000000, 0.1875000000000000278 ) ) ;
#135 = ORIENTED_EDGE ( 'NONE', *, *, #55, .T. ) ;
#136 = EDGE_CURVE ( 'NONE', #66, #180, #23, .T. ) ;
#137 =( GEOMETRIC_REPRESENTATION_CONTEXT ( 3 ) GLOBAL_UNCERTAINTY_ASSIGNED_CONTEXT ( ( #13 ) ) GLOBAL_UNIT_ASSIGNED_CONTEXT ( ( #197, #217, #194 ) ) REPRESENTATION_CONTEXT ( 'NONE', 'WORKASPACE' ) );
#138 = CARTESIAN_POINT ( 'NONE',  ( 0.000000000000000000, 0.000000000000000000, 0.000000000000000000 ) ) ;
#139 = DIRECTION ( 'NONE',  ( -1.000000000000000000, 0.000000000000000000, 0.000000000000000000 ) ) ;
#140 = EDGE_CURVE ( 'NONE', #66, #209, #241, .T. ) ;
#141 = DIRECTION ( 'NONE',  ( 0.000000000000000000, 1.000000000000000000, 0.000000000000000000 ) ) ;
#142 = PRESENTATION_LAYER_ASSIGNMENT (  '', '', ( #269 ) ) ;
#143 = SHAPE_DEFINITION_REPRESENTATION ( #301, #219 ) ;
#144 = FILL_AREA_STYLE ('',( #97 ) ) ;
#145 =( CONVERSION_BASED_UNIT ( 'INCH', #117 ) LENGTH_UNIT ( ) NAMED_UNIT ( #242 ) );
#146 = STYLED_ITEM ( 'NONE', ( #231 ), #267 ) ;
#147 = SURFACE_STYLE_USAGE ( .BOTH. , #4 ) ;
#148 = PRESENTATION_STYLE_ASSIGNMENT (( #248 ) ) ;
#149 = CARTESIAN_POINT ( 'NONE',  ( -0.1875000000000002220, 5.000000000000000000, 0.000000000000000000 ) ) ;
#150 = EDGE_LOOP ( 'NONE', ( #101, #280 ) ) ;
#151 =( GEOMETRIC_REPRESENTATION_CONTEXT ( 3 ) GLOBAL_UNCERTAINTY_ASSIGNED_CONTEXT ( ( #223 ) ) GLOBAL_UNIT_ASSIGNED_CONTEXT ( ( #35, #8, #230 ) ) REPRESENTATION_CONTEXT ( 'NONE', 'WORKASPACE' ) );
#152 = DIRECTION ( 'NONE',  ( -6.123233995736766036E-17, 1.000000000000000000, -0.000000000000000000 ) ) ;
#153 = ORIENTED_EDGE ( 'NONE', *, *, #286, .F. ) ;
#154 =( LENGTH_UNIT ( ) NAMED_UNIT ( * ) SI_UNIT ( $, .METRE. ) );
#155 = ORIENTED_EDGE ( 'NONE', *, *, #173, .F. ) ;
#156 = UNCERTAINTY_MEASURE_WITH_UNIT (LENGTH_MEASURE( 1.000000000000000082E-05 ), #232, 'distance_accuracy_value', 'NONE');
#157 = COLOUR_RGB ( '',1.000000000000000000, 0.000000000000000000, 0.000000000000000000 ) ;
#158 =( NAMED_UNIT ( * ) SI_UNIT ( $, .STERADIAN. ) SOLID_ANGLE_UNIT ( ) );
#159 = ORIENTED_EDGE ( 'NONE', *, *, #170, .T. ) ;
#160 = FACE_OUTER_BOUND ( 'NONE', #190, .T. ) ;
#161 =( CONVERSION_BASED_UNIT ( 'INCH', #105 ) LENGTH_UNIT ( ) NAMED_UNIT ( #59 ) );
#162 = AXIS2_PLACEMENT_3D ( 'NONE', #45, #109, #206 ) ;
#163 = VERTEX_POINT ( 'NONE', #273 ) ;
#164 = CIRCLE ( 'NONE', #162, 0.1875000000000000278 ) ;
#165 = LINE ( 'NONE', #134, #102 ) ;
#166 = ORIENTED_EDGE ( 'NONE', *, *, #55, .F. ) ;
#167 = EDGE_CURVE ( 'NONE', #239, #130, #298, .T. ) ;
#168 = SURFACE_SIDE_STYLE ('',( #96 ) ) ;
#169 = PRESENTATION_STYLE_ASSIGNMENT (( #147 ) ) ;
#170 = EDGE_CURVE ( 'NONE', #163, #130, #254, .T. ) ;
#171 = FACE_OUTER_BOUND ( 'NONE', #250, .T. ) ;
#172 = FACE_OUTER_BOUND ( 'NONE', #234, .T. ) ;
#173 = EDGE_CURVE ( 'NONE', #209, #85, #306, .T. ) ;
#174 = MECHANICAL_DESIGN_GEOMETRIC_PRESENTATION_REPRESENTATION (  '', ( #115 ), #137 ) ;
#175 = FILL_AREA_STYLE ('',( #9 ) ) ;
#176 =( NAMED_UNIT ( * ) PLANE_ANGLE_UNIT ( ) SI_UNIT ( $, .RADIAN. ) );
#177 = AXIS2_PLACEMENT_3D ( 'NONE', #19, #87, #282 ) ;
#178 = AXIS2_PLACEMENT_3D ( 'NONE', #51, #25, #3 ) ;
#179 = CARTESIAN_POINT ( 'NONE',  ( 0.000000000000000000, 0.000000000000000000, 0.000000000000000000 ) ) ;
#180 = VERTEX_POINT ( 'NONE', #249 ) ;
#181 = DIRECTION ( 'NONE',  ( 0.000000000000000000, 0.000000000000000000, -1.000000000000000000 ) ) ;
#182 = ORIENTED_EDGE ( 'NONE', *, *, #240, .F. ) ;
#183 = VERTEX_POINT ( 'NONE', #33 ) ;
#184 = EDGE_CURVE ( 'NONE', #183, #163, #70, .T. ) ;
#185 = FACE_OUTER_BOUND ( 'NONE', #22, .T. ) ;
#186 = PRESENTATION_STYLE_ASSIGNMENT (( #260 ) ) ;
#187 = DIRECTION ( 'NONE',  ( 0.000000000000000000, 0.000000000000000000, -1.000000000000000000 ) ) ;
#188 = ORIENTED_EDGE ( 'NONE', *, *, #167, .F. ) ;
#189 =( LENGTH_UNIT ( ) NAMED_UNIT ( * ) SI_UNIT ( $, .METRE. ) );
#190 = EDGE_LOOP ( 'NONE', ( #135, #277, #81, #57 ) ) ;
#191 = MECHANICAL_DESIGN_GEOMETRIC_PRESENTATION_REPRESENTATION (  '', ( #146 ), #39 ) ;
#192 = DIRECTION ( 'NONE',  ( -1.000000000000000000, -6.123233995736766036E-17, 0.000000000000000000 ) ) ;
#193 = DIRECTION ( 'NONE',  ( -1.000000000000000000, 0.000000000000000000, 0.000000000000000000 ) ) ;
#194 =( NAMED_UNIT ( * ) SI_UNIT ( $, .STERADIAN. ) SOLID_ANGLE_UNIT ( ) );
#195 = AXIS2_PLACEMENT_3D ( 'NONE', #94, #246, #67 ) ;
#196 = CARTESIAN_POINT ( 'NONE',  ( 0.000000000000000000, 3.000000000000000444, -0.1875000000000000278 ) ) ;
#197 =( CONVERSION_BASED_UNIT ( 'INCH', #284 ) LENGTH_UNIT ( ) NAMED_UNIT ( #29 ) );
#198 = FILL_AREA_STYLE ('',( #129 ) ) ;
#199 = ADVANCED_FACE ( 'NONE', ( #58 ), #125, .T. ) ;
#200 = PRESENTATION_LAYER_ASSIGNMENT (  '', '', ( #291 ) ) ;
#201 = UNCERTAINTY_MEASURE_WITH_UNIT (LENGTH_MEASURE( 1.000000000000000082E-05 ), #259, 'distance_accuracy_value', 'NONE');
#202 = DIRECTION ( 'NONE',  ( -6.123233995736766036E-17, 1.000000000000000000, -0.000000000000000000 ) ) ;
#203 = SURFACE_STYLE_FILL_AREA ( #175 ) ;
#204 = ORIENTED_EDGE ( 'NONE', *, *, #240, .T. ) ;
#205 = VECTOR ( 'NONE', #152, 39.37007874015748143 ) ;
#206 = DIRECTION ( 'NONE',  ( 0.000000000000000000, 0.000000000000000000, -1.000000000000000000 ) ) ;
#207 = COLOUR_RGB ( '',1.000000000000000000, 0.000000000000000000, 0.000000000000000000 ) ;
#208 = DIRECTION ( 'NONE',  ( -0.000000000000000000, -1.000000000000000000, -0.000000000000000000 ) ) ;
#209 = VERTEX_POINT ( 'NONE', #36 ) ;
#210 = CARTESIAN_POINT ( 'NONE',  ( 0.000000000000000000, 0.000000000000000000, 0.000000000000000000 ) ) ;
#211 = PLANE ( 'NONE',  #228 ) ;
#212 = CARTESIAN_POINT ( 'NONE',  ( 0.000000000000000000, 0.000000000000000000, 0.000000000000000000 ) ) ;
#213 = DIRECTION ( 'NONE',  ( -6.123233995736766036E-17, 1.000000000000000000, -0.000000000000000000 ) ) ;
#214 = AXIS2_PLACEMENT_3D ( 'NONE', #72, #7, #100 ) ;
#215 =( LENGTH_UNIT ( ) NAMED_UNIT ( * ) SI_UNIT ( $, .METRE. ) );
#216 = APPLICATION_PROTOCOL_DEFINITION ( 'draft international standard', 'automotive_design', 1998, #227 ) ;
#217 =( NAMED_UNIT ( * ) PLANE_ANGLE_UNIT ( ) SI_UNIT ( $, .RADIAN. ) );
#218 = ADVANCED_FACE ( 'NONE', ( #275 ), #271, .T. ) ;
#219 = ADVANCED_BREP_SHAPE_REPRESENTATION ( '82855', ( #11, #112, #79 ), #53 ) ;
#220 = CLOSED_SHELL ( 'NONE', ( #1, #28, #73, #229 ) ) ;
#221 =( LENGTH_UNIT ( ) NAMED_UNIT ( * ) SI_UNIT ( $, .METRE. ) );
#222 =( NAMED_UNIT ( * ) SI_UNIT ( $, .STERADIAN. ) SOLID_ANGLE_UNIT ( ) );
#223 = UNCERTAINTY_MEASURE_WITH_UNIT (LENGTH_MEASURE( 1.000000000000000082E-05 ), #35, 'distance_accuracy_value', 'NONE');
#224 = LENGTH_MEASURE_WITH_UNIT ( LENGTH_MEASURE( 0.02539999999999999897 ), #74 );
#225 = EDGE_CURVE ( 'NONE', #180, #66, #164, .T. ) ;
#226 = CARTESIAN_POINT ( 'NONE',  ( 0.000000000000000000, 0.000000000000000000, 0.000000000000000000 ) ) ;
#227 = APPLICATION_CONTEXT ( 'automotive_design' ) ;
#228 = AXIS2_PLACEMENT_3D ( 'NONE', #91, #89, #192 ) ;
#229 = ADVANCED_FACE ( 'NONE', ( #237 ), #62, .F. ) ;
#230 =( NAMED_UNIT ( * ) SI_UNIT ( $, .STERADIAN. ) SOLID_ANGLE_UNIT ( ) );
#231 = PRESENTATION_STYLE_ASSIGNMENT (( #15 ) ) ;
#232 =( CONVERSION_BASED_UNIT ( 'INCH', #43 ) LENGTH_UNIT ( ) NAMED_UNIT ( #245 ) );
#233 = DIRECTION ( 'NONE',  ( -0.000000000000000000, -1.000000000000000000, -0.000000000000000000 ) ) ;
#234 = EDGE_LOOP ( 'NONE', ( #278, #300, #159, #188 ) ) ;
#235 = COLOUR_RGB ( '',1.000000000000000000, 0.000000000000000000, 0.000000000000000000 ) ;
#236 =( NAMED_UNIT ( * ) SI_UNIT ( $, .STERADIAN. ) SOLID_ANGLE_UNIT ( ) );
#237 = FACE_OUTER_BOUND ( 'NONE', #46, .T. ) ;
#238 = LINE ( 'NONE', #111, #120 ) ;
#239 = VERTEX_POINT ( 'NONE', #296 ) ;
#240 = EDGE_CURVE ( 'NONE', #180, #85, #165, .T. ) ;
#241 = LINE ( 'NONE', #77, #128 ) ;
#242 = DIMENSIONAL_EXPONENTS ( 1.000000000000000000, 0.000000000000000000, 0.000000000000000000, 0.000000000000000000, 0.000000000000000000, 0.000000000000000000, 0.000000000000000000 ) ;
#243 = SURFACE_STYLE_USAGE ( .BOTH. , #168 ) ;
#244 = PRODUCT_CONTEXT ( 'NONE', #88, 'mechanical' ) ;
#245 = DIMENSIONAL_EXPONENTS ( 1.000000000000000000, 0.000000000000000000, 0.000000000000000000, 0.000000000000000000, 0.000000000000000000, 0.000000000000000000, 0.000000000000000000 ) ;
#246 = DIRECTION ( 'NONE',  ( -0.000000000000000000, -1.000000000000000000, -0.000000000000000000 ) ) ;
#247 = AXIS2_PLACEMENT_3D ( 'NONE', #52, #93, #193 ) ;
#248 = SURFACE_STYLE_USAGE ( .BOTH. , #71 ) ;
#249 = CARTESIAN_POINT ( 'NONE',  ( 2.296212748401287726E-17, 3.000000000000000444, 0.1875000000000000278 ) ) ;
#250 = EDGE_LOOP ( 'NONE', ( #63, #297 ) ) ;
#251 = MECHANICAL_DESIGN_GEOMETRIC_PRESENTATION_REPRESENTATION (  '', ( #291 ), #86 ) ;
#252 = LENGTH_MEASURE_WITH_UNIT ( LENGTH_MEASURE( 0.02539999999999999897 ), #154 );
#253 = SURFACE_STYLE_FILL_AREA ( #198 ) ;
#254 = LINE ( 'NONE', #149, #205 ) ;
#255 = EDGE_LOOP ( 'NONE', ( #166, #37 ) ) ;
#256 = AXIS2_PLACEMENT_3D ( 'NONE', #99, #202, #289 ) ;
#257 =( NAMED_UNIT ( * ) PLANE_ANGLE_UNIT ( ) SI_UNIT ( $, .RADIAN. ) );
#258 = SURFACE_SIDE_STYLE ('',( #114 ) ) ;
#259 =( CONVERSION_BASED_UNIT ( 'INCH', #20 ) LENGTH_UNIT ( ) NAMED_UNIT ( #84 ) );
#260 = SURFACE_STYLE_USAGE ( .BOTH. , #258 ) ;
#261 = STYLED_ITEM ( 'NONE', ( #186 ), #11 ) ;
#262 = AXIS2_PLACEMENT_3D ( 'NONE', #179, #32, #276 ) ;
#263 = CARTESIAN_POINT ( 'NONE',  ( 0.000000000000000000, 3.000000000000000444, 0.000000000000000000 ) ) ;
#264 = ORIENTED_EDGE ( 'NONE', *, *, #127, .T. ) ;
#265 = FILL_AREA_STYLE_COLOUR ( '', #122 ) ;
#266 =( NAMED_UNIT ( * ) SI_UNIT ( $, .STERADIAN. ) SOLID_ANGLE_UNIT ( ) );
#267 = ADVANCED_FACE ( 'NONE', ( #185 ), #294, .T. ) ;
#268 = FILL_AREA_STYLE ('',( #265 ) ) ;
#269 = STYLED_ITEM ( 'NONE', ( #169 ), #112 ) ;
#270 = AXIS2_PLACEMENT_3D ( 'NONE', #212, #233, #16 ) ;
#271 = CYLINDRICAL_SURFACE ( 'NONE', #78, 0.1875000000000000278 ) ;
#272 = ORIENTED_EDGE ( 'NONE', *, *, #167, .T. ) ;
#273 = CARTESIAN_POINT ( 'NONE',  ( -0.1875000000000000278, 3.000000000000000444, 0.000000000000000000 ) ) ;
#274 = CIRCLE ( 'NONE', #292, 0.1875000000000000278 ) ;
#275 = FACE_OUTER_BOUND ( 'NONE', #279, .T. ) ;
#276 = DIRECTION ( 'NONE',  ( 0.000000000000000000, 0.000000000000000000, -1.000000000000000000 ) ) ;
#277 = ORIENTED_EDGE ( 'NONE', *, *, #60, .T. ) ;
#278 = ORIENTED_EDGE ( 'NONE', *, *, #60, .F. ) ;
#279 = EDGE_LOOP ( 'NONE', ( #17, #204, #155, #304 ) ) ;
#280 = ORIENTED_EDGE ( 'NONE', *, *, #286, .T. ) ;
#281 = COLOUR_RGB ( '',1.000000000000000000, 0.000000000000000000, 0.000000000000000000 ) ;
#282 = DIRECTION ( 'NONE',  ( -1.000000000000000000, 0.000000000000000000, 0.000000000000000000 ) ) ;
#283 = CARTESIAN_POINT ( 'NONE',  ( -0.1875000000000002776, 5.000000000000000000, 0.000000000000000000 ) ) ;
#284 = LENGTH_MEASURE_WITH_UNIT ( LENGTH_MEASURE( 0.02539999999999999897 ), #221 );
#285 = DIMENSIONAL_EXPONENTS ( 1.000000000000000000, 0.000000000000000000, 0.000000000000000000, 0.000000000000000000, 0.000000000000000000, 0.000000000000000000, 0.000000000000000000 ) ;
#286 = EDGE_CURVE ( 'NONE', #85, #209, #274, .T. ) ;
#287 = DIRECTION ( 'NONE',  ( 0.000000000000000000, -0.000000000000000000, 1.000000000000000000 ) ) ;
#288 = DIRECTION ( 'NONE',  ( -0.000000000000000000, -1.000000000000000000, -0.000000000000000000 ) ) ;
#289 = DIRECTION ( 'NONE',  ( -1.000000000000000000, 0.000000000000000000, 0.000000000000000000 ) ) ;
#290 = PRESENTATION_LAYER_ASSIGNMENT (  '', '', ( #261 ) ) ;
#291 = STYLED_ITEM ( 'NONE', ( #148 ), #199 ) ;
#292 = AXIS2_PLACEMENT_3D ( 'NONE', #210, #208, #187 ) ;
#293 = DIRECTION ( 'NONE',  ( 0.000000000000000000, -1.000000000000000000, -0.000000000000000000 ) ) ;
#294 = CYLINDRICAL_SURFACE ( 'NONE', #270, 0.1875000000000000278 ) ;
#295 = DIMENSIONAL_EXPONENTS ( 1.000000000000000000, 0.000000000000000000, 0.000000000000000000, 0.000000000000000000, 0.000000000000000000, 0.000000000000000000, 0.000000000000000000 ) ;
#296 = CARTESIAN_POINT ( 'NONE',  ( 0.1875000000000000278, 5.000000000000000000, 2.296212748401288650E-17 ) ) ;
#297 = ORIENTED_EDGE ( 'NONE', *, *, #225, .F. ) ;
#298 = CIRCLE ( 'NONE', #214, 0.1875000000000001388 ) ;
#299 = DIRECTION ( 'NONE',  ( 0.000000000000000000, 0.000000000000000000, -1.000000000000000000 ) ) ;
#300 = ORIENTED_EDGE ( 'NONE', *, *, #184, .T. ) ;
#301 = PRODUCT_DEFINITION_SHAPE ( 'NONE', 'NONE',  #56 ) ;
#302 = DIRECTION ( 'NONE',  ( 6.123233995736766036E-17, -1.000000000000000000, 0.000000000000000000 ) ) ;
#303 = DIRECTION ( 'NONE',  ( -0.000000000000000000, -1.000000000000000000, -0.000000000000000000 ) ) ;
#304 = ORIENTED_EDGE ( 'NONE', *, *, #140, .F. ) ;
#305 = MECHANICAL_DESIGN_GEOMETRIC_PRESENTATION_REPRESENTATION (  '', ( #261 ), #92 ) ;
#306 = CIRCLE ( 'NONE', #262, 0.1875000000000000278 ) ;
#307 = PRODUCT_DEFINITION_FORMATION_WITH_SPECIFIED_SOURCE ( 'ANY', '', #124, .NOT_KNOWN. ) ;
#308 = PLANE ( 'NONE',  #38 ) ;
#309 = PRESENTATION_STYLE_ASSIGNMENT (( #243 ) ) ;
ENDSEC;
END-ISO-10303-21;
