ISO-10303-21;
HEADER;
FILE_DESCRIPTION (( 'STEP AP214' ),
    '1' );
FILE_NAME ('Micro_EMHM-040-4.STEP',
    '2021-09-01T17:20:36',
    ( '' ),
    ( '' ),
    'SwSTEP 2.0',
    'SolidWorks 2020',
    '' );
FILE_SCHEMA (( 'AUTOMOTIVE_DESIGN' ));
ENDSEC;

DATA;
#1 = AXIS2_PLACEMENT_3D ( 'NONE', #30, #171, #96 ) ;
#2 = ORIENTED_EDGE ( 'NONE', *, *, #228, .T. ) ;
#3 = AXIS2_PLACEMENT_3D ( 'NONE', #60, #38, #131 ) ;
#4 = CARTESIAN_POINT ( 'NONE',  ( 0.06374000000000018540, 8.724383797125754882E-18, 1.968503999999999809 ) ) ;
#5 = CARTESIAN_POINT ( 'NONE',  ( 0.0000000000000000000, 0.0000000000000000000, 1.968503999999999809 ) ) ;
#6 = ADVANCED_FACE ( 'NONE', ( #234 ), #216, .T. ) ;
#7 = LINE ( 'NONE', #262, #223 ) ;
#8 = CIRCLE ( 'NONE', #181, 0.07866125999999999674 ) ;
#9 = DIRECTION ( 'NONE',  ( -1.000000000000000000, 0.0000000000000000000, 0.0000000000000000000 ) ) ;
#10 = ORIENTED_EDGE ( 'NONE', *, *, #101, .F. ) ;
#11 = DIRECTION ( 'NONE',  ( -1.000000000000000000, 0.0000000000000000000, 0.0000000000000000000 ) ) ;
#12 = CARTESIAN_POINT ( 'NONE',  ( -0.07873999999999996280, 0.0000000000000000000, 0.4728875567304768879 ) ) ;
#13 =( NAMED_UNIT ( * ) SI_UNIT ( $, .STERADIAN. ) SOLID_ANGLE_UNIT ( ) );
#14 = LINE ( 'NONE', #103, #264 ) ;
#15 =( GEOMETRIC_REPRESENTATION_CONTEXT ( 3 ) GLOBAL_UNCERTAINTY_ASSIGNED_CONTEXT ( ( #176 ) ) GLOBAL_UNIT_ASSIGNED_CONTEXT ( ( #74, #173, #13 ) ) REPRESENTATION_CONTEXT ( 'NONE', 'WORKASPACE' ) );
#16 = DIRECTION ( 'NONE',  ( 1.000000000000000000, 0.0000000000000000000, 0.0000000000000000000 ) ) ;
#17 = APPLICATION_PROTOCOL_DEFINITION ( 'draft international standard', 'automotive_design', 1998, #271 ) ;
#18 = ORIENTED_EDGE ( 'NONE', *, *, #149, .F. ) ;
#19 =( LENGTH_UNIT ( ) NAMED_UNIT ( * ) SI_UNIT ( $, .METRE. ) );
#20 = ORIENTED_EDGE ( 'NONE', *, *, #91, .T. ) ;
#21 = CARTESIAN_POINT ( 'NONE',  ( 0.07874000000000001831, 9.642868896486260050E-18, 1.953504000000000129 ) ) ;
#22 = ORIENTED_EDGE ( 'NONE', *, *, #199, .F. ) ;
#23 = CARTESIAN_POINT ( 'NONE',  ( 0.0000000000000000000, 0.0000000000000000000, 0.0000000000000000000 ) ) ;
#24 = ORIENTED_EDGE ( 'NONE', *, *, #238, .F. ) ;
#25 = VECTOR ( 'NONE', #198, 39.37007874015748143 ) ;
#26 = ORIENTED_EDGE ( 'NONE', *, *, #48, .F. ) ;
#27 = LENGTH_MEASURE_WITH_UNIT ( LENGTH_MEASURE( 0.02539999999999999897 ), #92 );
#28 = FILL_AREA_STYLE_COLOUR ( '', #142 ) ;
#29 = AXIS2_PLACEMENT_3D ( 'NONE', #70, #50, #51 ) ;
#30 = CARTESIAN_POINT ( 'NONE',  ( 0.0000000000000000000, 0.0000000000000000000, 1.968503999999999809 ) ) ;
#31 = EDGE_CURVE ( 'NONE', #190, #209, #72, .T. ) ;
#32 = DIRECTION ( 'NONE',  ( 0.0000000000000000000, 0.0000000000000000000, 1.000000000000000000 ) ) ;
#33 = DIRECTION ( 'NONE',  ( 1.000000000000000000, 0.0000000000000000000, 0.0000000000000000000 ) ) ;
#34 = ADVANCED_FACE ( 'NONE', ( #261 ), #210, .T. ) ;
#35 = DIRECTION ( 'NONE',  ( -1.000000000000000000, 0.0000000000000000000, 1.224646799147352961E-16 ) ) ;
#36 = CARTESIAN_POINT ( 'NONE',  ( 0.07866126000000003837, 0.0000000000000000000, 0.4724409999999999998 ) ) ;
#37 = DIRECTION ( 'NONE',  ( 0.0000000000000000000, 0.0000000000000000000, -1.000000000000000000 ) ) ;
#38 = DIRECTION ( 'NONE',  ( -1.224646799147353207E-16, -0.0000000000000000000, -1.000000000000000000 ) ) ;
#39 = ORIENTED_EDGE ( 'NONE', *, *, #101, .T. ) ;
#40 = PRODUCT_RELATED_PRODUCT_CATEGORY ( 'part', '', ( #99 ) ) ;
#41 = FILL_AREA_STYLE ('',( #86 ) ) ;
#42 = ORIENTED_EDGE ( 'NONE', *, *, #73, .T. ) ;
#43 = ORIENTED_EDGE ( 'NONE', *, *, #247, .F. ) ;
#44 = EDGE_CURVE ( 'NONE', #111, #46, #229, .T. ) ;
#45 = ORIENTED_EDGE ( 'NONE', *, *, #272, .F. ) ;
#46 = VERTEX_POINT ( 'NONE', #167 ) ;
#47 = CARTESIAN_POINT ( 'NONE',  ( 0.0000000000000000000, 0.0000000000000000000, 1.953504000000000129 ) ) ;
#48 = EDGE_CURVE ( 'NONE', #46, #111, #239, .T. ) ;
#49 = DIMENSIONAL_EXPONENTS ( 1.000000000000000000, 0.0000000000000000000, 0.0000000000000000000, 0.0000000000000000000, 0.0000000000000000000, 0.0000000000000000000, 0.0000000000000000000 ) ;
#50 = DIRECTION ( 'NONE',  ( 1.224646799147353207E-16, 0.0000000000000000000, 1.000000000000000000 ) ) ;
#51 = DIRECTION ( 'NONE',  ( 1.000000000000000000, 0.0000000000000000000, 0.0000000000000000000 ) ) ;
#52 = LINE ( 'NONE', #166, #281 ) ;
#53 = CIRCLE ( 'NONE', #265, 0.07866125999999999674 ) ;
#54 = DIRECTION ( 'NONE',  ( 0.1736481776669313304, 0.0000000000000000000, 0.9848077530122077983 ) ) ;
#55 = CARTESIAN_POINT ( 'NONE',  ( 0.07866126000000003837, 0.0000000000000000000, 0.4724409999999999998 ) ) ;
#56 = DIRECTION ( 'NONE',  ( -1.224646799147353207E-16, -0.0000000000000000000, -1.000000000000000000 ) ) ;
#57 = CARTESIAN_POINT ( 'NONE',  ( 5.785733584359747758E-17, 0.0000000000000000000, 0.4724409999999999998 ) ) ;
#58 = DIRECTION ( 'NONE',  ( 1.000000000000000000, 0.0000000000000000000, -0.0000000000000000000 ) ) ;
#59 = AXIS2_PLACEMENT_3D ( 'NONE', #289, #244, #151 ) ;
#60 = CARTESIAN_POINT ( 'NONE',  ( 5.791202327065909257E-17, 0.0000000000000000000, 0.4728875567304768879 ) ) ;
#61 = ORIENTED_EDGE ( 'NONE', *, *, #139, .T. ) ;
#62 =( CONVERSION_BASED_UNIT ( 'INCH', #227 ) LENGTH_UNIT ( ) NAMED_UNIT ( #49 ) );
#63 = ORIENTED_EDGE ( 'NONE', *, *, #91, .F. ) ;
#64 = ADVANCED_FACE ( 'NONE', ( #284 ), #283, .F. ) ;
#65 = DIRECTION ( 'NONE',  ( -1.224646799147353207E-16, -0.0000000000000000000, -1.000000000000000000 ) ) ;
#66 = VERTEX_POINT ( 'NONE', #69 ) ;
#67 = PRESENTATION_LAYER_ASSIGNMENT (  '', '', ( #98 ) ) ;
#68 = ORIENTED_EDGE ( 'NONE', *, *, #282, .T. ) ;
#69 = CARTESIAN_POINT ( 'NONE',  ( -0.07866125999999999674, 0.0000000000000000000, 1.926645205517954173E-17 ) ) ;
#70 = CARTESIAN_POINT ( 'NONE',  ( 5.785733584359747758E-17, 0.0000000000000000000, 0.4724409999999999998 ) ) ;
#71 = DIRECTION ( 'NONE',  ( 1.000000000000000000, 0.0000000000000000000, -0.0000000000000000000 ) ) ;
#72 = LINE ( 'NONE', #212, #295 ) ;
#73 = EDGE_CURVE ( 'NONE', #153, #209, #52, .T. ) ;
#74 =( CONVERSION_BASED_UNIT ( 'INCH', #27 ) LENGTH_UNIT ( ) NAMED_UNIT ( #172 ) );
#75 = DIRECTION ( 'NONE',  ( 0.7071067811865507924, 8.659560562354973534E-17, -0.7071067811865443531 ) ) ;
#76 = DIRECTION ( 'NONE',  ( -1.224646799147353207E-16, -0.0000000000000000000, -1.000000000000000000 ) ) ;
#77 = DIRECTION ( 'NONE',  ( -1.224646799147353207E-16, -0.0000000000000000000, -1.000000000000000000 ) ) ;
#78 = CARTESIAN_POINT ( 'NONE',  ( 0.0000000000000000000, 0.0000000000000000000, 0.0000000000000000000 ) ) ;
#79 = DIRECTION ( 'NONE',  ( -1.000000000000000000, 0.0000000000000000000, 1.224646799147352961E-16 ) ) ;
#80 = ADVANCED_FACE ( 'NONE', ( #215 ), #277, .T. ) ;
#81 = DIRECTION ( 'NONE',  ( 1.000000000000000000, 0.0000000000000000000, 0.0000000000000000000 ) ) ;
#82 =( CONVERSION_BASED_UNIT ( 'INCH', #126 ) LENGTH_UNIT ( ) NAMED_UNIT ( #165 ) );
#83 = EDGE_LOOP ( 'NONE', ( #184, #204, #20, #24 ) ) ;
#84 = AXIS2_PLACEMENT_3D ( 'NONE', #47, #140, #237 ) ;
#85 =( LENGTH_UNIT ( ) NAMED_UNIT ( * ) SI_UNIT ( $, .METRE. ) );
#86 = FILL_AREA_STYLE_COLOUR ( '', #161 ) ;
#87 = ORIENTED_EDGE ( 'NONE', *, *, #31, .F. ) ;
#88 = ORIENTED_EDGE ( 'NONE', *, *, #123, .F. ) ;
#89 = AXIS2_PLACEMENT_3D ( 'NONE', #5, #211, #9 ) ;
#90 = AXIS2_PLACEMENT_3D ( 'NONE', #182, #37, #16 ) ;
#91 = EDGE_CURVE ( 'NONE', #153, #66, #7, .T. ) ;
#92 =( LENGTH_UNIT ( ) NAMED_UNIT ( * ) SI_UNIT ( $, .METRE. ) );
#93 = DIRECTION ( 'NONE',  ( 0.0000000000000000000, 0.0000000000000000000, 1.000000000000000000 ) ) ;
#94 = PRESENTATION_STYLE_ASSIGNMENT (( #192 ) ) ;
#95 = FILL_AREA_STYLE ('',( #28 ) ) ;
#96 = DIRECTION ( 'NONE',  ( 1.000000000000000000, 0.0000000000000000000, 0.0000000000000000000 ) ) ;
#97 = FACE_OUTER_BOUND ( 'NONE', #160, .T. ) ;
#98 = STYLED_ITEM ( 'NONE', ( #293 ), #107 ) ;
#99 = PRODUCT ( 'Micro_EMHM-040-4', 'Micro_EMHM-040-4', '', ( #299 ) ) ;
#100 = DIRECTION ( 'NONE',  ( -1.000000000000000000, 0.0000000000000000000, 1.224646799147352961E-16 ) ) ;
#101 = EDGE_CURVE ( 'NONE', #297, #190, #136, .T. ) ;
#102 = PRODUCT_DEFINITION_CONTEXT ( 'detailed design', #185, 'design' ) ;
#103 = CARTESIAN_POINT ( 'NONE',  ( 0.07874000000000001831, 9.642868896486260050E-18, 1.968503999999999809 ) ) ;
#104 = AXIS2_PLACEMENT_3D ( 'NONE', #117, #194, #71 ) ;
#105 = VECTOR ( 'NONE', #75, 39.37007874015748143 ) ;
#106 = LINE ( 'NONE', #285, #105 ) ;
#107 = ADVANCED_BREP_SHAPE_REPRESENTATION ( 'Micro_EMHM-040-4', ( #118, #148 ), #218 ) ;
#108 = ORIENTED_EDGE ( 'NONE', *, *, #123, .T. ) ;
#109 = AXIS2_PLACEMENT_3D ( 'NONE', #240, #115, #258 ) ;
#110 = AXIS2_PLACEMENT_3D ( 'NONE', #273, #246, #79 ) ;
#111 = VERTEX_POINT ( 'NONE', #4 ) ;
#112 = DIRECTION ( 'NONE',  ( 0.0000000000000000000, 0.0000000000000000000, 1.000000000000000000 ) ) ;
#113 = ORIENTED_EDGE ( 'NONE', *, *, #31, .T. ) ;
#114 = AXIS2_PLACEMENT_3D ( 'NONE', #122, #178, #11 ) ;
#115 = DIRECTION ( 'NONE',  ( -0.0000000000000000000, -0.0000000000000000000, -1.000000000000000000 ) ) ;
#116 = DIRECTION ( 'NONE',  ( -1.224646799147353207E-16, -0.0000000000000000000, -1.000000000000000000 ) ) ;
#117 = CARTESIAN_POINT ( 'NONE',  ( 0.0000000000000000000, 0.0000000000000000000, 0.0000000000000000000 ) ) ;
#118 = MANIFOLD_SOLID_BREP ( 'Cut-Revolve1', #125 ) ;
#119 = CYLINDRICAL_SURFACE ( 'NONE', #114, 0.07874000000000001831 ) ;
#120 = CARTESIAN_POINT ( 'NONE',  ( -0.07874000000000001831, 0.0000000000000000000, 1.953504000000000129 ) ) ;
#121 = CARTESIAN_POINT ( 'NONE',  ( 0.07866125999999999674, 9.633226027589770864E-18, 0.0000000000000000000 ) ) ;
#122 = CARTESIAN_POINT ( 'NONE',  ( 0.0000000000000000000, 0.0000000000000000000, 1.968503999999999809 ) ) ;
#123 = EDGE_CURVE ( 'NONE', #128, #127, #143, .T. ) ;
#124 = FACE_OUTER_BOUND ( 'NONE', #205, .T. ) ;
#125 = CLOSED_SHELL ( 'NONE', ( #134, #163, #34, #6, #193, #202, #296, #80, #257, #64 ) ) ;
#126 = LENGTH_MEASURE_WITH_UNIT ( LENGTH_MEASURE( 0.02539999999999999897 ), #85 );
#127 = VERTEX_POINT ( 'NONE', #141 ) ;
#128 = VERTEX_POINT ( 'NONE', #36 ) ;
#129 =( NAMED_UNIT ( * ) PLANE_ANGLE_UNIT ( ) SI_UNIT ( $, .RADIAN. ) );
#130 = ORIENTED_EDGE ( 'NONE', *, *, #290, .F. ) ;
#131 = DIRECTION ( 'NONE',  ( 1.000000000000000000, 0.0000000000000000000, 0.0000000000000000000 ) ) ;
#132 = VERTEX_POINT ( 'NONE', #121 ) ;
#133 = ORIENTED_EDGE ( 'NONE', *, *, #44, .F. ) ;
#134 = ADVANCED_FACE ( 'NONE', ( #124 ), #175, .T. ) ;
#135 = ORIENTED_EDGE ( 'NONE', *, *, #288, .T. ) ;
#136 = CIRCLE ( 'NONE', #84, 0.07874000000000001831 ) ;
#137 =( GEOMETRIC_REPRESENTATION_CONTEXT ( 3 ) GLOBAL_UNCERTAINTY_ASSIGNED_CONTEXT ( ( #220 ) ) GLOBAL_UNIT_ASSIGNED_CONTEXT ( ( #62, #129, #276 ) ) REPRESENTATION_CONTEXT ( 'NONE', 'WORKASPACE' ) );
#138 = DIRECTION ( 'NONE',  ( -0.0000000000000000000, -0.0000000000000000000, -1.000000000000000000 ) ) ;
#139 = EDGE_CURVE ( 'NONE', #128, #132, #145, .T. ) ;
#140 = DIRECTION ( 'NONE',  ( 0.0000000000000000000, 0.0000000000000000000, -1.000000000000000000 ) ) ;
#141 = CARTESIAN_POINT ( 'NONE',  ( 0.07874000000000007382, 9.642868896486266213E-18, 0.4728875567304768879 ) ) ;
#142 = COLOUR_RGB ( '',0.7921568627450980005, 0.8196078431372548767, 0.9333333333333333481 ) ;
#143 = LINE ( 'NONE', #55, #179 ) ;
#144 = PRODUCT_DEFINITION ( 'UNKNOWN', '', #260, #102 ) ;
#145 = LINE ( 'NONE', #180, #214 ) ;
#146 = AXIS2_PLACEMENT_3D ( 'NONE', #263, #93, #279 ) ;
#147 = CARTESIAN_POINT ( 'NONE',  ( -0.06374000000000018540, 0.0000000000000000000, 1.968503999999999809 ) ) ;
#148 = AXIS2_PLACEMENT_3D ( 'NONE', #23, #112, #81 ) ;
#149 = EDGE_CURVE ( 'NONE', #297, #127, #14, .T. ) ;
#150 = DIRECTION ( 'NONE',  ( -1.224646799147353207E-16, -0.0000000000000000000, -1.000000000000000000 ) ) ;
#151 = DIRECTION ( 'NONE',  ( 1.000000000000000000, 0.0000000000000000000, 0.0000000000000000000 ) ) ;
#152 =( NAMED_UNIT ( * ) PLANE_ANGLE_UNIT ( ) SI_UNIT ( $, .RADIAN. ) );
#153 = VERTEX_POINT ( 'NONE', #267 ) ;
#154 = AXIS2_PLACEMENT_3D ( 'NONE', #266, #32, #58 ) ;
#155 = CARTESIAN_POINT ( 'NONE',  ( 0.0000000000000000000, 0.0000000000000000000, 1.968503999999999809 ) ) ;
#156 = ORIENTED_EDGE ( 'NONE', *, *, #228, .F. ) ;
#157 = DIRECTION ( 'NONE',  ( -1.000000000000000000, 0.0000000000000000000, 1.224646799147352961E-16 ) ) ;
#158 = ORIENTED_EDGE ( 'NONE', *, *, #225, .F. ) ;
#159 = SURFACE_STYLE_FILL_AREA ( #41 ) ;
#160 = EDGE_LOOP ( 'NONE', ( #280, #252 ) ) ;
#161 = COLOUR_RGB ( '',0.7921568627450980005, 0.8196078431372548767, 0.9333333333333333481 ) ;
#162 = SHAPE_DEFINITION_REPRESENTATION ( #170, #107 ) ;
#163 = ADVANCED_FACE ( 'NONE', ( #242 ), #248, .T. ) ;
#164 = ORIENTED_EDGE ( 'NONE', *, *, #225, .T. ) ;
#165 = DIMENSIONAL_EXPONENTS ( 1.000000000000000000, 0.0000000000000000000, 0.0000000000000000000, 0.0000000000000000000, 0.0000000000000000000, 0.0000000000000000000, 0.0000000000000000000 ) ;
#166 = CARTESIAN_POINT ( 'NONE',  ( -0.07866125999999994123, 9.633226027589770864E-18, 0.4724409999999999998 ) ) ;
#167 = CARTESIAN_POINT ( 'NONE',  ( -0.06374000000000018540, 0.0000000000000000000, 1.968503999999999809 ) ) ;
#168 = MECHANICAL_DESIGN_GEOMETRIC_PRESENTATION_REPRESENTATION (  '', ( #174 ), #15 ) ;
#169 = DIRECTION ( 'NONE',  ( -0.1736481776669311639, 2.126576849575782392E-17, 0.9848077530122080203 ) ) ;
#170 = PRODUCT_DEFINITION_SHAPE ( 'NONE', 'NONE',  #144 ) ;
#171 = DIRECTION ( 'NONE',  ( 0.0000000000000000000, 0.0000000000000000000, 1.000000000000000000 ) ) ;
#172 = DIMENSIONAL_EXPONENTS ( 1.000000000000000000, 0.0000000000000000000, 0.0000000000000000000, 0.0000000000000000000, 0.0000000000000000000, 0.0000000000000000000, 0.0000000000000000000 ) ;
#173 =( NAMED_UNIT ( * ) PLANE_ANGLE_UNIT ( ) SI_UNIT ( $, .RADIAN. ) );
#174 = STYLED_ITEM ( 'NONE', ( #94 ), #118 ) ;
#175 = CYLINDRICAL_SURFACE ( 'NONE', #189, 0.07866125999999999674 ) ;
#176 = UNCERTAINTY_MEASURE_WITH_UNIT (LENGTH_MEASURE( 1.000000000000000082E-05 ), #74, 'distance_accuracy_value', 'NONE');
#177 = CARTESIAN_POINT ( 'NONE',  ( 5.785733584359747758E-17, 0.0000000000000000000, 0.4724409999999999998 ) ) ;
#178 = DIRECTION ( 'NONE',  ( -0.0000000000000000000, -0.0000000000000000000, -1.000000000000000000 ) ) ;
#179 = VECTOR ( 'NONE', #54, 39.37007874015748143 ) ;
#180 = CARTESIAN_POINT ( 'NONE',  ( 0.07866125999999999674, 9.633226027589770864E-18, -9.633226027589770864E-18 ) ) ;
#181 = AXIS2_PLACEMENT_3D ( 'NONE', #226, #65, #157 ) ;
#182 = CARTESIAN_POINT ( 'NONE',  ( 0.0000000000000000000, 0.0000000000000000000, 1.953504000000000129 ) ) ;
#183 = SURFACE_STYLE_USAGE ( .BOTH. , #186 ) ;
#184 = ORIENTED_EDGE ( 'NONE', *, *, #139, .F. ) ;
#185 = APPLICATION_CONTEXT ( 'automotive_design' ) ;
#186 = SURFACE_SIDE_STYLE ('',( #159 ) ) ;
#187 = APPLICATION_PROTOCOL_DEFINITION ( 'draft international standard', 'automotive_design', 1998, #185 ) ;
#188 = ORIENTED_EDGE ( 'NONE', *, *, #288, .F. ) ;
#189 = AXIS2_PLACEMENT_3D ( 'NONE', #78, #56, #100 ) ;
#190 = VERTEX_POINT ( 'NONE', #120 ) ;
#191 = EDGE_LOOP ( 'NONE', ( #232, #235, #156, #87 ) ) ;
#192 = SURFACE_STYLE_USAGE ( .BOTH. , #236 ) ;
#193 = ADVANCED_FACE ( 'NONE', ( #217 ), #119, .T. ) ;
#194 = DIRECTION ( 'NONE',  ( 0.0000000000000000000, 0.0000000000000000000, 1.000000000000000000 ) ) ;
#195 = CIRCLE ( 'NONE', #59, 0.07874000000000001831 ) ;
#196 = LINE ( 'NONE', #147, #25 ) ;
#197 = UNCERTAINTY_MEASURE_WITH_UNIT (LENGTH_MEASURE( 1.000000000000000082E-05 ), #82, 'distance_accuracy_value', 'NONE');
#198 = DIRECTION ( 'NONE',  ( -0.7071067811865507924, 0.0000000000000000000, -0.7071067811865443531 ) ) ;
#199 = EDGE_CURVE ( 'NONE', #153, #128, #254, .T. ) ;
#200 = DIRECTION ( 'NONE',  ( -1.000000000000000000, 0.0000000000000000000, 0.0000000000000000000 ) ) ;
#201 = MECHANICAL_DESIGN_GEOMETRIC_PRESENTATION_REPRESENTATION (  '', ( #98 ), #137 ) ;
#202 = ADVANCED_FACE ( 'NONE', ( #97 ), #224, .T. ) ;
#203 = FACE_OUTER_BOUND ( 'NONE', #278, .T. ) ;
#204 = ORIENTED_EDGE ( 'NONE', *, *, #247, .T. ) ;
#205 = EDGE_LOOP ( 'NONE', ( #298, #61, #130, #63 ) ) ;
#206 = CONICAL_SURFACE ( 'NONE', #269, 0.06374000000000018540, 0.7853981633974528309 ) ;
#207 = EDGE_LOOP ( 'NONE', ( #233, #43, #108, #135 ) ) ;
#208 = EDGE_LOOP ( 'NONE', ( #22, #42, #2, #88 ) ) ;
#209 = VERTEX_POINT ( 'NONE', #12 ) ;
#210 = CONICAL_SURFACE ( 'NONE', #89, 0.06374000000000018540, 0.7853981633974528309 ) ;
#211 = DIRECTION ( 'NONE',  ( 0.0000000000000000000, 0.0000000000000000000, -1.000000000000000000 ) ) ;
#212 = CARTESIAN_POINT ( 'NONE',  ( -0.07874000000000001831, 0.0000000000000000000, 1.968503999999999809 ) ) ;
#213 = SURFACE_STYLE_FILL_AREA ( #95 ) ;
#214 = VECTOR ( 'NONE', #76, 39.37007874015748143 ) ;
#215 = FACE_OUTER_BOUND ( 'NONE', #207, .T. ) ;
#216 = CYLINDRICAL_SURFACE ( 'NONE', #109, 0.07874000000000001831 ) ;
#217 = FACE_OUTER_BOUND ( 'NONE', #230, .T. ) ;
#218 =( GEOMETRIC_REPRESENTATION_CONTEXT ( 3 ) GLOBAL_UNCERTAINTY_ASSIGNED_CONTEXT ( ( #197 ) ) GLOBAL_UNIT_ASSIGNED_CONTEXT ( ( #82, #152, #275 ) ) REPRESENTATION_CONTEXT ( 'NONE', 'WORKASPACE' ) );
#219 = CARTESIAN_POINT ( 'NONE',  ( 5.785733584359747758E-17, 0.0000000000000000000, 0.4724409999999999998 ) ) ;
#220 = UNCERTAINTY_MEASURE_WITH_UNIT (LENGTH_MEASURE( 1.000000000000000082E-05 ), #62, 'distance_accuracy_value', 'NONE');
#221 = DIRECTION ( 'NONE',  ( 1.224646799147353207E-16, 0.0000000000000000000, 1.000000000000000000 ) ) ;
#222 = FACE_OUTER_BOUND ( 'NONE', #83, .T. ) ;
#223 = VECTOR ( 'NONE', #116, 39.37007874015748143 ) ;
#224 = PLANE ( 'NONE',  #154 ) ;
#225 = EDGE_CURVE ( 'NONE', #46, #190, #196, .T. ) ;
#226 = CARTESIAN_POINT ( 'NONE',  ( 1.179729942015078748E-33, 0.0000000000000000000, 9.633226027589770864E-18 ) ) ;
#227 = LENGTH_MEASURE_WITH_UNIT ( LENGTH_MEASURE( 0.02539999999999999897 ), #19 );
#228 = EDGE_CURVE ( 'NONE', #209, #127, #195, .T. ) ;
#229 = CIRCLE ( 'NONE', #146, 0.06374000000000018540 ) ;
#230 = EDGE_LOOP ( 'NONE', ( #18, #39, #113, #188 ) ) ;
#231 = AXIS2_PLACEMENT_3D ( 'NONE', #57, #150, #245 ) ;
#232 = ORIENTED_EDGE ( 'NONE', *, *, #272, .T. ) ;
#233 = ORIENTED_EDGE ( 'NONE', *, *, #73, .F. ) ;
#234 = FACE_OUTER_BOUND ( 'NONE', #191, .T. ) ;
#235 = ORIENTED_EDGE ( 'NONE', *, *, #149, .T. ) ;
#236 = SURFACE_SIDE_STYLE ('',( #213 ) ) ;
#237 = DIRECTION ( 'NONE',  ( 1.000000000000000000, 0.0000000000000000000, 0.0000000000000000000 ) ) ;
#238 = EDGE_CURVE ( 'NONE', #132, #66, #53, .T. ) ;
#239 = CIRCLE ( 'NONE', #1, 0.06374000000000018540 ) ;
#240 = CARTESIAN_POINT ( 'NONE',  ( 0.0000000000000000000, 0.0000000000000000000, 1.968503999999999809 ) ) ;
#241 = CARTESIAN_POINT ( 'NONE',  ( 1.179729942015078748E-33, 0.0000000000000000000, 9.633226027589770864E-18 ) ) ;
#242 = FACE_OUTER_BOUND ( 'NONE', #208, .T. ) ;
#243 = CIRCLE ( 'NONE', #90, 0.07874000000000001831 ) ;
#244 = DIRECTION ( 'NONE',  ( -1.224646799147353207E-16, -0.0000000000000000000, -1.000000000000000000 ) ) ;
#245 = DIRECTION ( 'NONE',  ( -1.000000000000000000, 0.0000000000000000000, 0.0000000000000000000 ) ) ;
#246 = DIRECTION ( 'NONE',  ( -1.224646799147353207E-16, -0.0000000000000000000, -1.000000000000000000 ) ) ;
#247 = EDGE_CURVE ( 'NONE', #128, #153, #291, .T. ) ;
#248 = CONICAL_SURFACE ( 'NONE', #259, 0.07866125999999999674, 0.1745329251994338360 ) ;
#249 = CIRCLE ( 'NONE', #3, 0.07874000000000001831 ) ;
#250 = ORIENTED_EDGE ( 'NONE', *, *, #282, .F. ) ;
#251 = DIRECTION ( 'NONE',  ( -1.000000000000000000, 0.0000000000000000000, 0.0000000000000000000 ) ) ;
#252 = ORIENTED_EDGE ( 'NONE', *, *, #44, .T. ) ;
#253 = EDGE_LOOP ( 'NONE', ( #133, #68, #45, #158 ) ) ;
#254 = CIRCLE ( 'NONE', #286, 0.07866125999999999674 ) ;
#255 = ORIENTED_EDGE ( 'NONE', *, *, #238, .T. ) ;
#256 = ORIENTED_EDGE ( 'NONE', *, *, #290, .T. ) ;
#257 = ADVANCED_FACE ( 'NONE', ( #222 ), #292, .T. ) ;
#258 = DIRECTION ( 'NONE',  ( -1.000000000000000000, 0.0000000000000000000, 0.0000000000000000000 ) ) ;
#259 = AXIS2_PLACEMENT_3D ( 'NONE', #177, #221, #33 ) ;
#260 = PRODUCT_DEFINITION_FORMATION_WITH_SPECIFIED_SOURCE ( 'ANY', '', #99, .NOT_KNOWN. ) ;
#261 = FACE_OUTER_BOUND ( 'NONE', #253, .T. ) ;
#262 = CARTESIAN_POINT ( 'NONE',  ( -0.07866125999999999674, 0.0000000000000000000, 9.633226027589770864E-18 ) ) ;
#263 = CARTESIAN_POINT ( 'NONE',  ( 0.0000000000000000000, 0.0000000000000000000, 1.968503999999999809 ) ) ;
#264 = VECTOR ( 'NONE', #270, 39.37007874015748143 ) ;
#265 = AXIS2_PLACEMENT_3D ( 'NONE', #241, #77, #35 ) ;
#266 = CARTESIAN_POINT ( 'NONE',  ( 0.0000000000000000000, 0.0000000000000000000, 1.968503999999999809 ) ) ;
#267 = CARTESIAN_POINT ( 'NONE',  ( -0.07866125999999994123, 9.638047462038016227E-18, 0.4724409999999999998 ) ) ;
#268 = PRESENTATION_LAYER_ASSIGNMENT (  '', '', ( #174 ) ) ;
#269 = AXIS2_PLACEMENT_3D ( 'NONE', #155, #274, #251 ) ;
#270 = DIRECTION ( 'NONE',  ( -0.0000000000000000000, -0.0000000000000000000, -1.000000000000000000 ) ) ;
#271 = APPLICATION_CONTEXT ( 'automotive_design' ) ;
#272 = EDGE_CURVE ( 'NONE', #190, #297, #243, .T. ) ;
#273 = CARTESIAN_POINT ( 'NONE',  ( 0.0000000000000000000, 0.0000000000000000000, 0.0000000000000000000 ) ) ;
#274 = DIRECTION ( 'NONE',  ( 0.0000000000000000000, 0.0000000000000000000, -1.000000000000000000 ) ) ;
#275 =( NAMED_UNIT ( * ) SI_UNIT ( $, .STERADIAN. ) SOLID_ANGLE_UNIT ( ) );
#276 =( NAMED_UNIT ( * ) SI_UNIT ( $, .STERADIAN. ) SOLID_ANGLE_UNIT ( ) );
#277 = CONICAL_SURFACE ( 'NONE', #29, 0.07866125999999999674, 0.1745329251994338360 ) ;
#278 = EDGE_LOOP ( 'NONE', ( #250, #26, #164, #10 ) ) ;
#279 = DIRECTION ( 'NONE',  ( 1.000000000000000000, 0.0000000000000000000, 0.0000000000000000000 ) ) ;
#280 = ORIENTED_EDGE ( 'NONE', *, *, #48, .T. ) ;
#281 = VECTOR ( 'NONE', #169, 39.37007874015747433 ) ;
#282 = EDGE_CURVE ( 'NONE', #111, #297, #106, .T. ) ;
#283 = PLANE ( 'NONE',  #104 ) ;
#284 = FACE_OUTER_BOUND ( 'NONE', #294, .T. ) ;
#285 = CARTESIAN_POINT ( 'NONE',  ( 0.06374000000000018540, 7.805898697765251255E-18, 1.968503999999999809 ) ) ;
#286 = AXIS2_PLACEMENT_3D ( 'NONE', #219, #287, #200 ) ;
#287 = DIRECTION ( 'NONE',  ( -1.224646799147353207E-16, -0.0000000000000000000, -1.000000000000000000 ) ) ;
#288 = EDGE_CURVE ( 'NONE', #127, #209, #249, .T. ) ;
#289 = CARTESIAN_POINT ( 'NONE',  ( 5.791202327065909257E-17, 0.0000000000000000000, 0.4728875567304768879 ) ) ;
#290 = EDGE_CURVE ( 'NONE', #66, #132, #8, .T. ) ;
#291 = CIRCLE ( 'NONE', #231, 0.07866125999999999674 ) ;
#292 = CYLINDRICAL_SURFACE ( 'NONE', #110, 0.07866125999999999674 ) ;
#293 = PRESENTATION_STYLE_ASSIGNMENT (( #183 ) ) ;
#294 = EDGE_LOOP ( 'NONE', ( #256, #255 ) ) ;
#295 = VECTOR ( 'NONE', #138, 39.37007874015748143 ) ;
#296 = ADVANCED_FACE ( 'NONE', ( #203 ), #206, .T. ) ;
#297 = VERTEX_POINT ( 'NONE', #21 ) ;
#298 = ORIENTED_EDGE ( 'NONE', *, *, #199, .T. ) ;
#299 = PRODUCT_CONTEXT ( 'NONE', #271, 'mechanical' ) ;
ENDSEC;
END-ISO-10303-21;
