ISO-10303-21;
HEADER;
FILE_DESCRIPTION (( 'STEP AP214' ),
    '1' );
FILE_NAME ('24212.STEP',
    '2023-06-22T17:03:58',
    ( '' ),
    ( '' ),
    'SwSTEP 2.0',
    'SolidWorks 2023',
    '' );
FILE_SCHEMA (( 'AUTOMOTIVE_DESIGN' ));
ENDSEC;

DATA;
#1 = SURFACE_STYLE_FILL_AREA ( #203 ) ;
#2 = LINE ( 'NONE', #93, #13 ) ;
#3 = DIRECTION ( 'NONE',  ( -7.347880794884118997E-17, 1.000000000000000000, -0.000000000000000000 ) ) ;
#4 = FACE_OUTER_BOUND ( 'NONE', #88, .T. ) ;
#5 = FILL_AREA_STYLE ('',( #181 ) ) ;
#6 = DIRECTION ( 'NONE',  ( -7.347880794884118997E-17, 1.000000000000000000, -0.000000000000000000 ) ) ;
#7 = AXIS2_PLACEMENT_3D ( 'NONE', #69, #235, #150 ) ;
#8 = APPLICATION_CONTEXT ( 'automotive_design' ) ;
#9 = COLOUR_RGB ( '',1.000000000000000000, 0.000000000000000000, 0.000000000000000000 ) ;
#10 = STYLED_ITEM ( 'NONE', ( #19 ), #233 ) ;
#11 = EDGE_LOOP ( 'NONE', ( #220, #200 ) ) ;
#12 = SURFACE_STYLE_USAGE ( .BOTH. , #269 ) ;
#13 = VECTOR ( 'NONE', #207, 39.37007874015748143 ) ;
#14 = EDGE_LOOP ( 'NONE', ( #247, #274 ) ) ;
#15 = PRODUCT_RELATED_PRODUCT_CATEGORY ( 'part', '', ( #196 ) ) ;
#16 = DIRECTION ( 'NONE',  ( -0.000000000000000000, -1.000000000000000000, -0.000000000000000000 ) ) ;
#17 = ORIENTED_EDGE ( 'NONE', *, *, #64, .T. ) ;
#18 = SURFACE_STYLE_USAGE ( .BOTH. , #24 ) ;
#19 = PRESENTATION_STYLE_ASSIGNMENT (( #111 ) ) ;
#20 =( NAMED_UNIT ( * ) SI_UNIT ( $, .STERADIAN. ) SOLID_ANGLE_UNIT ( ) );
#21 = DIRECTION ( 'NONE',  ( -0.000000000000000000, -1.000000000000000000, -0.000000000000000000 ) ) ;
#22 = DIRECTION ( 'NONE',  ( 0.000000000000000000, 0.000000000000000000, -1.000000000000000000 ) ) ;
#23 = CARTESIAN_POINT ( 'NONE',  ( 0.1874999999999999722, 2.500000000000000000, 2.296212748401289266E-17 ) ) ;
#24 = SURFACE_SIDE_STYLE ('',( #112 ) ) ;
#25 = EDGE_CURVE ( 'NONE', #109, #304, #180, .T. ) ;
#26 = CIRCLE ( 'NONE', #87, 0.1875000000000000278 ) ;
#27 = CIRCLE ( 'NONE', #292, 0.1875000000000001388 ) ;
#28 = CARTESIAN_POINT ( 'NONE',  ( 0.000000000000000000, 2.500000000000000000, 0.000000000000000000 ) ) ;
#29 =( GEOMETRIC_REPRESENTATION_CONTEXT ( 3 ) GLOBAL_UNCERTAINTY_ASSIGNED_CONTEXT ( ( #223 ) ) GLOBAL_UNIT_ASSIGNED_CONTEXT ( ( #62, #38, #155 ) ) REPRESENTATION_CONTEXT ( 'NONE', 'WORKASPACE' ) );
#30 = ORIENTED_EDGE ( 'NONE', *, *, #148, .T. ) ;
#31 = SURFACE_SIDE_STYLE ('',( #244 ) ) ;
#32 = MECHANICAL_DESIGN_GEOMETRIC_PRESENTATION_REPRESENTATION (  '', ( #190 ), #29 ) ;
#33 =( GEOMETRIC_REPRESENTATION_CONTEXT ( 3 ) GLOBAL_UNCERTAINTY_ASSIGNED_CONTEXT ( ( #268 ) ) GLOBAL_UNIT_ASSIGNED_CONTEXT ( ( #227, #91, #305 ) ) REPRESENTATION_CONTEXT ( 'NONE', 'WORKASPACE' ) );
#34 = AXIS2_PLACEMENT_3D ( 'NONE', #95, #187, #228 ) ;
#35 = FILL_AREA_STYLE ('',( #270 ) ) ;
#36 = ORIENTED_EDGE ( 'NONE', *, *, #148, .F. ) ;
#37 = DIRECTION ( 'NONE',  ( -1.000000000000000000, -7.347880794884118997E-17, 0.000000000000000000 ) ) ;
#38 =( NAMED_UNIT ( * ) PLANE_ANGLE_UNIT ( ) SI_UNIT ( $, .RADIAN. ) );
#39 = CIRCLE ( 'NONE', #7, 0.1874999999999999722 ) ;
#40 = DIRECTION ( 'NONE',  ( -0.000000000000000000, -1.000000000000000000, -0.000000000000000000 ) ) ;
#41 = VERTEX_POINT ( 'NONE', #296 ) ;
#42 = DIRECTION ( 'NONE',  ( -7.347880794884118997E-17, 1.000000000000000000, -0.000000000000000000 ) ) ;
#43 = VECTOR ( 'NONE', #21, 39.37007874015748143 ) ;
#44 = DIRECTION ( 'NONE',  ( -1.000000000000000000, 0.000000000000000000, 0.000000000000000000 ) ) ;
#45 =( CONVERSION_BASED_UNIT ( 'INCH', #248 ) LENGTH_UNIT ( ) NAMED_UNIT ( #219 ) );
#46 = DIRECTION ( 'NONE',  ( -1.000000000000000000, 0.000000000000000000, 0.000000000000000000 ) ) ;
#47 = PRODUCT_CONTEXT ( 'NONE', #173, 'mechanical' ) ;
#48 = DIRECTION ( 'NONE',  ( -0.000000000000000000, -1.000000000000000000, -0.000000000000000000 ) ) ;
#49 = DIRECTION ( 'NONE',  ( 7.347880794884118997E-17, -1.000000000000000000, 0.000000000000000000 ) ) ;
#50 = MANIFOLD_SOLID_BREP ( 'Revolve - Cutting Edge', #164 ) ;
#51 = STYLED_ITEM ( 'NONE', ( #285 ), #79 ) ;
#52 = MANIFOLD_SOLID_BREP ( 'Revolve - Tool Body (Straight Shanked)', #240 ) ;
#53 = AXIS2_PLACEMENT_3D ( 'NONE', #28, #121, #170 ) ;
#54 =( NAMED_UNIT ( * ) SI_UNIT ( $, .STERADIAN. ) SOLID_ANGLE_UNIT ( ) );
#55 =( LENGTH_UNIT ( ) NAMED_UNIT ( * ) SI_UNIT ( $, .METRE. ) );
#56 =( CONVERSION_BASED_UNIT ( 'INCH', #242 ) LENGTH_UNIT ( ) NAMED_UNIT ( #175 ) );
#57 = PRESENTATION_LAYER_ASSIGNMENT (  '', '', ( #143 ) ) ;
#58 = EDGE_LOOP ( 'NONE', ( #129, #144, #202, #231 ) ) ;
#59 = CIRCLE ( 'NONE', #151, 0.1874999999999999722 ) ;
#60 = PRESENTATION_LAYER_ASSIGNMENT (  '', '', ( #221 ) ) ;
#61 = ORIENTED_EDGE ( 'NONE', *, *, #206, .T. ) ;
#62 =( CONVERSION_BASED_UNIT ( 'INCH', #276 ) LENGTH_UNIT ( ) NAMED_UNIT ( #147 ) );
#63 =( NAMED_UNIT ( * ) PLANE_ANGLE_UNIT ( ) SI_UNIT ( $, .RADIAN. ) );
#64 = EDGE_CURVE ( 'NONE', #309, #109, #59, .T. ) ;
#65 = DIRECTION ( 'NONE',  ( 0.000000000000000000, 0.000000000000000000, -1.000000000000000000 ) ) ;
#66 = VERTEX_POINT ( 'NONE', #286 ) ;
#67 = CARTESIAN_POINT ( 'NONE',  ( -1.836970198721029688E-16, 5.000000000000000000, 0.000000000000000000 ) ) ;
#68 = FACE_OUTER_BOUND ( 'NONE', #178, .T. ) ;
#69 = CARTESIAN_POINT ( 'NONE',  ( 0.000000000000000000, 2.500000000000000000, 0.000000000000000000 ) ) ;
#70 = SURFACE_STYLE_USAGE ( .BOTH. , #96 ) ;
#71 =( CONVERSION_BASED_UNIT ( 'INCH', #179 ) LENGTH_UNIT ( ) NAMED_UNIT ( #222 ) );
#72 = VECTOR ( 'NONE', #40, 39.37007874015748143 ) ;
#73 = ORIENTED_EDGE ( 'NONE', *, *, #168, .T. ) ;
#74 = CYLINDRICAL_SURFACE ( 'NONE', #217, 0.1875000000000000555 ) ;
#75 = CARTESIAN_POINT ( 'NONE',  ( 0.000000000000000000, 0.000000000000000000, 0.000000000000000000 ) ) ;
#76 = PLANE ( 'NONE',  #106 ) ;
#77 = EDGE_CURVE ( 'NONE', #304, #66, #26, .T. ) ;
#78 =( NAMED_UNIT ( * ) PLANE_ANGLE_UNIT ( ) SI_UNIT ( $, .RADIAN. ) );
#79 = ADVANCED_FACE ( 'NONE', ( #117 ), #288, .T. ) ;
#80 = PRESENTATION_STYLE_ASSIGNMENT (( #291 ) ) ;
#81 = AXIS2_PLACEMENT_3D ( 'NONE', #226, #3, #284 ) ;
#82 = ORIENTED_EDGE ( 'NONE', *, *, #191, .F. ) ;
#83 = COLOUR_RGB ( '',1.000000000000000000, 0.000000000000000000, 0.000000000000000000 ) ;
#84 = FILL_AREA_STYLE_COLOUR ( '', #278 ) ;
#85 = DIRECTION ( 'NONE',  ( -7.347880794884118997E-17, 1.000000000000000000, 0.000000000000000000 ) ) ;
#86 =( LENGTH_UNIT ( ) NAMED_UNIT ( * ) SI_UNIT ( $, .METRE. ) );
#87 = AXIS2_PLACEMENT_3D ( 'NONE', #75, #186, #185 ) ;
#88 = EDGE_LOOP ( 'NONE', ( #271, #61 ) ) ;
#89 = CARTESIAN_POINT ( 'NONE',  ( 2.296212748401286801E-17, 2.500000000000000000, 0.1874999999999999722 ) ) ;
#90 = DIRECTION ( 'NONE',  ( -7.347880794884118997E-17, 1.000000000000000000, -0.000000000000000000 ) ) ;
#91 =( NAMED_UNIT ( * ) PLANE_ANGLE_UNIT ( ) SI_UNIT ( $, .RADIAN. ) );
#92 = AXIS2_PLACEMENT_3D ( 'NONE', #297, #85, #37 ) ;
#93 = CARTESIAN_POINT ( 'NONE',  ( -0.1875000000000002220, 5.000000000000000000, 0.000000000000000000 ) ) ;
#94 =( LENGTH_UNIT ( ) NAMED_UNIT ( * ) SI_UNIT ( $, .METRE. ) );
#95 = CARTESIAN_POINT ( 'NONE',  ( 0.000000000000000000, 2.500000000000000000, 0.000000000000000000 ) ) ;
#96 = SURFACE_SIDE_STYLE ('',( #1 ) ) ;
#97 = DIRECTION ( 'NONE',  ( -7.347880794884118997E-17, 1.000000000000000000, -0.000000000000000000 ) ) ;
#98 =( NAMED_UNIT ( * ) SI_UNIT ( $, .STERADIAN. ) SOLID_ANGLE_UNIT ( ) );
#99 = FACE_OUTER_BOUND ( 'NONE', #14, .T. ) ;
#100 = COLOUR_RGB ( '',1.000000000000000000, 0.000000000000000000, 0.000000000000000000 ) ;
#101 = SURFACE_STYLE_FILL_AREA ( #5 ) ;
#102 =( CONVERSION_BASED_UNIT ( 'INCH', #137 ) LENGTH_UNIT ( ) NAMED_UNIT ( #177 ) );
#103 = CARTESIAN_POINT ( 'NONE',  ( 0.1874999999999999722, 5.000000000000000000, 2.296212748401289266E-17 ) ) ;
#104 = FILL_AREA_STYLE_COLOUR ( '', #83 ) ;
#105 = MECHANICAL_DESIGN_GEOMETRIC_PRESENTATION_REPRESENTATION (  '', ( #51 ), #272 ) ;
#106 = AXIS2_PLACEMENT_3D ( 'NONE', #184, #132, #161 ) ;
#107 = ORIENTED_EDGE ( 'NONE', *, *, #172, .F. ) ;
#108 = CIRCLE ( 'NONE', #34, 0.1874999999999999722 ) ;
#109 = VERTEX_POINT ( 'NONE', #283 ) ;
#110 = SURFACE_STYLE_FILL_AREA ( #171 ) ;
#111 = SURFACE_STYLE_USAGE ( .BOTH. , #277 ) ;
#112 = SURFACE_STYLE_FILL_AREA ( #236 ) ;
#113 = AXIS2_PLACEMENT_3D ( 'NONE', #118, #6, #142 ) ;
#114 = DIRECTION ( 'NONE',  ( -1.000000000000000000, 0.000000000000000000, 0.000000000000000000 ) ) ;
#115 = FILL_AREA_STYLE_COLOUR ( '', #9 ) ;
#116 = CARTESIAN_POINT ( 'NONE',  ( 2.296212748401286801E-17, 0.000000000000000000, 0.1874999999999999722 ) ) ;
#117 = FACE_OUTER_BOUND ( 'NONE', #146, .T. ) ;
#118 = CARTESIAN_POINT ( 'NONE',  ( -1.836970198721029688E-16, 5.000000000000000000, 0.000000000000000000 ) ) ;
#119 = DIRECTION ( 'NONE',  ( 0.000000000000000000, 0.000000000000000000, -1.000000000000000000 ) ) ;
#120 = CYLINDRICAL_SURFACE ( 'NONE', #113, 0.1875000000000000555 ) ;
#121 = DIRECTION ( 'NONE',  ( 0.000000000000000000, 1.000000000000000000, 0.000000000000000000 ) ) ;
#122 = MECHANICAL_DESIGN_GEOMETRIC_PRESENTATION_REPRESENTATION (  '', ( #258 ), #33 ) ;
#123 = ADVANCED_FACE ( 'NONE', ( #68 ), #154, .T. ) ;
#124 = UNCERTAINTY_MEASURE_WITH_UNIT (LENGTH_MEASURE( 1.000000000000000082E-05 ), #45, 'distance_accuracy_value', 'NONE');
#125 = ADVANCED_FACE ( 'NONE', ( #211 ), #141, .F. ) ;
#126 = ORIENTED_EDGE ( 'NONE', *, *, #303, .T. ) ;
#127 = SURFACE_STYLE_USAGE ( .BOTH. , #31 ) ;
#128 = AXIS2_PLACEMENT_3D ( 'NONE', #210, #49, #165 ) ;
#129 = ORIENTED_EDGE ( 'NONE', *, *, #182, .F. ) ;
#130 = AXIS2_PLACEMENT_3D ( 'NONE', #262, #234, #22 ) ;
#131 = CARTESIAN_POINT ( 'NONE',  ( 0.1874999999999998890, 5.000000000000000000, 2.296212748401288034E-17 ) ) ;
#132 = DIRECTION ( 'NONE',  ( 0.000000000000000000, -1.000000000000000000, -0.000000000000000000 ) ) ;
#133 = APPLICATION_PROTOCOL_DEFINITION ( 'draft international standard', 'automotive_design', 1998, #8 ) ;
#134 = ADVANCED_FACE ( 'NONE', ( #232 ), #74, .T. ) ;
#135 = ORIENTED_EDGE ( 'NONE', *, *, #168, .F. ) ;
#136 = EDGE_LOOP ( 'NONE', ( #126, #195, #82, #107 ) ) ;
#137 = LENGTH_MEASURE_WITH_UNIT ( LENGTH_MEASURE( 0.02539999999999999897 ), #208 );
#138 = CARTESIAN_POINT ( 'NONE',  ( 0.000000000000000000, 0.000000000000000000, -0.1875000000000000278 ) ) ;
#139 = CYLINDRICAL_SURFACE ( 'NONE', #130, 0.1874999999999999722 ) ;
#140 = SURFACE_SIDE_STYLE ('',( #162 ) ) ;
#141 = PLANE ( 'NONE',  #92 ) ;
#142 = DIRECTION ( 'NONE',  ( -1.000000000000000000, 0.000000000000000000, 0.000000000000000000 ) ) ;
#143 = STYLED_ITEM ( 'NONE', ( #275 ), #52 ) ;
#144 = ORIENTED_EDGE ( 'NONE', *, *, #145, .T. ) ;
#145 = EDGE_CURVE ( 'NONE', #156, #41, #39, .T. ) ;
#146 = EDGE_LOOP ( 'NONE', ( #30, #73, #149, #243 ) ) ;
#147 = DIMENSIONAL_EXPONENTS ( 1.000000000000000000, 0.000000000000000000, 0.000000000000000000, 0.000000000000000000, 0.000000000000000000, 0.000000000000000000, 0.000000000000000000 ) ;
#148 = EDGE_CURVE ( 'NONE', #109, #309, #108, .T. ) ;
#149 = ORIENTED_EDGE ( 'NONE', *, *, #77, .F. ) ;
#150 = DIRECTION ( 'NONE',  ( -1.000000000000000000, 0.000000000000000000, 0.000000000000000000 ) ) ;
#151 = AXIS2_PLACEMENT_3D ( 'NONE', #215, #48, #225 ) ;
#152 = DIRECTION ( 'NONE',  ( 1.000000000000000000, 0.000000000000000000, 0.000000000000000000 ) ) ;
#153 = PRODUCT_DEFINITION_FORMATION_WITH_SPECIFIED_SOURCE ( 'ANY', '', #196, .NOT_KNOWN. ) ;
#154 = PLANE ( 'NONE',  #53 ) ;
#155 =( NAMED_UNIT ( * ) SI_UNIT ( $, .STERADIAN. ) SOLID_ANGLE_UNIT ( ) );
#156 = VERTEX_POINT ( 'NONE', #23 ) ;
#157 = LINE ( 'NONE', #116, #43 ) ;
#158 = PRESENTATION_STYLE_ASSIGNMENT (( #70 ) ) ;
#159 = COLOUR_RGB ( '',0.7921568627450980005, 0.8196078431372548767, 0.9333333333333333481 ) ;
#160 = MECHANICAL_DESIGN_GEOMETRIC_PRESENTATION_REPRESENTATION (  '', ( #221 ), #174 ) ;
#161 = DIRECTION ( 'NONE',  ( 0.000000000000000000, 0.000000000000000000, -1.000000000000000000 ) ) ;
#162 = SURFACE_STYLE_FILL_AREA ( #289 ) ;
#163 =( NAMED_UNIT ( * ) SI_UNIT ( $, .STERADIAN. ) SOLID_ANGLE_UNIT ( ) );
#164 = CLOSED_SHELL ( 'NONE', ( #79, #123, #233, #293 ) ) ;
#165 = DIRECTION ( 'NONE',  ( 1.000000000000000000, 7.347880794884118997E-17, 0.000000000000000000 ) ) ;
#166 = CIRCLE ( 'NONE', #81, 0.1874999999999999722 ) ;
#167 = AXIS2_PLACEMENT_3D ( 'NONE', #255, #97, #44 ) ;
#168 = EDGE_CURVE ( 'NONE', #309, #66, #157, .T. ) ;
#169 = ORIENTED_EDGE ( 'NONE', *, *, #64, .F. ) ;
#170 = DIRECTION ( 'NONE',  ( 0.000000000000000000, -0.000000000000000000, 1.000000000000000000 ) ) ;
#171 = FILL_AREA_STYLE ('',( #84 ) ) ;
#172 = EDGE_CURVE ( 'NONE', #41, #245, #2, .T. ) ;
#173 = APPLICATION_CONTEXT ( 'automotive_design' ) ;
#174 =( GEOMETRIC_REPRESENTATION_CONTEXT ( 3 ) GLOBAL_UNCERTAINTY_ASSIGNED_CONTEXT ( ( #299 ) ) GLOBAL_UNIT_ASSIGNED_CONTEXT ( ( #56, #263, #214 ) ) REPRESENTATION_CONTEXT ( 'NONE', 'WORKASPACE' ) );
#175 = DIMENSIONAL_EXPONENTS ( 1.000000000000000000, 0.000000000000000000, 0.000000000000000000, 0.000000000000000000, 0.000000000000000000, 0.000000000000000000, 0.000000000000000000 ) ;
#176 = PRODUCT_DEFINITION_CONTEXT ( 'detailed design', #8, 'design' ) ;
#177 = DIMENSIONAL_EXPONENTS ( 1.000000000000000000, 0.000000000000000000, 0.000000000000000000, 0.000000000000000000, 0.000000000000000000, 0.000000000000000000, 0.000000000000000000 ) ;
#178 = EDGE_LOOP ( 'NONE', ( #36, #169 ) ) ;
#179 = LENGTH_MEASURE_WITH_UNIT ( LENGTH_MEASURE( 0.02539999999999999897 ), #94 );
#180 = LINE ( 'NONE', #279, #72 ) ;
#181 = FILL_AREA_STYLE_COLOUR ( '', #194 ) ;
#182 = EDGE_CURVE ( 'NONE', #156, #249, #259, .T. ) ;
#183 = DIRECTION ( 'NONE',  ( -0.000000000000000000, -1.000000000000000000, -0.000000000000000000 ) ) ;
#184 = CARTESIAN_POINT ( 'NONE',  ( 0.000000000000000000, 0.000000000000000000, 0.000000000000000000 ) ) ;
#185 = DIRECTION ( 'NONE',  ( 0.000000000000000000, 0.000000000000000000, -1.000000000000000000 ) ) ;
#186 = DIRECTION ( 'NONE',  ( -0.000000000000000000, -1.000000000000000000, -0.000000000000000000 ) ) ;
#187 = DIRECTION ( 'NONE',  ( -0.000000000000000000, -1.000000000000000000, -0.000000000000000000 ) ) ;
#188 =( NAMED_UNIT ( * ) PLANE_ANGLE_UNIT ( ) SI_UNIT ( $, .RADIAN. ) );
#189 =( LENGTH_UNIT ( ) NAMED_UNIT ( * ) SI_UNIT ( $, .METRE. ) );
#190 = STYLED_ITEM ( 'NONE', ( #302 ), #50 ) ;
#191 = EDGE_CURVE ( 'NONE', #245, #249, #266, .T. ) ;
#192 = PLANE ( 'NONE',  #128 ) ;
#193 =( GEOMETRIC_REPRESENTATION_CONTEXT ( 3 ) GLOBAL_UNCERTAINTY_ASSIGNED_CONTEXT ( ( #197 ) ) GLOBAL_UNIT_ASSIGNED_CONTEXT ( ( #71, #63, #20 ) ) REPRESENTATION_CONTEXT ( 'NONE', 'WORKASPACE' ) );
#194 = COLOUR_RGB ( '',1.000000000000000000, 0.000000000000000000, 0.000000000000000000 ) ;
#195 = ORIENTED_EDGE ( 'NONE', *, *, #182, .T. ) ;
#196 = PRODUCT ( '24212', '24212', '', ( #47 ) ) ;
#197 = UNCERTAINTY_MEASURE_WITH_UNIT (LENGTH_MEASURE( 1.000000000000000082E-05 ), #71, 'distance_accuracy_value', 'NONE');
#198 = DIMENSIONAL_EXPONENTS ( 1.000000000000000000, 0.000000000000000000, 0.000000000000000000, 0.000000000000000000, 0.000000000000000000, 0.000000000000000000, 0.000000000000000000 ) ;
#199 =( LENGTH_UNIT ( ) NAMED_UNIT ( * ) SI_UNIT ( $, .METRE. ) );
#200 = ORIENTED_EDGE ( 'NONE', *, *, #145, .F. ) ;
#201 = PRESENTATION_LAYER_ASSIGNMENT (  '', '', ( #10 ) ) ;
#202 = ORIENTED_EDGE ( 'NONE', *, *, #172, .T. ) ;
#203 = FILL_AREA_STYLE ('',( #229 ) ) ;
#204 = ORIENTED_EDGE ( 'NONE', *, *, #218, .F. ) ;
#205 = CARTESIAN_POINT ( 'NONE',  ( 0.000000000000000000, 0.000000000000000000, 0.000000000000000000 ) ) ;
#206 = EDGE_CURVE ( 'NONE', #249, #245, #27, .T. ) ;
#207 = DIRECTION ( 'NONE',  ( -7.347880794884118997E-17, 1.000000000000000000, -0.000000000000000000 ) ) ;
#208 =( LENGTH_UNIT ( ) NAMED_UNIT ( * ) SI_UNIT ( $, .METRE. ) );
#209 = MECHANICAL_DESIGN_GEOMETRIC_PRESENTATION_REPRESENTATION (  '', ( #10 ), #273 ) ;
#210 = CARTESIAN_POINT ( 'NONE',  ( 0.1874999999999999722, 5.000000000000000000, 0.000000000000000000 ) ) ;
#211 = FACE_OUTER_BOUND ( 'NONE', #11, .T. ) ;
#212 = AXIS2_PLACEMENT_3D ( 'NONE', #224, #16, #119 ) ;
#213 = PRODUCT_DEFINITION_SHAPE ( 'NONE', 'NONE',  #264 ) ;
#214 =( NAMED_UNIT ( * ) SI_UNIT ( $, .STERADIAN. ) SOLID_ANGLE_UNIT ( ) );
#215 = CARTESIAN_POINT ( 'NONE',  ( 0.000000000000000000, 2.500000000000000000, 0.000000000000000000 ) ) ;
#216 = PRESENTATION_LAYER_ASSIGNMENT (  '', '', ( #51 ) ) ;
#217 = AXIS2_PLACEMENT_3D ( 'NONE', #280, #90, #114 ) ;
#218 = EDGE_CURVE ( 'NONE', #66, #304, #281, .T. ) ;
#219 = DIMENSIONAL_EXPONENTS ( 1.000000000000000000, 0.000000000000000000, 0.000000000000000000, 0.000000000000000000, 0.000000000000000000, 0.000000000000000000, 0.000000000000000000 ) ;
#220 = ORIENTED_EDGE ( 'NONE', *, *, #303, .F. ) ;
#221 = STYLED_ITEM ( 'NONE', ( #158 ), #123 ) ;
#222 = DIMENSIONAL_EXPONENTS ( 1.000000000000000000, 0.000000000000000000, 0.000000000000000000, 0.000000000000000000, 0.000000000000000000, 0.000000000000000000, 0.000000000000000000 ) ;
#223 = UNCERTAINTY_MEASURE_WITH_UNIT (LENGTH_MEASURE( 1.000000000000000082E-05 ), #62, 'distance_accuracy_value', 'NONE');
#224 = CARTESIAN_POINT ( 'NONE',  ( 0.000000000000000000, 0.000000000000000000, 0.000000000000000000 ) ) ;
#225 = DIRECTION ( 'NONE',  ( 0.000000000000000000, 0.000000000000000000, -1.000000000000000000 ) ) ;
#226 = CARTESIAN_POINT ( 'NONE',  ( 0.000000000000000000, 2.500000000000000000, 0.000000000000000000 ) ) ;
#227 =( CONVERSION_BASED_UNIT ( 'INCH', #237 ) LENGTH_UNIT ( ) NAMED_UNIT ( #301 ) );
#228 = DIRECTION ( 'NONE',  ( 0.000000000000000000, 0.000000000000000000, -1.000000000000000000 ) ) ;
#229 = FILL_AREA_STYLE_COLOUR ( '', #100 ) ;
#230 = DIRECTION ( 'NONE',  ( 0.000000000000000000, 0.000000000000000000, 1.000000000000000000 ) ) ;
#231 = ORIENTED_EDGE ( 'NONE', *, *, #206, .F. ) ;
#232 = FACE_OUTER_BOUND ( 'NONE', #58, .T. ) ;
#233 = ADVANCED_FACE ( 'NONE', ( #307 ), #139, .T. ) ;
#234 = DIRECTION ( 'NONE',  ( -0.000000000000000000, -1.000000000000000000, -0.000000000000000000 ) ) ;
#235 = DIRECTION ( 'NONE',  ( -7.347880794884118997E-17, 1.000000000000000000, -0.000000000000000000 ) ) ;
#236 = FILL_AREA_STYLE ('',( #115 ) ) ;
#237 = LENGTH_MEASURE_WITH_UNIT ( LENGTH_MEASURE( 0.02539999999999999897 ), #189 );
#238 = AXIS2_PLACEMENT_3D ( 'NONE', #205, #183, #65 ) ;
#239 =( NAMED_UNIT ( * ) PLANE_ANGLE_UNIT ( ) SI_UNIT ( $, .RADIAN. ) );
#240 = CLOSED_SHELL ( 'NONE', ( #241, #125, #134, #290 ) ) ;
#241 = ADVANCED_FACE ( 'NONE', ( #287 ), #120, .T. ) ;
#242 = LENGTH_MEASURE_WITH_UNIT ( LENGTH_MEASURE( 0.02539999999999999897 ), #55 );
#243 = ORIENTED_EDGE ( 'NONE', *, *, #25, .F. ) ;
#244 = SURFACE_STYLE_FILL_AREA ( #35 ) ;
#245 = VERTEX_POINT ( 'NONE', #261 ) ;
#246 = LENGTH_MEASURE_WITH_UNIT ( LENGTH_MEASURE( 0.02539999999999999897 ), #86 );
#247 = ORIENTED_EDGE ( 'NONE', *, *, #77, .T. ) ;
#248 = LENGTH_MEASURE_WITH_UNIT ( LENGTH_MEASURE( 0.02539999999999999897 ), #265 );
#249 = VERTEX_POINT ( 'NONE', #103 ) ;
#250 = MECHANICAL_DESIGN_GEOMETRIC_PRESENTATION_REPRESENTATION (  '', ( #143 ), #294 ) ;
#251 = PRESENTATION_LAYER_ASSIGNMENT (  '', '', ( #258 ) ) ;
#252 = SHAPE_DEFINITION_REPRESENTATION ( #213, #267 ) ;
#253 = ORIENTED_EDGE ( 'NONE', *, *, #25, .T. ) ;
#254 = EDGE_LOOP ( 'NONE', ( #135, #17, #253, #204 ) ) ;
#255 = CARTESIAN_POINT ( 'NONE',  ( -1.836970198721029688E-16, 5.000000000000000000, 0.000000000000000000 ) ) ;
#256 =( CONVERSION_BASED_UNIT ( 'INCH', #246 ) LENGTH_UNIT ( ) NAMED_UNIT ( #198 ) );
#257 = CARTESIAN_POINT ( 'NONE',  ( 0.000000000000000000, 0.000000000000000000, 0.000000000000000000 ) ) ;
#258 = STYLED_ITEM ( 'NONE', ( #80 ), #293 ) ;
#259 = LINE ( 'NONE', #131, #300 ) ;
#260 = APPLICATION_PROTOCOL_DEFINITION ( 'draft international standard', 'automotive_design', 1998, #173 ) ;
#261 = CARTESIAN_POINT ( 'NONE',  ( -0.1875000000000003331, 5.000000000000000000, 0.000000000000000000 ) ) ;
#262 = CARTESIAN_POINT ( 'NONE',  ( 0.000000000000000000, 0.000000000000000000, 0.000000000000000000 ) ) ;
#263 =( NAMED_UNIT ( * ) PLANE_ANGLE_UNIT ( ) SI_UNIT ( $, .RADIAN. ) );
#264 = PRODUCT_DEFINITION ( 'UNKNOWN', '', #153, #176 ) ;
#265 =( LENGTH_UNIT ( ) NAMED_UNIT ( * ) SI_UNIT ( $, .METRE. ) );
#266 = CIRCLE ( 'NONE', #167, 0.1875000000000001388 ) ;
#267 = ADVANCED_BREP_SHAPE_REPRESENTATION ( '24212', ( #50, #52, #295 ), #193 ) ;
#268 = UNCERTAINTY_MEASURE_WITH_UNIT (LENGTH_MEASURE( 1.000000000000000082E-05 ), #227, 'distance_accuracy_value', 'NONE');
#269 = SURFACE_SIDE_STYLE ('',( #110 ) ) ;
#270 = FILL_AREA_STYLE_COLOUR ( '', #159 ) ;
#271 = ORIENTED_EDGE ( 'NONE', *, *, #191, .T. ) ;
#272 =( GEOMETRIC_REPRESENTATION_CONTEXT ( 3 ) GLOBAL_UNCERTAINTY_ASSIGNED_CONTEXT ( ( #298 ) ) GLOBAL_UNIT_ASSIGNED_CONTEXT ( ( #102, #78, #163 ) ) REPRESENTATION_CONTEXT ( 'NONE', 'WORKASPACE' ) );
#273 =( GEOMETRIC_REPRESENTATION_CONTEXT ( 3 ) GLOBAL_UNCERTAINTY_ASSIGNED_CONTEXT ( ( #124 ) ) GLOBAL_UNIT_ASSIGNED_CONTEXT ( ( #45, #239, #54 ) ) REPRESENTATION_CONTEXT ( 'NONE', 'WORKASPACE' ) );
#274 = ORIENTED_EDGE ( 'NONE', *, *, #218, .T. ) ;
#275 = PRESENTATION_STYLE_ASSIGNMENT (( #127 ) ) ;
#276 = LENGTH_MEASURE_WITH_UNIT ( LENGTH_MEASURE( 0.02539999999999999897 ), #199 );
#277 = SURFACE_SIDE_STYLE ('',( #101 ) ) ;
#278 = COLOUR_RGB ( '',0.7921568627450980005, 0.8196078431372548767, 0.9333333333333333481 ) ;
#279 = CARTESIAN_POINT ( 'NONE',  ( 0.000000000000000000, 0.000000000000000000, -0.1874999999999999722 ) ) ;
#280 = CARTESIAN_POINT ( 'NONE',  ( -1.836970198721029688E-16, 5.000000000000000000, 0.000000000000000000 ) ) ;
#281 = CIRCLE ( 'NONE', #212, 0.1875000000000000278 ) ;
#282 = DIRECTION ( 'NONE',  ( -7.347880794884118997E-17, 1.000000000000000000, -0.000000000000000000 ) ) ;
#283 = CARTESIAN_POINT ( 'NONE',  ( 0.000000000000000000, 2.500000000000000000, -0.1874999999999999722 ) ) ;
#284 = DIRECTION ( 'NONE',  ( -1.000000000000000000, 0.000000000000000000, 0.000000000000000000 ) ) ;
#285 = PRESENTATION_STYLE_ASSIGNMENT (( #18 ) ) ;
#286 = CARTESIAN_POINT ( 'NONE',  ( 2.296212748401287109E-17, 0.000000000000000000, 0.1875000000000000278 ) ) ;
#287 = FACE_OUTER_BOUND ( 'NONE', #136, .T. ) ;
#288 = CYLINDRICAL_SURFACE ( 'NONE', #238, 0.1874999999999999722 ) ;
#289 = FILL_AREA_STYLE ('',( #104 ) ) ;
#290 = ADVANCED_FACE ( 'NONE', ( #4 ), #192, .F. ) ;
#291 = SURFACE_STYLE_USAGE ( .BOTH. , #140 ) ;
#292 = AXIS2_PLACEMENT_3D ( 'NONE', #67, #282, #46 ) ;
#293 = ADVANCED_FACE ( 'NONE', ( #99 ), #76, .T. ) ;
#294 =( GEOMETRIC_REPRESENTATION_CONTEXT ( 3 ) GLOBAL_UNCERTAINTY_ASSIGNED_CONTEXT ( ( #306 ) ) GLOBAL_UNIT_ASSIGNED_CONTEXT ( ( #256, #188, #98 ) ) REPRESENTATION_CONTEXT ( 'NONE', 'WORKASPACE' ) );
#295 = AXIS2_PLACEMENT_3D ( 'NONE', #257, #230, #152 ) ;
#296 = CARTESIAN_POINT ( 'NONE',  ( -0.1874999999999999722, 2.500000000000000000, 0.000000000000000000 ) ) ;
#297 = CARTESIAN_POINT ( 'NONE',  ( 5.061689266483767887E-34, 2.500000000000000000, 0.000000000000000000 ) ) ;
#298 = UNCERTAINTY_MEASURE_WITH_UNIT (LENGTH_MEASURE( 1.000000000000000082E-05 ), #102, 'distance_accuracy_value', 'NONE');
#299 = UNCERTAINTY_MEASURE_WITH_UNIT (LENGTH_MEASURE( 1.000000000000000082E-05 ), #56, 'distance_accuracy_value', 'NONE');
#300 = VECTOR ( 'NONE', #42, 39.37007874015748143 ) ;
#301 = DIMENSIONAL_EXPONENTS ( 1.000000000000000000, 0.000000000000000000, 0.000000000000000000, 0.000000000000000000, 0.000000000000000000, 0.000000000000000000, 0.000000000000000000 ) ;
#302 = PRESENTATION_STYLE_ASSIGNMENT (( #12 ) ) ;
#303 = EDGE_CURVE ( 'NONE', #41, #156, #166, .T. ) ;
#304 = VERTEX_POINT ( 'NONE', #138 ) ;
#305 =( NAMED_UNIT ( * ) SI_UNIT ( $, .STERADIAN. ) SOLID_ANGLE_UNIT ( ) );
#306 = UNCERTAINTY_MEASURE_WITH_UNIT (LENGTH_MEASURE( 1.000000000000000082E-05 ), #256, 'distance_accuracy_value', 'NONE');
#307 = FACE_OUTER_BOUND ( 'NONE', #254, .T. ) ;
#308 = PRESENTATION_LAYER_ASSIGNMENT (  '', '', ( #190 ) ) ;
#309 = VERTEX_POINT ( 'NONE', #89 ) ;
ENDSEC;
END-ISO-10303-21;
