ISO-10303-21;
HEADER;
FILE_DESCRIPTION (( 'STEP AP214' ),
    '1' );
FILE_NAME ('Micro_AMRM-020-2X.STEP',
    '2021-09-01T17:17:56',
    ( '' ),
    ( '' ),
    'SwSTEP 2.0',
    'SolidWorks 2020',
    '' );
FILE_SCHEMA (( 'AUTOMOTIVE_DESIGN' ));
ENDSEC;

DATA;
#1 = CIRCLE ( 'NONE', #62, 0.03933062999999999837 ) ;
#2 = ORIENTED_EDGE ( 'NONE', *, *, #225, .F. ) ;
#3 = CYLINDRICAL_SURFACE ( 'NONE', #185, 0.07874000000000001831 ) ;
#4 = ORIENTED_EDGE ( 'NONE', *, *, #129, .F. ) ;
#5 = CONICAL_SURFACE ( 'NONE', #27, 0.06374000000000018540, 0.7853981633974528309 ) ;
#6 = CARTESIAN_POINT ( 'NONE',  ( 0.0000000000000000000, 0.0000000000000000000, 1.968503999999999809 ) ) ;
#7 = PRESENTATION_LAYER_ASSIGNMENT (  '', '', ( #223 ) ) ;
#8 = CARTESIAN_POINT ( 'NONE',  ( 0.0000000000000000000, 0.0000000000000000000, 1.968503999999999809 ) ) ;
#9 = FILL_AREA_STYLE_COLOUR ( '', #173 ) ;
#10 = SURFACE_STYLE_FILL_AREA ( #34 ) ;
#11 = CARTESIAN_POINT ( 'NONE',  ( 0.03933063000000001919, 0.0000000000000000000, 0.2362200000000000133 ) ) ;
#12 = CONICAL_SURFACE ( 'NONE', #55, 0.03933062999999999837, 0.1745329251994338915 ) ;
#13 = DIRECTION ( 'NONE',  ( 0.0000000000000000000, 0.0000000000000000000, 1.000000000000000000 ) ) ;
#14 = SURFACE_STYLE_USAGE ( .BOTH. , #264 ) ;
#15 = CARTESIAN_POINT ( 'NONE',  ( 5.898649710075393742E-34, 0.0000000000000000000, 4.816613013794885432E-18 ) ) ;
#16 = CARTESIAN_POINT ( 'NONE',  ( 5.629966393378925413E-17, 0.0000000000000000000, 0.4597216436035865272 ) ) ;
#17 = ADVANCED_FACE ( 'NONE', ( #147 ), #3, .T. ) ;
#18 = LINE ( 'NONE', #44, #137 ) ;
#19 = DIRECTION ( 'NONE',  ( -1.224646799147353207E-16, -0.0000000000000000000, -1.000000000000000000 ) ) ;
#20 = DIRECTION ( 'NONE',  ( -1.224646799147353207E-16, -0.0000000000000000000, -1.000000000000000000 ) ) ;
#21 = CIRCLE ( 'NONE', #205, 0.03933062999999999837 ) ;
#22 =( NAMED_UNIT ( * ) PLANE_ANGLE_UNIT ( ) SI_UNIT ( $, .RADIAN. ) );
#23 = ORIENTED_EDGE ( 'NONE', *, *, #43, .F. ) ;
#24 = VERTEX_POINT ( 'NONE', #29 ) ;
#25 =( GEOMETRIC_REPRESENTATION_CONTEXT ( 3 ) GLOBAL_UNCERTAINTY_ASSIGNED_CONTEXT ( ( #56 ) ) GLOBAL_UNIT_ASSIGNED_CONTEXT ( ( #36, #130, #287 ) ) REPRESENTATION_CONTEXT ( 'NONE', 'WORKASPACE' ) );
#26 = ORIENTED_EDGE ( 'NONE', *, *, #154, .F. ) ;
#27 = AXIS2_PLACEMENT_3D ( 'NONE', #38, #109, #40 ) ;
#28 = EDGE_LOOP ( 'NONE', ( #211, #188 ) ) ;
#29 = CARTESIAN_POINT ( 'NONE',  ( 0.03933062999999999837, 4.816613013794885432E-18, 0.0000000000000000000 ) ) ;
#30 = EDGE_CURVE ( 'NONE', #236, #86, #50, .T. ) ;
#31 = PRESENTATION_STYLE_ASSIGNMENT (( #14 ) ) ;
#32 =( CONVERSION_BASED_UNIT ( 'INCH', #219 ) LENGTH_UNIT ( ) NAMED_UNIT ( #191 ) );
#33 = PLANE ( 'NONE',  #210 ) ;
#34 = FILL_AREA_STYLE ('',( #286 ) ) ;
#35 = SURFACE_STYLE_FILL_AREA ( #197 ) ;
#36 =( CONVERSION_BASED_UNIT ( 'INCH', #240 ) LENGTH_UNIT ( ) NAMED_UNIT ( #298 ) );
#37 = AXIS2_PLACEMENT_3D ( 'NONE', #248, #230, #246 ) ;
#38 = CARTESIAN_POINT ( 'NONE',  ( 0.0000000000000000000, 0.0000000000000000000, 1.968503999999999809 ) ) ;
#39 = PRODUCT_DEFINITION_SHAPE ( 'NONE', 'NONE',  #98 ) ;
#40 = DIRECTION ( 'NONE',  ( -1.000000000000000000, 0.0000000000000000000, 0.0000000000000000000 ) ) ;
#41 = CARTESIAN_POINT ( 'NONE',  ( 5.629966393378925413E-17, 0.0000000000000000000, 0.4597216436035865272 ) ) ;
#42 = DIRECTION ( 'NONE',  ( 0.7071067811865507924, 8.659560562354973534E-17, -0.7071067811865443531 ) ) ;
#43 = EDGE_CURVE ( 'NONE', #190, #24, #1, .T. ) ;
#44 = CARTESIAN_POINT ( 'NONE',  ( -0.03933062999999997061, 4.816613013794885432E-18, 0.2362200000000000133 ) ) ;
#45 = ORIENTED_EDGE ( 'NONE', *, *, #277, .F. ) ;
#46 = CARTESIAN_POINT ( 'NONE',  ( 0.0000000000000000000, 0.0000000000000000000, 1.968503999999999809 ) ) ;
#47 = ORIENTED_EDGE ( 'NONE', *, *, #154, .T. ) ;
#48 = AXIS2_PLACEMENT_3D ( 'NONE', #148, #13, #133 ) ;
#49 = EDGE_LOOP ( 'NONE', ( #72, #95, #116, #26 ) ) ;
#50 = CIRCLE ( 'NONE', #124, 0.06374000000000018540 ) ;
#51 = PRODUCT_RELATED_PRODUCT_CATEGORY ( 'part', '', ( #274 ) ) ;
#52 = CARTESIAN_POINT ( 'NONE',  ( 0.0000000000000000000, 0.0000000000000000000, 1.968503999999999809 ) ) ;
#53 = DIRECTION ( 'NONE',  ( 1.000000000000000000, 0.0000000000000000000, -0.0000000000000000000 ) ) ;
#54 = CYLINDRICAL_SURFACE ( 'NONE', #139, 0.03933062999999999837 ) ;
#55 = AXIS2_PLACEMENT_3D ( 'NONE', #227, #269, #85 ) ;
#56 = UNCERTAINTY_MEASURE_WITH_UNIT (LENGTH_MEASURE( 1.000000000000000082E-05 ), #36, 'distance_accuracy_value', 'NONE');
#57 = FACE_OUTER_BOUND ( 'NONE', #144, .T. ) ;
#58 =( NAMED_UNIT ( * ) PLANE_ANGLE_UNIT ( ) SI_UNIT ( $, .RADIAN. ) );
#59 = DIRECTION ( 'NONE',  ( 1.000000000000000000, 0.0000000000000000000, -0.0000000000000000000 ) ) ;
#60 = MECHANICAL_DESIGN_GEOMETRIC_PRESENTATION_REPRESENTATION (  '', ( #204 ), #25 ) ;
#61 = CARTESIAN_POINT ( 'NONE',  ( 0.0000000000000000000, 0.0000000000000000000, 1.968503999999999809 ) ) ;
#62 = AXIS2_PLACEMENT_3D ( 'NONE', #217, #152, #289 ) ;
#63 = CARTESIAN_POINT ( 'NONE',  ( -0.06374000000000018540, 0.0000000000000000000, 1.968503999999999809 ) ) ;
#64 = DIRECTION ( 'NONE',  ( -1.000000000000000000, 0.0000000000000000000, 0.0000000000000000000 ) ) ;
#65 = DIRECTION ( 'NONE',  ( 1.000000000000000000, 0.0000000000000000000, 0.0000000000000000000 ) ) ;
#66 =( NAMED_UNIT ( * ) SI_UNIT ( $, .STERADIAN. ) SOLID_ANGLE_UNIT ( ) );
#67 = EDGE_CURVE ( 'NONE', #163, #143, #73, .T. ) ;
#68 = EDGE_LOOP ( 'NONE', ( #146, #235, #234, #74 ) ) ;
#69 = ORIENTED_EDGE ( 'NONE', *, *, #94, .F. ) ;
#70 = ORIENTED_EDGE ( 'NONE', *, *, #67, .T. ) ;
#71 = COLOUR_RGB ( '',0.7921568627450980005, 0.8196078431372548767, 0.9333333333333333481 ) ;
#72 = ORIENTED_EDGE ( 'NONE', *, *, #161, .F. ) ;
#73 = CIRCLE ( 'NONE', #244, 0.07874000000000001831 ) ;
#74 = ORIENTED_EDGE ( 'NONE', *, *, #229, .F. ) ;
#75 = CARTESIAN_POINT ( 'NONE',  ( 0.03933062999999999837, 4.816613013794885432E-18, -4.816613013794885432E-18 ) ) ;
#76 = DIRECTION ( 'NONE',  ( -1.224646799147353207E-16, -0.0000000000000000000, -1.000000000000000000 ) ) ;
#77 = SURFACE_SIDE_STYLE ('',( #10 ) ) ;
#78 = UNCERTAINTY_MEASURE_WITH_UNIT (LENGTH_MEASURE( 1.000000000000000082E-05 ), #295, 'distance_accuracy_value', 'NONE');
#79 = AXIS2_PLACEMENT_3D ( 'NONE', #6, #168, #262 ) ;
#80 = DIRECTION ( 'NONE',  ( 1.000000000000000000, 0.0000000000000000000, 0.0000000000000000000 ) ) ;
#81 = PRODUCT_CONTEXT ( 'NONE', #189, 'mechanical' ) ;
#82 = CARTESIAN_POINT ( 'NONE',  ( 2.892860668945878169E-17, 0.0000000000000000000, 0.2362200000000000133 ) ) ;
#83 = FACE_OUTER_BOUND ( 'NONE', #49, .T. ) ;
#84 = ADVANCED_FACE ( 'NONE', ( #196 ), #54, .T. ) ;
#85 = DIRECTION ( 'NONE',  ( 1.000000000000000000, 0.0000000000000000000, 0.0000000000000000000 ) ) ;
#86 = VERTEX_POINT ( 'NONE', #224 ) ;
#87 = AXIS2_PLACEMENT_3D ( 'NONE', #8, #100, #149 ) ;
#88 = DIRECTION ( 'NONE',  ( -0.0000000000000000000, -0.0000000000000000000, -1.000000000000000000 ) ) ;
#89 = DIRECTION ( 'NONE',  ( -1.000000000000000000, 0.0000000000000000000, 1.224646799147352961E-16 ) ) ;
#90 = ADVANCED_FACE ( 'NONE', ( #150 ), #195, .F. ) ;
#91 = ORIENTED_EDGE ( 'NONE', *, *, #259, .T. ) ;
#92 = VERTEX_POINT ( 'NONE', #132 ) ;
#93 = ORIENTED_EDGE ( 'NONE', *, *, #107, .F. ) ;
#94 = EDGE_CURVE ( 'NONE', #279, #190, #125, .T. ) ;
#95 = ORIENTED_EDGE ( 'NONE', *, *, #225, .T. ) ;
#96 = ORIENTED_EDGE ( 'NONE', *, *, #67, .F. ) ;
#97 = MANIFOLD_SOLID_BREP ( 'Cut-Revolve1', #117 ) ;
#98 = PRODUCT_DEFINITION ( 'UNKNOWN', '', #157, #285 ) ;
#99 = VECTOR ( 'NONE', #260, 39.37007874015748143 ) ;
#100 = DIRECTION ( 'NONE',  ( 0.0000000000000000000, 0.0000000000000000000, -1.000000000000000000 ) ) ;
#101 = UNCERTAINTY_MEASURE_WITH_UNIT (LENGTH_MEASURE( 1.000000000000000082E-05 ), #32, 'distance_accuracy_value', 'NONE');
#102 = PRESENTATION_LAYER_ASSIGNMENT (  '', '', ( #204 ) ) ;
#103 = DIRECTION ( 'NONE',  ( -1.224646799147353207E-16, -0.0000000000000000000, -1.000000000000000000 ) ) ;
#104 = AXIS2_PLACEMENT_3D ( 'NONE', #136, #141, #290 ) ;
#105 = DIRECTION ( 'NONE',  ( 0.1736481776669313859, 0.0000000000000000000, 0.9848077530122077983 ) ) ;
#106 = APPLICATION_PROTOCOL_DEFINITION ( 'draft international standard', 'automotive_design', 1998, #189 ) ;
#107 = EDGE_CURVE ( 'NONE', #86, #236, #159, .T. ) ;
#108 = DIRECTION ( 'NONE',  ( 0.0000000000000000000, 0.0000000000000000000, -1.000000000000000000 ) ) ;
#109 = DIRECTION ( 'NONE',  ( 0.0000000000000000000, 0.0000000000000000000, -1.000000000000000000 ) ) ;
#110 = CARTESIAN_POINT ( 'NONE',  ( -0.06374000000000018540, 0.0000000000000000000, 1.968503999999999809 ) ) ;
#111 = VECTOR ( 'NONE', #105, 39.37007874015748143 ) ;
#112 = CARTESIAN_POINT ( 'NONE',  ( 2.892860668945878169E-17, 0.0000000000000000000, 0.2362200000000000133 ) ) ;
#113 = FACE_OUTER_BOUND ( 'NONE', #257, .T. ) ;
#114 = VECTOR ( 'NONE', #271, 39.37007874015748143 ) ;
#115 = ORIENTED_EDGE ( 'NONE', *, *, #30, .F. ) ;
#116 = ORIENTED_EDGE ( 'NONE', *, *, #222, .T. ) ;
#117 = CLOSED_SHELL ( 'NONE', ( #84, #162, #122, #17, #208, #135, #199, #212, #202, #90 ) ) ;
#118 = EDGE_LOOP ( 'NONE', ( #165, #115, #91, #96 ) ) ;
#119 = EDGE_LOOP ( 'NONE', ( #253, #209, #23, #69 ) ) ;
#120 = DIMENSIONAL_EXPONENTS ( 1.000000000000000000, 0.0000000000000000000, 0.0000000000000000000, 0.0000000000000000000, 0.0000000000000000000, 0.0000000000000000000, 0.0000000000000000000 ) ;
#121 = DIRECTION ( 'NONE',  ( 1.000000000000000000, 0.0000000000000000000, 0.0000000000000000000 ) ) ;
#122 = ADVANCED_FACE ( 'NONE', ( #239 ), #207, .T. ) ;
#123 =( LENGTH_UNIT ( ) NAMED_UNIT ( * ) SI_UNIT ( $, .METRE. ) );
#124 = AXIS2_PLACEMENT_3D ( 'NONE', #46, #142, #121 ) ;
#125 = LINE ( 'NONE', #174, #99 ) ;
#126 = APPLICATION_PROTOCOL_DEFINITION ( 'draft international standard', 'automotive_design', 1998, #164 ) ;
#127 = CARTESIAN_POINT ( 'NONE',  ( 0.0000000000000000000, 0.0000000000000000000, 1.968503999999999809 ) ) ;
#128 = DIRECTION ( 'NONE',  ( 0.0000000000000000000, 0.0000000000000000000, 1.000000000000000000 ) ) ;
#129 = EDGE_CURVE ( 'NONE', #92, #24, #284, .T. ) ;
#130 =( NAMED_UNIT ( * ) PLANE_ANGLE_UNIT ( ) SI_UNIT ( $, .RADIAN. ) );
#131 = AXIS2_PLACEMENT_3D ( 'NONE', #16, #291, #65 ) ;
#132 = CARTESIAN_POINT ( 'NONE',  ( 0.03933063000000001919, 0.0000000000000000000, 0.2362200000000000133 ) ) ;
#133 = DIRECTION ( 'NONE',  ( 1.000000000000000000, 0.0000000000000000000, 0.0000000000000000000 ) ) ;
#134 = CARTESIAN_POINT ( 'NONE',  ( 0.07874000000000001831, 9.642868896486260050E-18, 1.968503999999999809 ) ) ;
#135 = ADVANCED_FACE ( 'NONE', ( #57 ), #33, .T. ) ;
#136 = CARTESIAN_POINT ( 'NONE',  ( 0.0000000000000000000, 0.0000000000000000000, 0.0000000000000000000 ) ) ;
#137 = VECTOR ( 'NONE', #160, 39.37007874015747433 ) ;
#138 = CARTESIAN_POINT ( 'NONE',  ( 0.07874000000000007382, 9.642868896486266213E-18, 0.4597216436035865272 ) ) ;
#139 = AXIS2_PLACEMENT_3D ( 'NONE', #242, #103, #172 ) ;
#140 = DIRECTION ( 'NONE',  ( -1.224646799147353207E-16, -0.0000000000000000000, -1.000000000000000000 ) ) ;
#141 = DIRECTION ( 'NONE',  ( -1.224646799147353207E-16, -0.0000000000000000000, -1.000000000000000000 ) ) ;
#142 = DIRECTION ( 'NONE',  ( 0.0000000000000000000, 0.0000000000000000000, 1.000000000000000000 ) ) ;
#143 = VERTEX_POINT ( 'NONE', #220 ) ;
#144 = EDGE_LOOP ( 'NONE', ( #296, #187 ) ) ;
#145 = CIRCLE ( 'NONE', #171, 0.07874000000000001831 ) ;
#146 = ORIENTED_EDGE ( 'NONE', *, *, #273, .T. ) ;
#147 = FACE_OUTER_BOUND ( 'NONE', #68, .T. ) ;
#148 = CARTESIAN_POINT ( 'NONE',  ( 0.0000000000000000000, 0.0000000000000000000, 0.0000000000000000000 ) ) ;
#149 = DIRECTION ( 'NONE',  ( -1.000000000000000000, 0.0000000000000000000, 0.0000000000000000000 ) ) ;
#150 = FACE_OUTER_BOUND ( 'NONE', #28, .T. ) ;
#151 = PRESENTATION_STYLE_ASSIGNMENT (( #282 ) ) ;
#152 = DIRECTION ( 'NONE',  ( -1.224646799147353207E-16, -0.0000000000000000000, -1.000000000000000000 ) ) ;
#153 = LINE ( 'NONE', #134, #280 ) ;
#154 = EDGE_CURVE ( 'NONE', #92, #278, #221, .T. ) ;
#155 = LINE ( 'NONE', #156, #299 ) ;
#156 = CARTESIAN_POINT ( 'NONE',  ( 0.06374000000000018540, 7.805898697765251255E-18, 1.968503999999999809 ) ) ;
#157 = PRODUCT_DEFINITION_FORMATION_WITH_SPECIFIED_SOURCE ( 'ANY', '', #274, .NOT_KNOWN. ) ;
#158 = CARTESIAN_POINT ( 'NONE',  ( -0.07874000000000001831, 0.0000000000000000000, 1.968503999999999809 ) ) ;
#159 = CIRCLE ( 'NONE', #79, 0.06374000000000018540 ) ;
#160 = DIRECTION ( 'NONE',  ( -0.1736481776669311916, 2.126576849575783316E-17, 0.9848077530122080203 ) ) ;
#161 = EDGE_CURVE ( 'NONE', #279, #92, #267, .T. ) ;
#162 = ADVANCED_FACE ( 'NONE', ( #83 ), #268, .T. ) ;
#163 = VERTEX_POINT ( 'NONE', #198 ) ;
#164 = APPLICATION_CONTEXT ( 'automotive_design' ) ;
#165 = ORIENTED_EDGE ( 'NONE', *, *, #261, .F. ) ;
#166 = ORIENTED_EDGE ( 'NONE', *, *, #265, .F. ) ;
#167 = ORIENTED_EDGE ( 'NONE', *, *, #259, .F. ) ;
#168 = DIRECTION ( 'NONE',  ( 0.0000000000000000000, 0.0000000000000000000, 1.000000000000000000 ) ) ;
#169 = EDGE_CURVE ( 'NONE', #24, #190, #256, .T. ) ;
#170 = DIRECTION ( 'NONE',  ( 0.0000000000000000000, 0.0000000000000000000, -1.000000000000000000 ) ) ;
#171 = AXIS2_PLACEMENT_3D ( 'NONE', #41, #19, #203 ) ;
#172 = DIRECTION ( 'NONE',  ( -1.000000000000000000, 0.0000000000000000000, 1.224646799147352961E-16 ) ) ;
#173 = COLOUR_RGB ( '',0.7921568627450980005, 0.8196078431372548767, 0.9333333333333333481 ) ;
#174 = CARTESIAN_POINT ( 'NONE',  ( -0.03933062999999999837, 0.0000000000000000000, 4.816613013794885432E-18 ) ) ;
#175 = DIRECTION ( 'NONE',  ( -1.224646799147353207E-16, -0.0000000000000000000, -1.000000000000000000 ) ) ;
#176 = SHAPE_DEFINITION_REPRESENTATION ( #39, #213 ) ;
#177 = FACE_OUTER_BOUND ( 'NONE', #118, .T. ) ;
#178 = AXIS2_PLACEMENT_3D ( 'NONE', #61, #200, #231 ) ;
#179 = LINE ( 'NONE', #63, #114 ) ;
#180 = EDGE_LOOP ( 'NONE', ( #166, #70, #275, #45 ) ) ;
#181 = LINE ( 'NONE', #158, #294 ) ;
#182 = CARTESIAN_POINT ( 'NONE',  ( -0.03933062999999999837, 0.0000000000000000000, 9.633226027589770864E-18 ) ) ;
#183 = CIRCLE ( 'NONE', #131, 0.07874000000000001831 ) ;
#184 =( LENGTH_UNIT ( ) NAMED_UNIT ( * ) SI_UNIT ( $, .METRE. ) );
#185 = AXIS2_PLACEMENT_3D ( 'NONE', #52, #186, #237 ) ;
#186 = DIRECTION ( 'NONE',  ( -0.0000000000000000000, -0.0000000000000000000, -1.000000000000000000 ) ) ;
#187 = ORIENTED_EDGE ( 'NONE', *, *, #107, .T. ) ;
#188 = ORIENTED_EDGE ( 'NONE', *, *, #169, .T. ) ;
#189 = APPLICATION_CONTEXT ( 'automotive_design' ) ;
#190 = VERTEX_POINT ( 'NONE', #182 ) ;
#191 = DIMENSIONAL_EXPONENTS ( 1.000000000000000000, 0.0000000000000000000, 0.0000000000000000000, 0.0000000000000000000, 0.0000000000000000000, 0.0000000000000000000, 0.0000000000000000000 ) ;
#192 = AXIS2_PLACEMENT_3D ( 'NONE', #82, #175, #266 ) ;
#193 = ORIENTED_EDGE ( 'NONE', *, *, #273, .F. ) ;
#194 = CARTESIAN_POINT ( 'NONE',  ( 0.0000000000000000000, 0.0000000000000000000, 0.0000000000000000000 ) ) ;
#195 = PLANE ( 'NONE',  #283 ) ;
#196 = FACE_OUTER_BOUND ( 'NONE', #119, .T. ) ;
#197 = FILL_AREA_STYLE ('',( #9 ) ) ;
#198 = CARTESIAN_POINT ( 'NONE',  ( 0.07874000000000001831, 9.642868896486260050E-18, 1.953504000000000129 ) ) ;
#199 = ADVANCED_FACE ( 'NONE', ( #177 ), #5, .T. ) ;
#200 = DIRECTION ( 'NONE',  ( -0.0000000000000000000, -0.0000000000000000000, -1.000000000000000000 ) ) ;
#201 = CARTESIAN_POINT ( 'NONE',  ( -0.03933062999999997061, 7.229740955140571970E-18, 0.2362200000000000133 ) ) ;
#202 = ADVANCED_FACE ( 'NONE', ( #292 ), #228, .T. ) ;
#203 = DIRECTION ( 'NONE',  ( 1.000000000000000000, 0.0000000000000000000, 0.0000000000000000000 ) ) ;
#204 = STYLED_ITEM ( 'NONE', ( #151 ), #213 ) ;
#205 = AXIS2_PLACEMENT_3D ( 'NONE', #112, #20, #64 ) ;
#206 = CARTESIAN_POINT ( 'NONE',  ( -0.07873999999999996280, 0.0000000000000000000, 0.4597216436035865272 ) ) ;
#207 = CONICAL_SURFACE ( 'NONE', #87, 0.06374000000000018540, 0.7853981633974528309 ) ;
#208 = ADVANCED_FACE ( 'NONE', ( #270 ), #272, .T. ) ;
#209 = ORIENTED_EDGE ( 'NONE', *, *, #129, .T. ) ;
#210 = AXIS2_PLACEMENT_3D ( 'NONE', #127, #128, #59 ) ;
#211 = ORIENTED_EDGE ( 'NONE', *, *, #43, .T. ) ;
#212 = ADVANCED_FACE ( 'NONE', ( #113 ), #12, .T. ) ;
#213 = ADVANCED_BREP_SHAPE_REPRESENTATION ( 'Micro_AMRM-020-2X', ( #97, #48 ), #293 ) ;
#214 = CIRCLE ( 'NONE', #238, 0.07874000000000001831 ) ;
#215 = EDGE_LOOP ( 'NONE', ( #4, #276, #216, #255 ) ) ;
#216 = ORIENTED_EDGE ( 'NONE', *, *, #94, .T. ) ;
#217 = CARTESIAN_POINT ( 'NONE',  ( 5.898649710075393742E-34, 0.0000000000000000000, 4.816613013794885432E-18 ) ) ;
#218 = MECHANICAL_DESIGN_GEOMETRIC_PRESENTATION_REPRESENTATION (  '', ( #223 ), #288 ) ;
#219 = LENGTH_MEASURE_WITH_UNIT ( LENGTH_MEASURE( 0.02539999999999999897 ), #123 );
#220 = CARTESIAN_POINT ( 'NONE',  ( -0.07874000000000001831, 0.0000000000000000000, 1.953504000000000129 ) ) ;
#221 = LINE ( 'NONE', #11, #111 ) ;
#222 = EDGE_CURVE ( 'NONE', #233, #278, #183, .T. ) ;
#223 = STYLED_ITEM ( 'NONE', ( #31 ), #97 ) ;
#224 = CARTESIAN_POINT ( 'NONE',  ( 0.06374000000000018540, 8.724383797125754882E-18, 1.968503999999999809 ) ) ;
#225 = EDGE_CURVE ( 'NONE', #279, #233, #18, .T. ) ;
#226 = CARTESIAN_POINT ( 'NONE',  ( 0.0000000000000000000, 0.0000000000000000000, 1.953504000000000129 ) ) ;
#227 = CARTESIAN_POINT ( 'NONE',  ( 2.892860668945878169E-17, 0.0000000000000000000, 0.2362200000000000133 ) ) ;
#228 = CYLINDRICAL_SURFACE ( 'NONE', #104, 0.03933062999999999837 ) ;
#229 = EDGE_CURVE ( 'NONE', #143, #233, #181, .T. ) ;
#230 = DIRECTION ( 'NONE',  ( 1.224646799147353207E-16, 0.0000000000000000000, 1.000000000000000000 ) ) ;
#231 = DIRECTION ( 'NONE',  ( -1.000000000000000000, 0.0000000000000000000, 0.0000000000000000000 ) ) ;
#232 = EDGE_CURVE ( 'NONE', #92, #279, #21, .T. ) ;
#233 = VERTEX_POINT ( 'NONE', #206 ) ;
#234 = ORIENTED_EDGE ( 'NONE', *, *, #222, .F. ) ;
#235 = ORIENTED_EDGE ( 'NONE', *, *, #265, .T. ) ;
#236 = VERTEX_POINT ( 'NONE', #110 ) ;
#237 = DIRECTION ( 'NONE',  ( -1.000000000000000000, 0.0000000000000000000, 0.0000000000000000000 ) ) ;
#238 = AXIS2_PLACEMENT_3D ( 'NONE', #226, #108, #247 ) ;
#239 = FACE_OUTER_BOUND ( 'NONE', #297, .T. ) ;
#240 = LENGTH_MEASURE_WITH_UNIT ( LENGTH_MEASURE( 0.02539999999999999897 ), #263 );
#241 = DIRECTION ( 'NONE',  ( 0.0000000000000000000, 0.0000000000000000000, 1.000000000000000000 ) ) ;
#242 = CARTESIAN_POINT ( 'NONE',  ( 0.0000000000000000000, 0.0000000000000000000, 0.0000000000000000000 ) ) ;
#243 = CARTESIAN_POINT ( 'NONE',  ( 0.0000000000000000000, 0.0000000000000000000, 1.953504000000000129 ) ) ;
#244 = AXIS2_PLACEMENT_3D ( 'NONE', #243, #170, #80 ) ;
#245 = DIRECTION ( 'NONE',  ( -0.0000000000000000000, -0.0000000000000000000, -1.000000000000000000 ) ) ;
#246 = DIRECTION ( 'NONE',  ( 1.000000000000000000, 0.0000000000000000000, 0.0000000000000000000 ) ) ;
#247 = DIRECTION ( 'NONE',  ( 1.000000000000000000, 0.0000000000000000000, 0.0000000000000000000 ) ) ;
#248 = CARTESIAN_POINT ( 'NONE',  ( 2.892860668945878169E-17, 0.0000000000000000000, 0.2362200000000000133 ) ) ;
#249 = LENGTH_MEASURE_WITH_UNIT ( LENGTH_MEASURE( 0.02539999999999999897 ), #184 );
#250 = ORIENTED_EDGE ( 'NONE', *, *, #277, .T. ) ;
#251 = AXIS2_PLACEMENT_3D ( 'NONE', #15, #140, #89 ) ;
#252 = VECTOR ( 'NONE', #76, 39.37007874015748143 ) ;
#253 = ORIENTED_EDGE ( 'NONE', *, *, #161, .T. ) ;
#254 = ORIENTED_EDGE ( 'NONE', *, *, #261, .T. ) ;
#255 = ORIENTED_EDGE ( 'NONE', *, *, #169, .F. ) ;
#256 = CIRCLE ( 'NONE', #251, 0.03933062999999999837 ) ;
#257 = EDGE_LOOP ( 'NONE', ( #2, #281, #47, #250 ) ) ;
#258 =( NAMED_UNIT ( * ) SI_UNIT ( $, .STERADIAN. ) SOLID_ANGLE_UNIT ( ) );
#259 = EDGE_CURVE ( 'NONE', #236, #143, #179, .T. ) ;
#260 = DIRECTION ( 'NONE',  ( -1.224646799147353207E-16, -0.0000000000000000000, -1.000000000000000000 ) ) ;
#261 = EDGE_CURVE ( 'NONE', #86, #163, #155, .T. ) ;
#262 = DIRECTION ( 'NONE',  ( 1.000000000000000000, 0.0000000000000000000, 0.0000000000000000000 ) ) ;
#263 =( LENGTH_UNIT ( ) NAMED_UNIT ( * ) SI_UNIT ( $, .METRE. ) );
#264 = SURFACE_SIDE_STYLE ('',( #35 ) ) ;
#265 = EDGE_CURVE ( 'NONE', #163, #278, #153, .T. ) ;
#266 = DIRECTION ( 'NONE',  ( -1.000000000000000000, 0.0000000000000000000, 0.0000000000000000000 ) ) ;
#267 = CIRCLE ( 'NONE', #192, 0.03933062999999999837 ) ;
#268 = CONICAL_SURFACE ( 'NONE', #37, 0.03933062999999999837, 0.1745329251994338915 ) ;
#269 = DIRECTION ( 'NONE',  ( 1.224646799147353207E-16, 0.0000000000000000000, 1.000000000000000000 ) ) ;
#270 = FACE_OUTER_BOUND ( 'NONE', #180, .T. ) ;
#271 = DIRECTION ( 'NONE',  ( -0.7071067811865507924, 0.0000000000000000000, -0.7071067811865443531 ) ) ;
#272 = CYLINDRICAL_SURFACE ( 'NONE', #178, 0.07874000000000001831 ) ;
#273 = EDGE_CURVE ( 'NONE', #143, #163, #214, .T. ) ;
#274 = PRODUCT ( 'Micro_AMRM-020-2X', 'Micro_AMRM-020-2X', '', ( #81 ) ) ;
#275 = ORIENTED_EDGE ( 'NONE', *, *, #229, .T. ) ;
#276 = ORIENTED_EDGE ( 'NONE', *, *, #232, .T. ) ;
#277 = EDGE_CURVE ( 'NONE', #278, #233, #145, .T. ) ;
#278 = VERTEX_POINT ( 'NONE', #138 ) ;
#279 = VERTEX_POINT ( 'NONE', #201 ) ;
#280 = VECTOR ( 'NONE', #245, 39.37007874015748143 ) ;
#281 = ORIENTED_EDGE ( 'NONE', *, *, #232, .F. ) ;
#282 = SURFACE_STYLE_USAGE ( .BOTH. , #77 ) ;
#283 = AXIS2_PLACEMENT_3D ( 'NONE', #194, #241, #53 ) ;
#284 = LINE ( 'NONE', #75, #252 ) ;
#285 = PRODUCT_DEFINITION_CONTEXT ( 'detailed design', #164, 'design' ) ;
#286 = FILL_AREA_STYLE_COLOUR ( '', #71 ) ;
#287 =( NAMED_UNIT ( * ) SI_UNIT ( $, .STERADIAN. ) SOLID_ANGLE_UNIT ( ) );
#288 =( GEOMETRIC_REPRESENTATION_CONTEXT ( 3 ) GLOBAL_UNCERTAINTY_ASSIGNED_CONTEXT ( ( #101 ) ) GLOBAL_UNIT_ASSIGNED_CONTEXT ( ( #32, #58, #258 ) ) REPRESENTATION_CONTEXT ( 'NONE', 'WORKASPACE' ) );
#289 = DIRECTION ( 'NONE',  ( -1.000000000000000000, 0.0000000000000000000, 1.224646799147352961E-16 ) ) ;
#290 = DIRECTION ( 'NONE',  ( -1.000000000000000000, 0.0000000000000000000, 1.224646799147352961E-16 ) ) ;
#291 = DIRECTION ( 'NONE',  ( -1.224646799147353207E-16, -0.0000000000000000000, -1.000000000000000000 ) ) ;
#292 = FACE_OUTER_BOUND ( 'NONE', #215, .T. ) ;
#293 =( GEOMETRIC_REPRESENTATION_CONTEXT ( 3 ) GLOBAL_UNCERTAINTY_ASSIGNED_CONTEXT ( ( #78 ) ) GLOBAL_UNIT_ASSIGNED_CONTEXT ( ( #295, #22, #66 ) ) REPRESENTATION_CONTEXT ( 'NONE', 'WORKASPACE' ) );
#294 = VECTOR ( 'NONE', #88, 39.37007874015748143 ) ;
#295 =( CONVERSION_BASED_UNIT ( 'INCH', #249 ) LENGTH_UNIT ( ) NAMED_UNIT ( #120 ) );
#296 = ORIENTED_EDGE ( 'NONE', *, *, #30, .T. ) ;
#297 = EDGE_LOOP ( 'NONE', ( #93, #254, #193, #167 ) ) ;
#298 = DIMENSIONAL_EXPONENTS ( 1.000000000000000000, 0.0000000000000000000, 0.0000000000000000000, 0.0000000000000000000, 0.0000000000000000000, 0.0000000000000000000, 0.0000000000000000000 ) ;
#299 = VECTOR ( 'NONE', #42, 39.37007874015748143 ) ;
ENDSEC;
END-ISO-10303-21;
