ISO-10303-21;
HEADER;
FILE_DESCRIPTION (( 'STEP AP214' ),
    '1' );
FILE_NAME ('Micro_SEM-171-03X.STEP',
    '2021-09-02T01:58:23',
    ( '' ),
    ( '' ),
    'SwSTEP 2.0',
    'SolidWorks 2020',
    '' );
FILE_SCHEMA (( 'AUTOMOTIVE_DESIGN' ));
ENDSEC;

DATA;
#1 = DIRECTION ( 'NONE',  ( -1.224646799147353454E-16, -0.0000000000000000000, -1.000000000000000000 ) ) ;
#2 = DIRECTION ( 'NONE',  ( 1.000000000000000000, 0.0000000000000000000, -0.0000000000000000000 ) ) ;
#3 = CIRCLE ( 'NONE', #250, 0.07875000000000061118 ) ;
#4 = DIRECTION ( 'NONE',  ( -1.000000000000000000, 0.0000000000000000000, 0.0000000000000000000 ) ) ;
#5 = MECHANICAL_DESIGN_GEOMETRIC_PRESENTATION_REPRESENTATION (  '', ( #264 ), #121 ) ;
#6 = CARTESIAN_POINT ( 'NONE',  ( -0.08586404999999999732, 0.0000000000000000000, 2.103062679886566373E-17 ) ) ;
#7 =( LENGTH_UNIT ( ) NAMED_UNIT ( * ) SI_UNIT ( $, .METRE. ) );
#8 =( CONVERSION_BASED_UNIT ( 'INCH', #142 ) LENGTH_UNIT ( ) NAMED_UNIT ( #71 ) );
#9 = EDGE_LOOP ( 'NONE', ( #113, #90, #39, #131 ) ) ;
#10 = DIRECTION ( 'NONE',  ( -1.000000000000000000, 0.0000000000000000000, 0.0000000000000000000 ) ) ;
#11 = ADVANCED_FACE ( 'NONE', ( #295 ), #84, .T. ) ;
#12 = DIRECTION ( 'NONE',  ( 1.224646799147353454E-16, 0.0000000000000000000, 1.000000000000000000 ) ) ;
#13 = PRODUCT_CONTEXT ( 'NONE', #271, 'mechanical' ) ;
#14 = ORIENTED_EDGE ( 'NONE', *, *, #143, .F. ) ;
#15 = CONICAL_SURFACE ( 'NONE', #82, 0.07875000000000061118, 0.7853981633974562726 ) ;
#16 = EDGE_CURVE ( 'NONE', #294, #17, #127, .T. ) ;
#17 = VERTEX_POINT ( 'NONE', #86 ) ;
#18 = APPLICATION_PROTOCOL_DEFINITION ( 'draft international standard', 'automotive_design', 1998, #271 ) ;
#19 = ORIENTED_EDGE ( 'NONE', *, *, #85, .F. ) ;
#20 = EDGE_CURVE ( 'NONE', #174, #228, #3, .T. ) ;
#21 = EDGE_LOOP ( 'NONE', ( #43, #245, #222, #129 ) ) ;
#22 = ORIENTED_EDGE ( 'NONE', *, *, #130, .T. ) ;
#23 = LINE ( 'NONE', #230, #144 ) ;
#24 = LINE ( 'NONE', #116, #49 ) ;
#25 = DIRECTION ( 'NONE',  ( -1.000000000000000000, 0.0000000000000000000, 1.224646799147353454E-16 ) ) ;
#26 = DIRECTION ( 'NONE',  ( 0.0000000000000000000, 0.0000000000000000000, 1.000000000000000000 ) ) ;
#27 = DIRECTION ( 'NONE',  ( -1.224646799147353454E-16, -0.0000000000000000000, -1.000000000000000000 ) ) ;
#28 = CONICAL_SURFACE ( 'NONE', #165, 0.08586404999999998344, 0.1745329251994339192 ) ;
#29 = DIRECTION ( 'NONE',  ( -1.224646799147353454E-16, -0.0000000000000000000, -1.000000000000000000 ) ) ;
#30 = PRODUCT_DEFINITION_SHAPE ( 'NONE', 'NONE',  #201 ) ;
#31 = SURFACE_STYLE_FILL_AREA ( #259 ) ;
#32 = DIRECTION ( 'NONE',  ( -0.0000000000000000000, -0.0000000000000000000, -1.000000000000000000 ) ) ;
#33 = AXIS2_PLACEMENT_3D ( 'NONE', #69, #138, #25 ) ;
#34 = FACE_OUTER_BOUND ( 'NONE', #114, .T. ) ;
#35 = ORIENTED_EDGE ( 'NONE', *, *, #171, .T. ) ;
#36 = CARTESIAN_POINT ( 'NONE',  ( 0.0000000000000000000, 0.0000000000000000000, 0.0000000000000000000 ) ) ;
#37 = VERTEX_POINT ( 'NONE', #254 ) ;
#38 = AXIS2_PLACEMENT_3D ( 'NONE', #52, #239, #10 ) ;
#39 = ORIENTED_EDGE ( 'NONE', *, *, #64, .T. ) ;
#40 = ADVANCED_FACE ( 'NONE', ( #164 ), #15, .T. ) ;
#41 = SHAPE_DEFINITION_REPRESENTATION ( #30, #45 ) ;
#42 = ORIENTED_EDGE ( 'NONE', *, *, #110, .F. ) ;
#43 = ORIENTED_EDGE ( 'NONE', *, *, #92, .T. ) ;
#44 = FACE_OUTER_BOUND ( 'NONE', #154, .T. ) ;
#45 = ADVANCED_BREP_SHAPE_REPRESENTATION ( 'Micro_SEM-171-03X', ( #277, #246 ), #223 ) ;
#46 = CARTESIAN_POINT ( 'NONE',  ( 0.09375000000000001388, 1.148106374200643401E-17, 1.485000000000000986 ) ) ;
#47 = ADVANCED_FACE ( 'NONE', ( #274 ), #257, .F. ) ;
#48 = CARTESIAN_POINT ( 'NONE',  ( 3.833144481331216295E-17, 0.0000000000000000000, 0.3130000000000000004 ) ) ;
#49 = VECTOR ( 'NONE', #208, 39.37007874015747433 ) ;
#50 = DIRECTION ( 'NONE',  ( 1.224646799147353454E-16, 0.0000000000000000000, 1.000000000000000000 ) ) ;
#51 = DIRECTION ( 'NONE',  ( -1.000000000000000000, 0.0000000000000000000, 0.0000000000000000000 ) ) ;
#52 = CARTESIAN_POINT ( 'NONE',  ( 0.0000000000000000000, 0.0000000000000000000, 1.500000000000000222 ) ) ;
#53 = AXIS2_PLACEMENT_3D ( 'NONE', #232, #206, #100 ) ;
#54 = CIRCLE ( 'NONE', #203, 0.09375000000000001388 ) ;
#55 = DIRECTION ( 'NONE',  ( 0.7071067811865531239, 8.659560562355003116E-17, -0.7071067811865419106 ) ) ;
#56 =( CONVERSION_BASED_UNIT ( 'INCH', #77 ) LENGTH_UNIT ( ) NAMED_UNIT ( #189 ) );
#57 = CYLINDRICAL_SURFACE ( 'NONE', #261, 0.09375000000000001388 ) ;
#58 = DIRECTION ( 'NONE',  ( -1.224646799147353454E-16, -0.0000000000000000000, -1.000000000000000000 ) ) ;
#59 = DIRECTION ( 'NONE',  ( -1.000000000000000000, 0.0000000000000000000, 1.224646799147353454E-16 ) ) ;
#60 = SURFACE_STYLE_USAGE ( .BOTH. , #180 ) ;
#61 = DIRECTION ( 'NONE',  ( 0.0000000000000000000, 0.0000000000000000000, 1.000000000000000000 ) ) ;
#62 = ORIENTED_EDGE ( 'NONE', *, *, #101, .T. ) ;
#63 = APPLICATION_CONTEXT ( 'automotive_design' ) ;
#64 = EDGE_CURVE ( 'NONE', #109, #17, #190, .T. ) ;
#65 = VERTEX_POINT ( 'NONE', #296 ) ;
#66 = DIRECTION ( 'NONE',  ( -1.224646799147353454E-16, -0.0000000000000000000, -1.000000000000000000 ) ) ;
#67 = VECTOR ( 'NONE', #55, 39.37007874015748143 ) ;
#68 = DIRECTION ( 'NONE',  ( -1.224646799147353454E-16, -0.0000000000000000000, -1.000000000000000000 ) ) ;
#69 = CARTESIAN_POINT ( 'NONE',  ( 0.0000000000000000000, 0.0000000000000000000, 0.0000000000000000000 ) ) ;
#70 = LINE ( 'NONE', #187, #67 ) ;
#71 = DIMENSIONAL_EXPONENTS ( 1.000000000000000000, 0.0000000000000000000, 0.0000000000000000000, 0.0000000000000000000, 0.0000000000000000000, 0.0000000000000000000, 0.0000000000000000000 ) ;
#72 = CIRCLE ( 'NONE', #185, 0.07875000000000061118 ) ;
#73 = CARTESIAN_POINT ( 'NONE',  ( 0.0000000000000000000, 0.0000000000000000000, 1.500000000000000222 ) ) ;
#74 = DIMENSIONAL_EXPONENTS ( 1.000000000000000000, 0.0000000000000000000, 0.0000000000000000000, 0.0000000000000000000, 0.0000000000000000000, 0.0000000000000000000, 0.0000000000000000000 ) ;
#75 = DIRECTION ( 'NONE',  ( 0.0000000000000000000, 0.0000000000000000000, 1.000000000000000000 ) ) ;
#76 = DIRECTION ( 'NONE',  ( -1.000000000000000000, 0.0000000000000000000, 0.0000000000000000000 ) ) ;
#77 = LENGTH_MEASURE_WITH_UNIT ( LENGTH_MEASURE( 0.02539999999999999897 ), #7 );
#78 = ADVANCED_FACE ( 'NONE', ( #211 ), #169, .T. ) ;
#79 = SURFACE_SIDE_STYLE ('',( #31 ) ) ;
#80 = ADVANCED_FACE ( 'NONE', ( #44 ), #135, .T. ) ;
#81 = PRESENTATION_STYLE_ASSIGNMENT (( #60 ) ) ;
#82 = AXIS2_PLACEMENT_3D ( 'NONE', #166, #161, #51 ) ;
#83 = STYLED_ITEM ( 'NONE', ( #172 ), #277 ) ;
#84 = CYLINDRICAL_SURFACE ( 'NONE', #217, 0.08586404999999998344 ) ;
#85 = EDGE_CURVE ( 'NONE', #228, #174, #72, .T. ) ;
#86 = CARTESIAN_POINT ( 'NONE',  ( 0.09375000000000004163, 1.148106374200644017E-17, 0.3577234448654141308 ) ) ;
#87 = EDGE_LOOP ( 'NONE', ( #134, #62, #22, #202 ) ) ;
#88 = CIRCLE ( 'NONE', #233, 0.08586404999999998344 ) ;
#89 =( NAMED_UNIT ( * ) PLANE_ANGLE_UNIT ( ) SI_UNIT ( $, .RADIAN. ) );
#90 = ORIENTED_EDGE ( 'NONE', *, *, #178, .T. ) ;
#91 = ORIENTED_EDGE ( 'NONE', *, *, #96, .T. ) ;
#92 = EDGE_CURVE ( 'NONE', #65, #157, #198, .T. ) ;
#93 = CARTESIAN_POINT ( 'NONE',  ( 0.0000000000000000000, 0.0000000000000000000, 1.485000000000000986 ) ) ;
#94 = COLOUR_RGB ( '',0.7921568627450980005, 0.8196078431372548767, 0.9333333333333333481 ) ;
#95 = FACE_OUTER_BOUND ( 'NONE', #175, .T. ) ;
#96 = EDGE_CURVE ( 'NONE', #294, #159, #119, .T. ) ;
#97 = DIRECTION ( 'NONE',  ( 0.0000000000000000000, 0.0000000000000000000, -1.000000000000000000 ) ) ;
#98 = CARTESIAN_POINT ( 'NONE',  ( 0.08586404999999998344, 1.051531339943282878E-17, -1.051531339943283032E-17 ) ) ;
#99 = CIRCLE ( 'NONE', #256, 0.08586404999999998344 ) ;
#100 = DIRECTION ( 'NONE',  ( 1.000000000000000000, 0.0000000000000000000, 0.0000000000000000000 ) ) ;
#101 = EDGE_CURVE ( 'NONE', #294, #37, #88, .T. ) ;
#102 = CARTESIAN_POINT ( 'NONE',  ( 3.833144481331216295E-17, 0.0000000000000000000, 0.3130000000000000004 ) ) ;
#103 = CARTESIAN_POINT ( 'NONE',  ( 4.380848717343942177E-17, 0.0000000000000000000, 0.3577234448654141308 ) ) ;
#104 = EDGE_LOOP ( 'NONE', ( #112, #182 ) ) ;
#105 = CARTESIAN_POINT ( 'NONE',  ( -0.09375000000000001388, 0.0000000000000000000, 1.500000000000000222 ) ) ;
#106 =( LENGTH_UNIT ( ) NAMED_UNIT ( * ) SI_UNIT ( $, .METRE. ) );
#107 =( GEOMETRIC_REPRESENTATION_CONTEXT ( 3 ) GLOBAL_UNCERTAINTY_ASSIGNED_CONTEXT ( ( #195 ) ) GLOBAL_UNIT_ASSIGNED_CONTEXT ( ( #8, #258, #237 ) ) REPRESENTATION_CONTEXT ( 'NONE', 'WORKASPACE' ) );
#108 = EDGE_LOOP ( 'NONE', ( #273, #244, #226, #224 ) ) ;
#109 = VERTEX_POINT ( 'NONE', #136 ) ;
#110 = EDGE_CURVE ( 'NONE', #157, #65, #54, .T. ) ;
#111 = FILL_AREA_STYLE_COLOUR ( '', #94 ) ;
#112 = ORIENTED_EDGE ( 'NONE', *, *, #143, .T. ) ;
#113 = ORIENTED_EDGE ( 'NONE', *, *, #147, .F. ) ;
#114 = EDGE_LOOP ( 'NONE', ( #199, #225 ) ) ;
#115 = DIRECTION ( 'NONE',  ( -0.7071067811865531239, 0.0000000000000000000, -0.7071067811865419106 ) ) ;
#116 = CARTESIAN_POINT ( 'NONE',  ( -0.08586404999999995569, 1.051531339943282878E-17, 0.3130000000000000004 ) ) ;
#117 = PRODUCT_DEFINITION_FORMATION_WITH_SPECIFIED_SOURCE ( 'ANY', '', #235, .NOT_KNOWN. ) ;
#118 = DIRECTION ( 'NONE',  ( 0.0000000000000000000, 0.0000000000000000000, 1.000000000000000000 ) ) ;
#119 = LINE ( 'NONE', #98, #122 ) ;
#120 = DIRECTION ( 'NONE',  ( 0.0000000000000000000, 0.0000000000000000000, -1.000000000000000000 ) ) ;
#121 =( GEOMETRIC_REPRESENTATION_CONTEXT ( 3 ) GLOBAL_UNCERTAINTY_ASSIGNED_CONTEXT ( ( #220 ) ) GLOBAL_UNIT_ASSIGNED_CONTEXT ( ( #265, #89, #152 ) ) REPRESENTATION_CONTEXT ( 'NONE', 'WORKASPACE' ) );
#122 = VECTOR ( 'NONE', #27, 39.37007874015748143 ) ;
#123 = FACE_OUTER_BOUND ( 'NONE', #21, .T. ) ;
#124 = CARTESIAN_POINT ( 'NONE',  ( -0.07875000000000061118, 0.0000000000000000000, 1.500000000000000222 ) ) ;
#125 =( LENGTH_UNIT ( ) NAMED_UNIT ( * ) SI_UNIT ( $, .METRE. ) );
#126 = DIRECTION ( 'NONE',  ( 0.0000000000000000000, 0.0000000000000000000, 1.000000000000000000 ) ) ;
#127 = LINE ( 'NONE', #200, #149 ) ;
#128 = MECHANICAL_DESIGN_GEOMETRIC_PRESENTATION_REPRESENTATION (  '', ( #83 ), #107 ) ;
#129 = ORIENTED_EDGE ( 'NONE', *, *, #260, .F. ) ;
#130 = EDGE_CURVE ( 'NONE', #37, #272, #186, .T. ) ;
#131 = ORIENTED_EDGE ( 'NONE', *, *, #16, .F. ) ;
#132 = ORIENTED_EDGE ( 'NONE', *, *, #101, .F. ) ;
#133 =( NAMED_UNIT ( * ) PLANE_ANGLE_UNIT ( ) SI_UNIT ( $, .RADIAN. ) );
#134 = ORIENTED_EDGE ( 'NONE', *, *, #96, .F. ) ;
#135 = CONICAL_SURFACE ( 'NONE', #297, 0.08586404999999998344, 0.1745329251994339192 ) ;
#136 = CARTESIAN_POINT ( 'NONE',  ( -0.09374999999999995837, 0.0000000000000000000, 0.3577234448654141308 ) ) ;
#137 = DIRECTION ( 'NONE',  ( 1.000000000000000000, 0.0000000000000000000, 0.0000000000000000000 ) ) ;
#138 = DIRECTION ( 'NONE',  ( -1.224646799147353454E-16, -0.0000000000000000000, -1.000000000000000000 ) ) ;
#139 = PRESENTATION_LAYER_ASSIGNMENT (  '', '', ( #83 ) ) ;
#140 = CARTESIAN_POINT ( 'NONE',  ( 0.0000000000000000000, 0.0000000000000000000, 1.485000000000000986 ) ) ;
#141 = DIRECTION ( 'NONE',  ( 1.000000000000000000, 0.0000000000000000000, 0.0000000000000000000 ) ) ;
#142 = LENGTH_MEASURE_WITH_UNIT ( LENGTH_MEASURE( 0.02539999999999999897 ), #125 );
#143 = EDGE_CURVE ( 'NONE', #272, #159, #177, .T. ) ;
#144 = VECTOR ( 'NONE', #115, 39.37007874015748143 ) ;
#145 = FACE_OUTER_BOUND ( 'NONE', #249, .T. ) ;
#146 = LINE ( 'NONE', #197, #227 ) ;
#147 = EDGE_CURVE ( 'NONE', #37, #294, #99, .T. ) ;
#148 = CYLINDRICAL_SURFACE ( 'NONE', #38, 0.09375000000000001388 ) ;
#149 = VECTOR ( 'NONE', #291, 39.37007874015748143 ) ;
#150 = COLOUR_RGB ( '',0.7921568627450980005, 0.8196078431372548767, 0.9333333333333333481 ) ;
#151 = DIRECTION ( 'NONE',  ( -1.000000000000000000, 0.0000000000000000000, 1.224646799147353454E-16 ) ) ;
#152 =( NAMED_UNIT ( * ) SI_UNIT ( $, .STERADIAN. ) SOLID_ANGLE_UNIT ( ) );
#153 = ORIENTED_EDGE ( 'NONE', *, *, #147, .T. ) ;
#154 = EDGE_LOOP ( 'NONE', ( #248, #132, #179, #160 ) ) ;
#155 = APPLICATION_PROTOCOL_DEFINITION ( 'draft international standard', 'automotive_design', 1998, #63 ) ;
#156 = PRESENTATION_LAYER_ASSIGNMENT (  '', '', ( #264 ) ) ;
#157 = VERTEX_POINT ( 'NONE', #46 ) ;
#158 = LENGTH_MEASURE_WITH_UNIT ( LENGTH_MEASURE( 0.02539999999999999897 ), #106 );
#159 = VERTEX_POINT ( 'NONE', #229 ) ;
#160 = ORIENTED_EDGE ( 'NONE', *, *, #299, .T. ) ;
#161 = DIRECTION ( 'NONE',  ( 0.0000000000000000000, 0.0000000000000000000, -1.000000000000000000 ) ) ;
#162 = DIRECTION ( 'NONE',  ( 1.000000000000000000, 0.0000000000000000000, 0.0000000000000000000 ) ) ;
#163 = DIRECTION ( 'NONE',  ( -1.000000000000000000, 0.0000000000000000000, 0.0000000000000000000 ) ) ;
#164 = FACE_OUTER_BOUND ( 'NONE', #108, .T. ) ;
#165 = AXIS2_PLACEMENT_3D ( 'NONE', #102, #12, #219 ) ;
#166 = CARTESIAN_POINT ( 'NONE',  ( 0.0000000000000000000, 0.0000000000000000000, 1.500000000000000222 ) ) ;
#167 = CARTESIAN_POINT ( 'NONE',  ( 0.08586405000000002508, 0.0000000000000000000, 0.3130000000000000004 ) ) ;
#168 = PLANE ( 'NONE',  #288 ) ;
#169 = CONICAL_SURFACE ( 'NONE', #207, 0.07875000000000061118, 0.7853981633974562726 ) ;
#170 = DIRECTION ( 'NONE',  ( -1.224646799147353454E-16, -0.0000000000000000000, -1.000000000000000000 ) ) ;
#171 = EDGE_CURVE ( 'NONE', #228, #65, #23, .T. ) ;
#172 = PRESENTATION_STYLE_ASSIGNMENT (( #192 ) ) ;
#173 = DIRECTION ( 'NONE',  ( 1.000000000000000000, 0.0000000000000000000, 0.0000000000000000000 ) ) ;
#174 = VERTEX_POINT ( 'NONE', #298 ) ;
#175 = EDGE_LOOP ( 'NONE', ( #153, #91, #14, #204 ) ) ;
#176 =( NAMED_UNIT ( * ) SI_UNIT ( $, .STERADIAN. ) SOLID_ANGLE_UNIT ( ) );
#177 = CIRCLE ( 'NONE', #218, 0.08586404999999999732 ) ;
#178 = EDGE_CURVE ( 'NONE', #37, #109, #24, .T. ) ;
#179 = ORIENTED_EDGE ( 'NONE', *, *, #16, .T. ) ;
#180 = SURFACE_SIDE_STYLE ('',( #231 ) ) ;
#181 = ORIENTED_EDGE ( 'NONE', *, *, #269, .F. ) ;
#182 = ORIENTED_EDGE ( 'NONE', *, *, #282, .T. ) ;
#183 = AXIS2_PLACEMENT_3D ( 'NONE', #255, #26, #2 ) ;
#184 = CARTESIAN_POINT ( 'NONE',  ( -0.08586404999999998344, 0.0000000000000000000, 1.051531339943283032E-17 ) ) ;
#185 = AXIS2_PLACEMENT_3D ( 'NONE', #234, #118, #141 ) ;
#186 = LINE ( 'NONE', #184, #293 ) ;
#187 = CARTESIAN_POINT ( 'NONE',  ( 0.07875000000000061118, 9.644093543285480678E-18, 1.500000000000000222 ) ) ;
#188 = DIRECTION ( 'NONE',  ( 1.000000000000000000, 0.0000000000000000000, 0.0000000000000000000 ) ) ;
#189 = DIMENSIONAL_EXPONENTS ( 1.000000000000000000, 0.0000000000000000000, 0.0000000000000000000, 0.0000000000000000000, 0.0000000000000000000, 0.0000000000000000000, 0.0000000000000000000 ) ;
#190 = CIRCLE ( 'NONE', #53, 0.09375000000000001388 ) ;
#191 = AXIS2_PLACEMENT_3D ( 'NONE', #286, #170, #151 ) ;
#192 = SURFACE_STYLE_USAGE ( .BOTH. , #79 ) ;
#193 = ADVANCED_FACE ( 'NONE', ( #95 ), #278, .T. ) ;
#194 = FACE_OUTER_BOUND ( 'NONE', #9, .T. ) ;
#195 = UNCERTAINTY_MEASURE_WITH_UNIT (LENGTH_MEASURE( 1.000000000000000082E-05 ), #8, 'distance_accuracy_value', 'NONE');
#196 = ORIENTED_EDGE ( 'NONE', *, *, #215, .F. ) ;
#197 = CARTESIAN_POINT ( 'NONE',  ( 0.09375000000000001388, 1.148106374200643401E-17, 1.500000000000000222 ) ) ;
#198 = CIRCLE ( 'NONE', #213, 0.09375000000000001388 ) ;
#199 = ORIENTED_EDGE ( 'NONE', *, *, #85, .T. ) ;
#200 = CARTESIAN_POINT ( 'NONE',  ( 0.08586405000000002508, 0.0000000000000000000, 0.3130000000000000004 ) ) ;
#201 = PRODUCT_DEFINITION ( 'UNKNOWN', '', #117, #285 ) ;
#202 = ORIENTED_EDGE ( 'NONE', *, *, #282, .F. ) ;
#203 = AXIS2_PLACEMENT_3D ( 'NONE', #93, #120, #188 ) ;
#204 = ORIENTED_EDGE ( 'NONE', *, *, #130, .F. ) ;
#205 = EDGE_LOOP ( 'NONE', ( #196, #19, #35, #42 ) ) ;
#206 = DIRECTION ( 'NONE',  ( -1.224646799147353454E-16, -0.0000000000000000000, -1.000000000000000000 ) ) ;
#207 = AXIS2_PLACEMENT_3D ( 'NONE', #73, #97, #253 ) ;
#208 = DIRECTION ( 'NONE',  ( -0.1736481776669312194, 2.126576849575783625E-17, 0.9848077530122080203 ) ) ;
#209 = CARTESIAN_POINT ( 'NONE',  ( 3.833144481331216295E-17, 0.0000000000000000000, 0.3130000000000000004 ) ) ;
#210 = PRODUCT_RELATED_PRODUCT_CATEGORY ( 'part', '', ( #235 ) ) ;
#211 = FACE_OUTER_BOUND ( 'NONE', #205, .T. ) ;
#212 = CARTESIAN_POINT ( 'NONE',  ( 1.287754489664669484E-33, 0.0000000000000000000, 1.051531339943283186E-17 ) ) ;
#213 = AXIS2_PLACEMENT_3D ( 'NONE', #140, #236, #137 ) ;
#214 = DIRECTION ( 'NONE',  ( 1.000000000000000000, 0.0000000000000000000, 0.0000000000000000000 ) ) ;
#215 = EDGE_CURVE ( 'NONE', #174, #157, #70, .T. ) ;
#216 = ADVANCED_FACE ( 'NONE', ( #123 ), #57, .T. ) ;
#217 = AXIS2_PLACEMENT_3D ( 'NONE', #267, #58, #59 ) ;
#218 = AXIS2_PLACEMENT_3D ( 'NONE', #212, #1, #280 ) ;
#219 = DIRECTION ( 'NONE',  ( 1.000000000000000000, 0.0000000000000000000, 0.0000000000000000000 ) ) ;
#220 = UNCERTAINTY_MEASURE_WITH_UNIT (LENGTH_MEASURE( 1.000000000000000082E-05 ), #265, 'distance_accuracy_value', 'NONE');
#221 = CARTESIAN_POINT ( 'NONE',  ( 0.0000000000000000000, 0.0000000000000000000, 1.500000000000000222 ) ) ;
#222 = ORIENTED_EDGE ( 'NONE', *, *, #64, .F. ) ;
#223 =( GEOMETRIC_REPRESENTATION_CONTEXT ( 3 ) GLOBAL_UNCERTAINTY_ASSIGNED_CONTEXT ( ( #266 ) ) GLOBAL_UNIT_ASSIGNED_CONTEXT ( ( #56, #133, #176 ) ) REPRESENTATION_CONTEXT ( 'NONE', 'WORKASPACE' ) );
#224 = ORIENTED_EDGE ( 'NONE', *, *, #171, .F. ) ;
#225 = ORIENTED_EDGE ( 'NONE', *, *, #20, .T. ) ;
#226 = ORIENTED_EDGE ( 'NONE', *, *, #92, .F. ) ;
#227 = VECTOR ( 'NONE', #242, 39.37007874015748143 ) ;
#228 = VERTEX_POINT ( 'NONE', #124 ) ;
#229 = CARTESIAN_POINT ( 'NONE',  ( 0.08586404999999999732, 1.051531339943283032E-17, -1.895600338963814870E-33 ) ) ;
#230 = CARTESIAN_POINT ( 'NONE',  ( -0.07875000000000061118, 0.0000000000000000000, 1.500000000000000222 ) ) ;
#231 = SURFACE_STYLE_FILL_AREA ( #287 ) ;
#232 = CARTESIAN_POINT ( 'NONE',  ( 4.380848717343942177E-17, 0.0000000000000000000, 0.3577234448654141308 ) ) ;
#233 = AXIS2_PLACEMENT_3D ( 'NONE', #279, #66, #163 ) ;
#234 = CARTESIAN_POINT ( 'NONE',  ( 0.0000000000000000000, 0.0000000000000000000, 1.500000000000000222 ) ) ;
#235 = PRODUCT ( 'Micro_SEM-171-03X', 'Micro_SEM-171-03X', '', ( #13 ) ) ;
#236 = DIRECTION ( 'NONE',  ( 0.0000000000000000000, 0.0000000000000000000, -1.000000000000000000 ) ) ;
#237 =( NAMED_UNIT ( * ) SI_UNIT ( $, .STERADIAN. ) SOLID_ANGLE_UNIT ( ) );
#238 = LINE ( 'NONE', #105, #284 ) ;
#239 = DIRECTION ( 'NONE',  ( -0.0000000000000000000, -0.0000000000000000000, -1.000000000000000000 ) ) ;
#240 = AXIS2_PLACEMENT_3D ( 'NONE', #103, #29, #214 ) ;
#241 = ADVANCED_FACE ( 'NONE', ( #194 ), #28, .T. ) ;
#242 = DIRECTION ( 'NONE',  ( -0.0000000000000000000, -0.0000000000000000000, -1.000000000000000000 ) ) ;
#243 = ADVANCED_FACE ( 'NONE', ( #145 ), #148, .T. ) ;
#244 = ORIENTED_EDGE ( 'NONE', *, *, #215, .T. ) ;
#245 = ORIENTED_EDGE ( 'NONE', *, *, #269, .T. ) ;
#246 = AXIS2_PLACEMENT_3D ( 'NONE', #36, #126, #173 ) ;
#247 = ORIENTED_EDGE ( 'NONE', *, *, #110, .T. ) ;
#248 = ORIENTED_EDGE ( 'NONE', *, *, #178, .F. ) ;
#249 = EDGE_LOOP ( 'NONE', ( #181, #247, #289, #292 ) ) ;
#250 = AXIS2_PLACEMENT_3D ( 'NONE', #270, #61, #252 ) ;
#251 = CIRCLE ( 'NONE', #191, 0.08586404999999999732 ) ;
#252 = DIRECTION ( 'NONE',  ( 1.000000000000000000, 0.0000000000000000000, 0.0000000000000000000 ) ) ;
#253 = DIRECTION ( 'NONE',  ( -1.000000000000000000, 0.0000000000000000000, 0.0000000000000000000 ) ) ;
#254 = CARTESIAN_POINT ( 'NONE',  ( -0.08586404999999995569, 1.099818857071963371E-17, 0.3130000000000000004 ) ) ;
#255 = CARTESIAN_POINT ( 'NONE',  ( 0.0000000000000000000, 0.0000000000000000000, 0.0000000000000000000 ) ) ;
#256 = AXIS2_PLACEMENT_3D ( 'NONE', #48, #68, #4 ) ;
#257 = PLANE ( 'NONE',  #183 ) ;
#258 =( NAMED_UNIT ( * ) PLANE_ANGLE_UNIT ( ) SI_UNIT ( $, .RADIAN. ) );
#259 = FILL_AREA_STYLE ('',( #263 ) ) ;
#260 = EDGE_CURVE ( 'NONE', #65, #109, #238, .T. ) ;
#261 = AXIS2_PLACEMENT_3D ( 'NONE', #221, #32, #76 ) ;
#262 = DIRECTION ( 'NONE',  ( -0.0000000000000000000, -0.0000000000000000000, -1.000000000000000000 ) ) ;
#263 = FILL_AREA_STYLE_COLOUR ( '', #150 ) ;
#264 = STYLED_ITEM ( 'NONE', ( #81 ), #45 ) ;
#265 =( CONVERSION_BASED_UNIT ( 'INCH', #158 ) LENGTH_UNIT ( ) NAMED_UNIT ( #74 ) );
#266 = UNCERTAINTY_MEASURE_WITH_UNIT (LENGTH_MEASURE( 1.000000000000000082E-05 ), #56, 'distance_accuracy_value', 'NONE');
#267 = CARTESIAN_POINT ( 'NONE',  ( 0.0000000000000000000, 0.0000000000000000000, 0.0000000000000000000 ) ) ;
#268 = CLOSED_SHELL ( 'NONE', ( #193, #241, #40, #216, #243, #290, #78, #80, #11, #47 ) ) ;
#269 = EDGE_CURVE ( 'NONE', #157, #17, #146, .T. ) ;
#270 = CARTESIAN_POINT ( 'NONE',  ( 0.0000000000000000000, 0.0000000000000000000, 1.500000000000000222 ) ) ;
#271 = APPLICATION_CONTEXT ( 'automotive_design' ) ;
#272 = VERTEX_POINT ( 'NONE', #6 ) ;
#273 = ORIENTED_EDGE ( 'NONE', *, *, #20, .F. ) ;
#274 = FACE_OUTER_BOUND ( 'NONE', #104, .T. ) ;
#275 = CIRCLE ( 'NONE', #240, 0.09375000000000001388 ) ;
#276 = DIRECTION ( 'NONE',  ( -1.224646799147353454E-16, -0.0000000000000000000, -1.000000000000000000 ) ) ;
#277 = MANIFOLD_SOLID_BREP ( 'Cut-Revolve1', #268 ) ;
#278 = CYLINDRICAL_SURFACE ( 'NONE', #33, 0.08586404999999998344 ) ;
#279 = CARTESIAN_POINT ( 'NONE',  ( 3.833144481331216295E-17, 0.0000000000000000000, 0.3130000000000000004 ) ) ;
#280 = DIRECTION ( 'NONE',  ( -1.000000000000000000, 0.0000000000000000000, 1.224646799147353454E-16 ) ) ;
#281 = CARTESIAN_POINT ( 'NONE',  ( 0.0000000000000000000, 0.0000000000000000000, 1.500000000000000222 ) ) ;
#282 = EDGE_CURVE ( 'NONE', #159, #272, #251, .T. ) ;
#283 = DIRECTION ( 'NONE',  ( 1.000000000000000000, 0.0000000000000000000, -0.0000000000000000000 ) ) ;
#284 = VECTOR ( 'NONE', #262, 39.37007874015748143 ) ;
#285 = PRODUCT_DEFINITION_CONTEXT ( 'detailed design', #63, 'design' ) ;
#286 = CARTESIAN_POINT ( 'NONE',  ( 1.287754489664669484E-33, 0.0000000000000000000, 1.051531339943283186E-17 ) ) ;
#287 = FILL_AREA_STYLE ('',( #111 ) ) ;
#288 = AXIS2_PLACEMENT_3D ( 'NONE', #281, #75, #283 ) ;
#289 = ORIENTED_EDGE ( 'NONE', *, *, #260, .T. ) ;
#290 = ADVANCED_FACE ( 'NONE', ( #34 ), #168, .T. ) ;
#291 = DIRECTION ( 'NONE',  ( 0.1736481776669314137, 0.0000000000000000000, 0.9848077530122077983 ) ) ;
#292 = ORIENTED_EDGE ( 'NONE', *, *, #299, .F. ) ;
#293 = VECTOR ( 'NONE', #276, 39.37007874015748143 ) ;
#294 = VERTEX_POINT ( 'NONE', #167 ) ;
#295 = FACE_OUTER_BOUND ( 'NONE', #87, .T. ) ;
#296 = CARTESIAN_POINT ( 'NONE',  ( -0.09375000000000001388, 0.0000000000000000000, 1.485000000000000986 ) ) ;
#297 = AXIS2_PLACEMENT_3D ( 'NONE', #209, #50, #162 ) ;
#298 = CARTESIAN_POINT ( 'NONE',  ( 0.07875000000000061118, 1.056257864264595965E-17, 1.500000000000000222 ) ) ;
#299 = EDGE_CURVE ( 'NONE', #17, #109, #275, .T. ) ;
ENDSEC;
END-ISO-10303-21;
