ISO-10303-21;
HEADER;
FILE_DESCRIPTION (( 'STEP AP214' ),
    '1' );
FILE_NAME ('Micro_GEMM-060-2X.STEP',
    '2021-09-01T21:41:35',
    ( '' ),
    ( '' ),
    'SwSTEP 2.0',
    'SolidWorks 2020',
    '' );
FILE_SCHEMA (( 'AUTOMOTIVE_DESIGN' ));
ENDSEC;

DATA;
#1 = CARTESIAN_POINT ( 'NONE',  ( 0.0000000000000000000, 0.0000000000000000000, 0.0000000000000000000 ) ) ;
#2 = AXIS2_PLACEMENT_3D ( 'NONE', #193, #76, #80 ) ;
#3 = CARTESIAN_POINT ( 'NONE',  ( 4.821446694711121291E-17, 0.0000000000000000000, 0.3937009999999999676 ) ) ;
#4 =( NAMED_UNIT ( * ) PLANE_ANGLE_UNIT ( ) SI_UNIT ( $, .RADIAN. ) );
#5 = LINE ( 'NONE', #211, #216 ) ;
#6 = CONICAL_SURFACE ( 'NONE', #45, 0.1179918900000000159, 0.1745329251994338637 ) ;
#7 = EDGE_CURVE ( 'NONE', #292, #57, #273, .T. ) ;
#8 = APPLICATION_PROTOCOL_DEFINITION ( 'draft international standard', 'automotive_design', 1998, #231 ) ;
#9 = ORIENTED_EDGE ( 'NONE', *, *, #239, .T. ) ;
#10 = ORIENTED_EDGE ( 'NONE', *, *, #181, .F. ) ;
#11 = CIRCLE ( 'NONE', #49, 0.1181100000000000066 ) ;
#12 = ADVANCED_FACE ( 'NONE', ( #15 ), #73, .T. ) ;
#13 = ORIENTED_EDGE ( 'NONE', *, *, #99, .T. ) ;
#14 = VERTEX_POINT ( 'NONE', #248 ) ;
#15 = FACE_OUTER_BOUND ( 'NONE', #128, .T. ) ;
#16 = DIRECTION ( 'NONE',  ( -0.0000000000000000000, -0.0000000000000000000, -1.000000000000000000 ) ) ;
#17 = FACE_OUTER_BOUND ( 'NONE', #174, .T. ) ;
#18 = FACE_OUTER_BOUND ( 'NONE', #226, .T. ) ;
#19 = CONICAL_SURFACE ( 'NONE', #83, 0.1031100000000002570, 0.7853981633974318477 ) ;
#20 = DIRECTION ( 'NONE',  ( 1.000000000000000000, 0.0000000000000000000, -0.0000000000000000000 ) ) ;
#21 = EDGE_CURVE ( 'NONE', #122, #172, #228, .T. ) ;
#22 = LINE ( 'NONE', #43, #173 ) ;
#23 = DIRECTION ( 'NONE',  ( -1.224646799147353207E-16, -0.0000000000000000000, -1.000000000000000000 ) ) ;
#24 = EDGE_CURVE ( 'NONE', #82, #268, #31, .T. ) ;
#25 = CARTESIAN_POINT ( 'NONE',  ( -0.1179918899999999604, 1.445707119305702357E-17, 0.3937009999999999676 ) ) ;
#26 = CIRCLE ( 'NONE', #178, 0.1031100000000002570 ) ;
#27 = LINE ( 'NONE', #50, #114 ) ;
#28 = UNCERTAINTY_MEASURE_WITH_UNIT (LENGTH_MEASURE( 1.000000000000000082E-05 ), #59, 'distance_accuracy_value', 'NONE');
#29 = CARTESIAN_POINT ( 'NONE',  ( 0.0000000000000000000, 0.0000000000000000000, 2.244094000000000033 ) ) ;
#30 = DIRECTION ( 'NONE',  ( -1.224646799147353207E-16, -0.0000000000000000000, -1.000000000000000000 ) ) ;
#31 = CIRCLE ( 'NONE', #264, 0.1181100000000000066 ) ;
#32 = ORIENTED_EDGE ( 'NONE', *, *, #139, .F. ) ;
#33 = DIRECTION ( 'NONE',  ( 1.000000000000000000, 0.0000000000000000000, 0.0000000000000000000 ) ) ;
#34 = ORIENTED_EDGE ( 'NONE', *, *, #227, .T. ) ;
#35 = STYLED_ITEM ( 'NONE', ( #282 ), #201 ) ;
#36 = EDGE_LOOP ( 'NONE', ( #244, #13 ) ) ;
#37 =( NAMED_UNIT ( * ) SI_UNIT ( $, .STERADIAN. ) SOLID_ANGLE_UNIT ( ) );
#38 = ORIENTED_EDGE ( 'NONE', *, *, #66, .F. ) ;
#39 = DIRECTION ( 'NONE',  ( 1.000000000000000000, 0.0000000000000000000, 0.0000000000000000000 ) ) ;
#40 = EDGE_CURVE ( 'NONE', #268, #101, #22, .T. ) ;
#41 = CIRCLE ( 'NONE', #209, 0.1179918900000000159 ) ;
#42 = CARTESIAN_POINT ( 'NONE',  ( 0.0000000000000000000, 0.0000000000000000000, 2.229093999999999465 ) ) ;
#43 = CARTESIAN_POINT ( 'NONE',  ( 0.1181100000000000066, 1.446430334472939084E-17, 2.244094000000000033 ) ) ;
#44 = CARTESIAN_POINT ( 'NONE',  ( 0.0000000000000000000, 0.0000000000000000000, 2.244094000000000033 ) ) ;
#45 = AXIS2_PLACEMENT_3D ( 'NONE', #116, #251, #254 ) ;
#46 = DIRECTION ( 'NONE',  ( 1.000000000000000000, 0.0000000000000000000, 0.0000000000000000000 ) ) ;
#47 = APPLICATION_CONTEXT ( 'automotive_design' ) ;
#48 = CARTESIAN_POINT ( 'NONE',  ( 0.0000000000000000000, 0.0000000000000000000, 2.244094000000000033 ) ) ;
#49 = AXIS2_PLACEMENT_3D ( 'NONE', #217, #23, #94 ) ;
#50 = CARTESIAN_POINT ( 'NONE',  ( 0.1179918900000000159, 1.444983904138465938E-17, -1.444983904138465938E-17 ) ) ;
#51 = EDGE_CURVE ( 'NONE', #268, #82, #134, .T. ) ;
#52 = SURFACE_STYLE_USAGE ( .BOTH. , #258 ) ;
#53 = EDGE_LOOP ( 'NONE', ( #107, #34, #263, #127 ) ) ;
#54 = FILL_AREA_STYLE ('',( #265 ) ) ;
#55 = ORIENTED_EDGE ( 'NONE', *, *, #40, .T. ) ;
#56 = LENGTH_MEASURE_WITH_UNIT ( LENGTH_MEASURE( 0.02539999999999999897 ), #267 );
#57 = VERTEX_POINT ( 'NONE', #132 ) ;
#58 = ORIENTED_EDGE ( 'NONE', *, *, #96, .F. ) ;
#59 =( CONVERSION_BASED_UNIT ( 'INCH', #72 ) LENGTH_UNIT ( ) NAMED_UNIT ( #285 ) );
#60 = CARTESIAN_POINT ( 'NONE',  ( -0.1179918900000000159, 0.0000000000000000000, 1.444983904138465938E-17 ) ) ;
#61 = ADVANCED_FACE ( 'NONE', ( #18 ), #275, .F. ) ;
#62 = DIRECTION ( 'NONE',  ( -0.7071067811865358044, 0.0000000000000000000, -0.7071067811865590080 ) ) ;
#63 = DIRECTION ( 'NONE',  ( 1.000000000000000000, 0.0000000000000000000, -0.0000000000000000000 ) ) ;
#64 = STYLED_ITEM ( 'NONE', ( #262 ), #143 ) ;
#65 = DIRECTION ( 'NONE',  ( -1.224646799147353207E-16, -0.0000000000000000000, -1.000000000000000000 ) ) ;
#66 = EDGE_CURVE ( 'NONE', #245, #101, #232, .T. ) ;
#67 = CARTESIAN_POINT ( 'NONE',  ( 0.0000000000000000000, 0.0000000000000000000, 2.229093999999999465 ) ) ;
#68 = CARTESIAN_POINT ( 'NONE',  ( 4.829649808770360457E-17, 0.0000000000000000000, 0.3943708350957150222 ) ) ;
#69 = AXIS2_PLACEMENT_3D ( 'NONE', #1, #185, #71 ) ;
#70 = SURFACE_STYLE_FILL_AREA ( #138 ) ;
#71 = DIRECTION ( 'NONE',  ( -1.000000000000000000, 0.0000000000000000000, 1.224646799147352961E-16 ) ) ;
#72 = LENGTH_MEASURE_WITH_UNIT ( LENGTH_MEASURE( 0.02539999999999999897 ), #210 );
#73 = CONICAL_SURFACE ( 'NONE', #119, 0.1179918900000000159, 0.1745329251994338637 ) ;
#74 = EDGE_CURVE ( 'NONE', #57, #104, #130, .T. ) ;
#75 = DIRECTION ( 'NONE',  ( -0.0000000000000000000, -0.0000000000000000000, -1.000000000000000000 ) ) ;
#76 = DIRECTION ( 'NONE',  ( 0.0000000000000000000, 0.0000000000000000000, 1.000000000000000000 ) ) ;
#77 = AXIS2_PLACEMENT_3D ( 'NONE', #84, #218, #202 ) ;
#78 = EDGE_LOOP ( 'NONE', ( #195, #9, #169, #38 ) ) ;
#79 = ORIENTED_EDGE ( 'NONE', *, *, #74, .T. ) ;
#80 = DIRECTION ( 'NONE',  ( 1.000000000000000000, 0.0000000000000000000, 0.0000000000000000000 ) ) ;
#81 = ORIENTED_EDGE ( 'NONE', *, *, #24, .T. ) ;
#82 = VERTEX_POINT ( 'NONE', #203 ) ;
#83 = AXIS2_PLACEMENT_3D ( 'NONE', #280, #92, #208 ) ;
#84 = CARTESIAN_POINT ( 'NONE',  ( 0.0000000000000000000, 0.0000000000000000000, 2.244094000000000033 ) ) ;
#85 = DIRECTION ( 'NONE',  ( -1.000000000000000000, 0.0000000000000000000, 1.224646799147353454E-16 ) ) ;
#86 = FACE_OUTER_BOUND ( 'NONE', #53, .T. ) ;
#87 = EDGE_CURVE ( 'NONE', #14, #101, #260, .T. ) ;
#88 = AXIS2_PLACEMENT_3D ( 'NONE', #205, #175, #63 ) ;
#89 = CARTESIAN_POINT ( 'NONE',  ( 0.1179918900000000576, 0.0000000000000000000, 0.3937009999999999676 ) ) ;
#90 = LINE ( 'NONE', #235, #246 ) ;
#91 = DIRECTION ( 'NONE',  ( -1.000000000000000000, 0.0000000000000000000, 0.0000000000000000000 ) ) ;
#92 = DIRECTION ( 'NONE',  ( 0.0000000000000000000, 0.0000000000000000000, -1.000000000000000000 ) ) ;
#93 = DIRECTION ( 'NONE',  ( -1.224646799147353207E-16, -0.0000000000000000000, -1.000000000000000000 ) ) ;
#94 = DIRECTION ( 'NONE',  ( 1.000000000000000000, 0.0000000000000000000, 0.0000000000000000000 ) ) ;
#95 = ORIENTED_EDGE ( 'NONE', *, *, #199, .F. ) ;
#96 = EDGE_CURVE ( 'NONE', #104, #57, #150, .T. ) ;
#97 = AXIS2_PLACEMENT_3D ( 'NONE', #48, #75, #91 ) ;
#98 = CLOSED_SHELL ( 'NONE', ( #159, #108, #270, #281, #126, #117, #219, #12, #298, #61 ) ) ;
#99 = EDGE_CURVE ( 'NONE', #172, #122, #26, .T. ) ;
#100 = SURFACE_STYLE_USAGE ( .BOTH. , #144 ) ;
#101 = VERTEX_POINT ( 'NONE', #136 ) ;
#102 =( NAMED_UNIT ( * ) SI_UNIT ( $, .STERADIAN. ) SOLID_ANGLE_UNIT ( ) );
#103 = COLOUR_RGB ( '',0.7921568627450980005, 0.8196078431372548767, 0.9333333333333333481 ) ;
#104 = VERTEX_POINT ( 'NONE', #155 ) ;
#105 =( NAMED_UNIT ( * ) PLANE_ANGLE_UNIT ( ) SI_UNIT ( $, .RADIAN. ) );
#106 = ORIENTED_EDGE ( 'NONE', *, *, #40, .F. ) ;
#107 = ORIENTED_EDGE ( 'NONE', *, *, #287, .T. ) ;
#108 = ADVANCED_FACE ( 'NONE', ( #176 ), #6, .T. ) ;
#109 = ORIENTED_EDGE ( 'NONE', *, *, #99, .F. ) ;
#110 =( GEOMETRIC_REPRESENTATION_CONTEXT ( 3 ) GLOBAL_UNCERTAINTY_ASSIGNED_CONTEXT ( ( #141 ) ) GLOBAL_UNIT_ASSIGNED_CONTEXT ( ( #238, #4, #183 ) ) REPRESENTATION_CONTEXT ( 'NONE', 'WORKASPACE' ) );
#111 = DIRECTION ( 'NONE',  ( -1.224646799147353207E-16, -0.0000000000000000000, -1.000000000000000000 ) ) ;
#112 = CARTESIAN_POINT ( 'NONE',  ( 0.0000000000000000000, 0.0000000000000000000, 2.244094000000000033 ) ) ;
#113 = DIRECTION ( 'NONE',  ( -0.0000000000000000000, -0.0000000000000000000, -1.000000000000000000 ) ) ;
#114 = VECTOR ( 'NONE', #30, 39.37007874015748143 ) ;
#115 = DIRECTION ( 'NONE',  ( -1.224646799147353207E-16, -0.0000000000000000000, -1.000000000000000000 ) ) ;
#116 = CARTESIAN_POINT ( 'NONE',  ( 4.821446694711121291E-17, 0.0000000000000000000, 0.3937009999999999676 ) ) ;
#117 = ADVANCED_FACE ( 'NONE', ( #230 ), #182, .T. ) ;
#118 = CARTESIAN_POINT ( 'NONE',  ( -0.1179918899999999604, 1.444983904138465938E-17, 0.3937009999999999676 ) ) ;
#119 = AXIS2_PLACEMENT_3D ( 'NONE', #153, #293, #33 ) ;
#120 = CYLINDRICAL_SURFACE ( 'NONE', #69, 0.1179918900000000159 ) ;
#121 =( LENGTH_UNIT ( ) NAMED_UNIT ( * ) SI_UNIT ( $, .METRE. ) );
#122 = VERTEX_POINT ( 'NONE', #295 ) ;
#123 = ORIENTED_EDGE ( 'NONE', *, *, #66, .T. ) ;
#124 = VECTOR ( 'NONE', #278, 39.37007874015748143 ) ;
#125 = ORIENTED_EDGE ( 'NONE', *, *, #7, .T. ) ;
#126 = ADVANCED_FACE ( 'NONE', ( #17 ), #229, .T. ) ;
#127 = ORIENTED_EDGE ( 'NONE', *, *, #7, .F. ) ;
#128 = EDGE_LOOP ( 'NONE', ( #212, #95, #123, #221 ) ) ;
#129 = DIRECTION ( 'NONE',  ( -1.224646799147353207E-16, -0.0000000000000000000, -1.000000000000000000 ) ) ;
#130 = CIRCLE ( 'NONE', #187, 0.1179918899999999882 ) ;
#131 = DIRECTION ( 'NONE',  ( -1.000000000000000000, 0.0000000000000000000, 1.224646799147353454E-16 ) ) ;
#132 = CARTESIAN_POINT ( 'NONE',  ( -0.1179918899999999882, 0.0000000000000000000, 2.889967808276931875E-17 ) ) ;
#133 = DIRECTION ( 'NONE',  ( 0.0000000000000000000, 0.0000000000000000000, -1.000000000000000000 ) ) ;
#134 = CIRCLE ( 'NONE', #250, 0.1181100000000000066 ) ;
#135 = COLOUR_RGB ( '',0.7921568627450980005, 0.8196078431372548767, 0.9333333333333333481 ) ;
#136 = CARTESIAN_POINT ( 'NONE',  ( 0.1181100000000000622, 1.446430334472939701E-17, 0.3943708350957150222 ) ) ;
#137 = DIRECTION ( 'NONE',  ( -1.000000000000000000, 0.0000000000000000000, 0.0000000000000000000 ) ) ;
#138 = FILL_AREA_STYLE ('',( #261 ) ) ;
#139 = EDGE_CURVE ( 'NONE', #122, #82, #274, .T. ) ;
#140 = DIRECTION ( 'NONE',  ( -0.0000000000000000000, -0.0000000000000000000, -1.000000000000000000 ) ) ;
#141 = UNCERTAINTY_MEASURE_WITH_UNIT (LENGTH_MEASURE( 1.000000000000000082E-05 ), #238, 'distance_accuracy_value', 'NONE');
#142 = LINE ( 'NONE', #118, #164 ) ;
#143 = ADVANCED_BREP_SHAPE_REPRESENTATION ( 'Micro_GEMM-060-2X', ( #201, #2 ), #165 ) ;
#144 = SURFACE_SIDE_STYLE ('',( #224 ) ) ;
#145 = ORIENTED_EDGE ( 'NONE', *, *, #199, .T. ) ;
#146 =( NAMED_UNIT ( * ) PLANE_ANGLE_UNIT ( ) SI_UNIT ( $, .RADIAN. ) );
#147 = ORIENTED_EDGE ( 'NONE', *, *, #24, .F. ) ;
#148 =( CONVERSION_BASED_UNIT ( 'INCH', #56 ) LENGTH_UNIT ( ) NAMED_UNIT ( #223 ) );
#149 = ORIENTED_EDGE ( 'NONE', *, *, #51, .T. ) ;
#150 = CIRCLE ( 'NONE', #156, 0.1179918899999999882 ) ;
#151 = EDGE_LOOP ( 'NONE', ( #81, #55, #225, #192 ) ) ;
#152 = PRODUCT_DEFINITION_FORMATION_WITH_SPECIFIED_SOURCE ( 'ANY', '', #207, .NOT_KNOWN. ) ;
#153 = CARTESIAN_POINT ( 'NONE',  ( 4.821446694711121291E-17, 0.0000000000000000000, 0.3937009999999999676 ) ) ;
#154 = DIRECTION ( 'NONE',  ( 1.000000000000000000, 0.0000000000000000000, 0.0000000000000000000 ) ) ;
#155 = CARTESIAN_POINT ( 'NONE',  ( 0.1179918899999999882, 1.444983904138465938E-17, -1.895600338963814870E-33 ) ) ;
#156 = AXIS2_PLACEMENT_3D ( 'NONE', #157, #129, #85 ) ;
#157 = CARTESIAN_POINT ( 'NONE',  ( 1.769594913022618037E-33, 0.0000000000000000000, 1.444983904138465938E-17 ) ) ;
#158 = CARTESIAN_POINT ( 'NONE',  ( 1.769594913022618037E-33, 0.0000000000000000000, 1.444983904138465938E-17 ) ) ;
#159 = ADVANCED_FACE ( 'NONE', ( #86 ), #177, .T. ) ;
#160 = CARTESIAN_POINT ( 'NONE',  ( 4.821446694711121291E-17, 0.0000000000000000000, 0.3937009999999999676 ) ) ;
#161 = CARTESIAN_POINT ( 'NONE',  ( 0.1179918900000000576, 0.0000000000000000000, 0.3937009999999999676 ) ) ;
#162 = PRODUCT_DEFINITION ( 'UNKNOWN', '', #152, #283 ) ;
#163 = DIRECTION ( 'NONE',  ( -0.1736481776669311639, 2.126576849575783008E-17, 0.9848077530122080203 ) ) ;
#164 = VECTOR ( 'NONE', #163, 39.37007874015747433 ) ;
#165 =( GEOMETRIC_REPRESENTATION_CONTEXT ( 3 ) GLOBAL_UNCERTAINTY_ASSIGNED_CONTEXT ( ( #28 ) ) GLOBAL_UNIT_ASSIGNED_CONTEXT ( ( #59, #105, #102 ) ) REPRESENTATION_CONTEXT ( 'NONE', 'WORKASPACE' ) );
#166 = FACE_OUTER_BOUND ( 'NONE', #190, .T. ) ;
#167 =( GEOMETRIC_REPRESENTATION_CONTEXT ( 3 ) GLOBAL_UNCERTAINTY_ASSIGNED_CONTEXT ( ( #213 ) ) GLOBAL_UNIT_ASSIGNED_CONTEXT ( ( #148, #146, #37 ) ) REPRESENTATION_CONTEXT ( 'NONE', 'WORKASPACE' ) );
#168 = DIRECTION ( 'NONE',  ( -1.224646799147353207E-16, -0.0000000000000000000, -1.000000000000000000 ) ) ;
#169 = ORIENTED_EDGE ( 'NONE', *, *, #87, .T. ) ;
#170 = DIMENSIONAL_EXPONENTS ( 1.000000000000000000, 0.0000000000000000000, 0.0000000000000000000, 0.0000000000000000000, 0.0000000000000000000, 0.0000000000000000000, 0.0000000000000000000 ) ;
#171 = APPLICATION_PROTOCOL_DEFINITION ( 'draft international standard', 'automotive_design', 1998, #47 ) ;
#172 = VERTEX_POINT ( 'NONE', #253 ) ;
#173 = VECTOR ( 'NONE', #113, 39.37007874015748143 ) ;
#174 = EDGE_LOOP ( 'NONE', ( #106, #149, #291, #198 ) ) ;
#175 = DIRECTION ( 'NONE',  ( 0.0000000000000000000, 0.0000000000000000000, 1.000000000000000000 ) ) ;
#176 = FACE_OUTER_BOUND ( 'NONE', #78, .T. ) ;
#177 = CYLINDRICAL_SURFACE ( 'NONE', #237, 0.1179918900000000159 ) ;
#178 = AXIS2_PLACEMENT_3D ( 'NONE', #249, #180, #154 ) ;
#179 = PRODUCT_DEFINITION_SHAPE ( 'NONE', 'NONE',  #162 ) ;
#180 = DIRECTION ( 'NONE',  ( 0.0000000000000000000, 0.0000000000000000000, 1.000000000000000000 ) ) ;
#181 = EDGE_CURVE ( 'NONE', #172, #268, #90, .T. ) ;
#182 = PLANE ( 'NONE',  #191 ) ;
#183 =( NAMED_UNIT ( * ) SI_UNIT ( $, .STERADIAN. ) SOLID_ANGLE_UNIT ( ) );
#184 = AXIS2_PLACEMENT_3D ( 'NONE', #29, #188, #214 ) ;
#185 = DIRECTION ( 'NONE',  ( -1.224646799147353207E-16, -0.0000000000000000000, -1.000000000000000000 ) ) ;
#186 = CARTESIAN_POINT ( 'NONE',  ( 0.1181100000000000066, 1.446430334472939084E-17, 2.229093999999999465 ) ) ;
#187 = AXIS2_PLACEMENT_3D ( 'NONE', #158, #111, #131 ) ;
#188 = DIRECTION ( 'NONE',  ( 0.0000000000000000000, 0.0000000000000000000, -1.000000000000000000 ) ) ;
#189 = SHAPE_DEFINITION_REPRESENTATION ( #179, #143 ) ;
#190 = EDGE_LOOP ( 'NONE', ( #288, #145, #125, #58 ) ) ;
#191 = AXIS2_PLACEMENT_3D ( 'NONE', #44, #233, #20 ) ;
#192 = ORIENTED_EDGE ( 'NONE', *, *, #215, .F. ) ;
#193 = CARTESIAN_POINT ( 'NONE',  ( 0.0000000000000000000, 0.0000000000000000000, 0.0000000000000000000 ) ) ;
#194 = ORIENTED_EDGE ( 'NONE', *, *, #51, .F. ) ;
#195 = ORIENTED_EDGE ( 'NONE', *, *, #287, .F. ) ;
#196 = PRESENTATION_LAYER_ASSIGNMENT (  '', '', ( #35 ) ) ;
#197 = PRESENTATION_LAYER_ASSIGNMENT (  '', '', ( #64 ) ) ;
#198 = ORIENTED_EDGE ( 'NONE', *, *, #252, .F. ) ;
#199 = EDGE_CURVE ( 'NONE', #245, #292, #41, .T. ) ;
#200 = DIRECTION ( 'NONE',  ( -1.000000000000000000, 0.0000000000000000000, 0.0000000000000000000 ) ) ;
#201 = MANIFOLD_SOLID_BREP ( 'Cut-Revolve1', #98 ) ;
#202 = DIRECTION ( 'NONE',  ( 1.000000000000000000, 0.0000000000000000000, 0.0000000000000000000 ) ) ;
#203 = CARTESIAN_POINT ( 'NONE',  ( -0.1181100000000000066, 0.0000000000000000000, 2.229093999999999465 ) ) ;
#204 = CONICAL_SURFACE ( 'NONE', #184, 0.1031100000000002570, 0.7853981633974318477 ) ;
#205 = CARTESIAN_POINT ( 'NONE',  ( 0.0000000000000000000, 0.0000000000000000000, 0.0000000000000000000 ) ) ;
#206 = DIRECTION ( 'NONE',  ( 1.000000000000000000, 0.0000000000000000000, 0.0000000000000000000 ) ) ;
#207 = PRODUCT ( 'Micro_GEMM-060-2X', 'Micro_GEMM-060-2X', '', ( #220 ) ) ;
#208 = DIRECTION ( 'NONE',  ( -1.000000000000000000, 0.0000000000000000000, 0.0000000000000000000 ) ) ;
#209 = AXIS2_PLACEMENT_3D ( 'NONE', #160, #255, #299 ) ;
#210 =( LENGTH_UNIT ( ) NAMED_UNIT ( * ) SI_UNIT ( $, .METRE. ) );
#211 = CARTESIAN_POINT ( 'NONE',  ( -0.1181100000000000066, 0.0000000000000000000, 2.244094000000000033 ) ) ;
#212 = ORIENTED_EDGE ( 'NONE', *, *, #239, .F. ) ;
#213 = UNCERTAINTY_MEASURE_WITH_UNIT (LENGTH_MEASURE( 1.000000000000000082E-05 ), #148, 'distance_accuracy_value', 'NONE');
#214 = DIRECTION ( 'NONE',  ( -1.000000000000000000, 0.0000000000000000000, 0.0000000000000000000 ) ) ;
#215 = EDGE_CURVE ( 'NONE', #82, #14, #5, .T. ) ;
#216 = VECTOR ( 'NONE', #140, 39.37007874015748143 ) ;
#217 = CARTESIAN_POINT ( 'NONE',  ( 4.829649808770360457E-17, 0.0000000000000000000, 0.3943708350957150222 ) ) ;
#218 = DIRECTION ( 'NONE',  ( 0.0000000000000000000, 0.0000000000000000000, 1.000000000000000000 ) ) ;
#219 = ADVANCED_FACE ( 'NONE', ( #241 ), #204, .T. ) ;
#220 = PRODUCT_CONTEXT ( 'NONE', #47, 'mechanical' ) ;
#221 = ORIENTED_EDGE ( 'NONE', *, *, #252, .T. ) ;
#222 = ORIENTED_EDGE ( 'NONE', *, *, #181, .T. ) ;
#223 = DIMENSIONAL_EXPONENTS ( 1.000000000000000000, 0.0000000000000000000, 0.0000000000000000000, 0.0000000000000000000, 0.0000000000000000000, 0.0000000000000000000, 0.0000000000000000000 ) ;
#224 = SURFACE_STYLE_FILL_AREA ( #54 ) ;
#225 = ORIENTED_EDGE ( 'NONE', *, *, #87, .F. ) ;
#226 = EDGE_LOOP ( 'NONE', ( #79, #243 ) ) ;
#227 = EDGE_CURVE ( 'NONE', #245, #104, #27, .T. ) ;
#228 = CIRCLE ( 'NONE', #77, 0.1031100000000002570 ) ;
#229 = CYLINDRICAL_SURFACE ( 'NONE', #234, 0.1181100000000000066 ) ;
#230 = FACE_OUTER_BOUND ( 'NONE', #36, .T. ) ;
#231 = APPLICATION_CONTEXT ( 'automotive_design' ) ;
#232 = LINE ( 'NONE', #89, #124 ) ;
#233 = DIRECTION ( 'NONE',  ( 0.0000000000000000000, 0.0000000000000000000, 1.000000000000000000 ) ) ;
#234 = AXIS2_PLACEMENT_3D ( 'NONE', #112, #16, #200 ) ;
#235 = CARTESIAN_POINT ( 'NONE',  ( 0.1031100000000002570, 1.262733314600838667E-17, 2.244094000000000033 ) ) ;
#236 = FACE_OUTER_BOUND ( 'NONE', #269, .T. ) ;
#237 = AXIS2_PLACEMENT_3D ( 'NONE', #277, #115, #297 ) ;
#238 =( CONVERSION_BASED_UNIT ( 'INCH', #259 ) LENGTH_UNIT ( ) NAMED_UNIT ( #170 ) );
#239 = EDGE_CURVE ( 'NONE', #292, #14, #142, .T. ) ;
#240 = FACE_OUTER_BOUND ( 'NONE', #151, .T. ) ;
#241 = FACE_OUTER_BOUND ( 'NONE', #247, .T. ) ;
#242 = VECTOR ( 'NONE', #62, 39.37007874015748854 ) ;
#243 = ORIENTED_EDGE ( 'NONE', *, *, #96, .T. ) ;
#244 = ORIENTED_EDGE ( 'NONE', *, *, #21, .T. ) ;
#245 = VERTEX_POINT ( 'NONE', #161 ) ;
#246 = VECTOR ( 'NONE', #279, 39.37007874015748854 ) ;
#247 = EDGE_LOOP ( 'NONE', ( #10, #290, #266, #194 ) ) ;
#248 = CARTESIAN_POINT ( 'NONE',  ( -0.1181099999999999650, 0.0000000000000000000, 0.3943708350957150222 ) ) ;
#249 = CARTESIAN_POINT ( 'NONE',  ( 0.0000000000000000000, 0.0000000000000000000, 2.244094000000000033 ) ) ;
#250 = AXIS2_PLACEMENT_3D ( 'NONE', #67, #133, #46 ) ;
#251 = DIRECTION ( 'NONE',  ( 1.224646799147353207E-16, 0.0000000000000000000, 1.000000000000000000 ) ) ;
#252 = EDGE_CURVE ( 'NONE', #101, #14, #11, .T. ) ;
#253 = CARTESIAN_POINT ( 'NONE',  ( 0.1031100000000002570, 1.354581824536888722E-17, 2.244094000000000033 ) ) ;
#254 = DIRECTION ( 'NONE',  ( 1.000000000000000000, 0.0000000000000000000, 0.0000000000000000000 ) ) ;
#255 = DIRECTION ( 'NONE',  ( -1.224646799147353207E-16, -0.0000000000000000000, -1.000000000000000000 ) ) ;
#256 = AXIS2_PLACEMENT_3D ( 'NONE', #3, #93, #137 ) ;
#257 = PRODUCT_RELATED_PRODUCT_CATEGORY ( 'part', '', ( #207 ) ) ;
#258 = SURFACE_SIDE_STYLE ('',( #70 ) ) ;
#259 = LENGTH_MEASURE_WITH_UNIT ( LENGTH_MEASURE( 0.02539999999999999897 ), #121 );
#260 = CIRCLE ( 'NONE', #289, 0.1181100000000000066 ) ;
#261 = FILL_AREA_STYLE_COLOUR ( '', #103 ) ;
#262 = PRESENTATION_STYLE_ASSIGNMENT (( #100 ) ) ;
#263 = ORIENTED_EDGE ( 'NONE', *, *, #74, .F. ) ;
#264 = AXIS2_PLACEMENT_3D ( 'NONE', #42, #296, #206 ) ;
#265 = FILL_AREA_STYLE_COLOUR ( '', #135 ) ;
#266 = ORIENTED_EDGE ( 'NONE', *, *, #139, .T. ) ;
#267 =( LENGTH_UNIT ( ) NAMED_UNIT ( * ) SI_UNIT ( $, .METRE. ) );
#268 = VERTEX_POINT ( 'NONE', #186 ) ;
#269 = EDGE_LOOP ( 'NONE', ( #109, #222, #147, #32 ) ) ;
#270 = ADVANCED_FACE ( 'NONE', ( #236 ), #19, .T. ) ;
#271 = CIRCLE ( 'NONE', #256, 0.1179918900000000159 ) ;
#272 = MECHANICAL_DESIGN_GEOMETRIC_PRESENTATION_REPRESENTATION (  '', ( #64 ), #167 ) ;
#273 = LINE ( 'NONE', #60, #286 ) ;
#274 = LINE ( 'NONE', #294, #242 ) ;
#275 = PLANE ( 'NONE',  #88 ) ;
#276 = MECHANICAL_DESIGN_GEOMETRIC_PRESENTATION_REPRESENTATION (  '', ( #35 ), #110 ) ;
#277 = CARTESIAN_POINT ( 'NONE',  ( 0.0000000000000000000, 0.0000000000000000000, 0.0000000000000000000 ) ) ;
#278 = DIRECTION ( 'NONE',  ( 0.1736481776669313581, 0.0000000000000000000, 0.9848077530122077983 ) ) ;
#279 = DIRECTION ( 'NONE',  ( 0.7071067811865358044, 8.659560562354788645E-17, -0.7071067811865590080 ) ) ;
#280 = CARTESIAN_POINT ( 'NONE',  ( 0.0000000000000000000, 0.0000000000000000000, 2.244094000000000033 ) ) ;
#281 = ADVANCED_FACE ( 'NONE', ( #240 ), #284, .T. ) ;
#282 = PRESENTATION_STYLE_ASSIGNMENT (( #52 ) ) ;
#283 = PRODUCT_DEFINITION_CONTEXT ( 'detailed design', #231, 'design' ) ;
#284 = CYLINDRICAL_SURFACE ( 'NONE', #97, 0.1181100000000000066 ) ;
#285 = DIMENSIONAL_EXPONENTS ( 1.000000000000000000, 0.0000000000000000000, 0.0000000000000000000, 0.0000000000000000000, 0.0000000000000000000, 0.0000000000000000000, 0.0000000000000000000 ) ;
#286 = VECTOR ( 'NONE', #168, 39.37007874015748143 ) ;
#287 = EDGE_CURVE ( 'NONE', #292, #245, #271, .T. ) ;
#288 = ORIENTED_EDGE ( 'NONE', *, *, #227, .F. ) ;
#289 = AXIS2_PLACEMENT_3D ( 'NONE', #68, #65, #39 ) ;
#290 = ORIENTED_EDGE ( 'NONE', *, *, #21, .F. ) ;
#291 = ORIENTED_EDGE ( 'NONE', *, *, #215, .T. ) ;
#292 = VERTEX_POINT ( 'NONE', #25 ) ;
#293 = DIRECTION ( 'NONE',  ( 1.224646799147353207E-16, 0.0000000000000000000, 1.000000000000000000 ) ) ;
#294 = CARTESIAN_POINT ( 'NONE',  ( -0.1031100000000002570, 0.0000000000000000000, 2.244094000000000033 ) ) ;
#295 = CARTESIAN_POINT ( 'NONE',  ( -0.1031100000000002570, 0.0000000000000000000, 2.244094000000000033 ) ) ;
#296 = DIRECTION ( 'NONE',  ( 0.0000000000000000000, 0.0000000000000000000, -1.000000000000000000 ) ) ;
#297 = DIRECTION ( 'NONE',  ( -1.000000000000000000, 0.0000000000000000000, 1.224646799147352961E-16 ) ) ;
#298 = ADVANCED_FACE ( 'NONE', ( #166 ), #120, .T. ) ;
#299 = DIRECTION ( 'NONE',  ( -1.000000000000000000, 0.0000000000000000000, 0.0000000000000000000 ) ) ;
ENDSEC;
END-ISO-10303-21;
