ISO-10303-21;
HEADER;
FILE_DESCRIPTION (( 'STEP AP214' ),
    '1' );
FILE_NAME ('59829.STEP',
    '2023-07-12T13:06:56',
    ( '' ),
    ( '' ),
    'SwSTEP 2.0',
    'SolidWorks 2023',
    '' );
FILE_SCHEMA (( 'AUTOMOTIVE_DESIGN' ));
ENDSEC;

DATA;
#1 = EDGE_CURVE ( 'NONE', #13, #278, #81, .T. ) ;
#2 = CARTESIAN_POINT ( 'NONE',  ( 9.492323212542229959E-36, 5.763951009845399473E-19, 0.000000000000000000 ) ) ;
#3 =( LENGTH_UNIT ( ) NAMED_UNIT ( * ) SI_UNIT ( $, .METRE. ) );
#4 =( LENGTH_UNIT ( ) NAMED_UNIT ( * ) SI_UNIT ( $, .METRE. ) );
#5 =( CONVERSION_BASED_UNIT ( 'INCH', #222 ) LENGTH_UNIT ( ) NAMED_UNIT ( #134 ) );
#6 = PRODUCT_DEFINITION_CONTEXT ( 'detailed design', #235, 'design' ) ;
#7 = DIRECTION ( 'NONE',  ( -1.000000000000000000, -9.106159978880892186E-17, 0.000000000000000000 ) ) ;
#8 = PRODUCT_DEFINITION ( 'UNKNOWN', '', #78, #6 ) ;
#9 =( GEOMETRIC_REPRESENTATION_CONTEXT ( 3 ) GLOBAL_UNCERTAINTY_ASSIGNED_CONTEXT ( ( #87 ) ) GLOBAL_UNIT_ASSIGNED_CONTEXT ( ( #145, #51, #172 ) ) REPRESENTATION_CONTEXT ( 'NONE', 'WORKASPACE' ) );
#10 =( NAMED_UNIT ( * ) PLANE_ANGLE_UNIT ( ) SI_UNIT ( $, .RADIAN. ) );
#11 = LINE ( 'NONE', #61, #30 ) ;
#12 = CONICAL_SURFACE ( 'NONE', #84, 0.03500000000000000333, 1.047197551196600074 ) ;
#13 = VERTEX_POINT ( 'NONE', #159 ) ;
#14 = FACE_OUTER_BOUND ( 'NONE', #117, .T. ) ;
#15 = ORIENTED_EDGE ( 'NONE', *, *, #308, .T. ) ;
#16 = CARTESIAN_POINT ( 'NONE',  ( 0.1875000000000000278, 2.500000000000000000, 0.000000000000000000 ) ) ;
#17 = SURFACE_SIDE_STYLE ('',( #270 ) ) ;
#18 = DIRECTION ( 'NONE',  ( -9.750067588697827429E-17, 1.000000000000000000, -0.000000000000000000 ) ) ;
#19 = EDGE_LOOP ( 'NONE', ( #182, #41, #207, #300 ) ) ;
#20 = LENGTH_MEASURE_WITH_UNIT ( LENGTH_MEASURE( 0.02539999999999999897 ), #139 );
#21 = DIRECTION ( 'NONE',  ( 1.000000000000000000, 0.000000000000000000, 0.000000000000000000 ) ) ;
#22 = FACE_OUTER_BOUND ( 'NONE', #283, .T. ) ;
#23 = LENGTH_MEASURE_WITH_UNIT ( LENGTH_MEASURE( 0.02539999999999999897 ), #4 );
#24 =( CONVERSION_BASED_UNIT ( 'INCH', #23 ) LENGTH_UNIT ( ) NAMED_UNIT ( #115 ) );
#25 = CARTESIAN_POINT ( 'NONE',  ( -0.03500000000000000333, 1.152790201969079895E-18, 0.000000000000000000 ) ) ;
#26 = COLOUR_RGB ( '',1.000000000000000000, 0.000000000000000000, 0.000000000000000000 ) ;
#27 = LINE ( 'NONE', #190, #167 ) ;
#28 = CIRCLE ( 'NONE', #174, 0.03500000000000000333 ) ;
#29 = DIRECTION ( 'NONE',  ( -1.000000000000000000, -9.106159978880892186E-17, 0.000000000000000000 ) ) ;
#30 = VECTOR ( 'NONE', #261, 39.37007874015748143 ) ;
#31 = CARTESIAN_POINT ( 'NONE',  ( 6.123233995736772199E-17, 2.500000000000000000, 0.000000000000000000 ) ) ;
#32 =( CONVERSION_BASED_UNIT ( 'INCH', #296 ) LENGTH_UNIT ( ) NAMED_UNIT ( #290 ) );
#33 =( NAMED_UNIT ( * ) PLANE_ANGLE_UNIT ( ) SI_UNIT ( $, .RADIAN. ) );
#34 = ORIENTED_EDGE ( 'NONE', *, *, #284, .T. ) ;
#35 = AXIS2_PLACEMENT_3D ( 'NONE', #161, #18, #187 ) ;
#36 = CONICAL_SURFACE ( 'NONE', #100, 0.03500000000000000333, 1.047197551196600074 ) ;
#37 = CARTESIAN_POINT ( 'NONE',  ( -0.1875000000000000555, 0.08804591605141746935, 0.000000000000000000 ) ) ;
#38 = EDGE_LOOP ( 'NONE', ( #279, #215 ) ) ;
#39 =( NAMED_UNIT ( * ) SI_UNIT ( $, .STERADIAN. ) SOLID_ANGLE_UNIT ( ) );
#40 = SURFACE_STYLE_FILL_AREA ( #208 ) ;
#41 = ORIENTED_EDGE ( 'NONE', *, *, #1, .T. ) ;
#42 = PRODUCT_DEFINITION_SHAPE ( 'NONE', 'NONE',  #8 ) ;
#43 = DIMENSIONAL_EXPONENTS ( 1.000000000000000000, 0.000000000000000000, 0.000000000000000000, 0.000000000000000000, 0.000000000000000000, 0.000000000000000000, 0.000000000000000000 ) ;
#44 = FACE_OUTER_BOUND ( 'NONE', #306, .T. ) ;
#45 = AXIS2_PLACEMENT_3D ( 'NONE', #258, #181, #238 ) ;
#46 = SURFACE_SIDE_STYLE ('',( #63 ) ) ;
#47 = CARTESIAN_POINT ( 'NONE',  ( -0.1874999999999993894, 0.08804591605141756649, 0.000000000000000000 ) ) ;
#48 = AXIS2_PLACEMENT_3D ( 'NONE', #31, #122, #52 ) ;
#49 = AXIS2_PLACEMENT_3D ( 'NONE', #82, #299, #297 ) ;
#50 = COLOUR_RGB ( '',0.7921568627450980005, 0.8196078431372548767, 0.9333333333333333481 ) ;
#51 =( NAMED_UNIT ( * ) PLANE_ANGLE_UNIT ( ) SI_UNIT ( $, .RADIAN. ) );
#52 = DIRECTION ( 'NONE',  ( -1.000000000000000000, 0.000000000000000000, 0.000000000000000000 ) ) ;
#53 = LENGTH_MEASURE_WITH_UNIT ( LENGTH_MEASURE( 0.02539999999999999897 ), #99 );
#54 = DIRECTION ( 'NONE',  ( -1.000000000000000000, -9.750067588697828662E-17, 0.000000000000000000 ) ) ;
#55 = PLANE ( 'NONE',  #287 ) ;
#56 = AXIS2_PLACEMENT_3D ( 'NONE', #255, #124, #54 ) ;
#57 = ORIENTED_EDGE ( 'NONE', *, *, #177, .F. ) ;
#58 = CARTESIAN_POINT ( 'NONE',  ( 0.1875000000000000278, 0.08804591605141760813, 2.296212748401285877E-17 ) ) ;
#59 = ORIENTED_EDGE ( 'NONE', *, *, #83, .T. ) ;
#60 = APPLICATION_CONTEXT ( 'automotive_design' ) ;
#61 = CARTESIAN_POINT ( 'NONE',  ( -0.1874999999999997780, 2.500000000000000000, 0.000000000000000000 ) ) ;
#62 = VECTOR ( 'NONE', #281, 39.37007874015748854 ) ;
#63 = SURFACE_STYLE_FILL_AREA ( #245 ) ;
#64 = MECHANICAL_DESIGN_GEOMETRIC_PRESENTATION_REPRESENTATION (  '', ( #237 ), #298 ) ;
#65 = UNCERTAINTY_MEASURE_WITH_UNIT (LENGTH_MEASURE( 1.000000000000000082E-05 ), #5, 'distance_accuracy_value', 'NONE');
#66 = DIRECTION ( 'NONE',  ( 1.000000000000000000, 0.000000000000000000, 0.000000000000000000 ) ) ;
#67 = VERTEX_POINT ( 'NONE', #47 ) ;
#68 = PRESENTATION_STYLE_ASSIGNMENT (( #303 ) ) ;
#69 = CIRCLE ( 'NONE', #98, 0.03500000000000000333 ) ;
#70 = FILL_AREA_STYLE_COLOUR ( '', #50 ) ;
#71 =( CONVERSION_BASED_UNIT ( 'INCH', #53 ) LENGTH_UNIT ( ) NAMED_UNIT ( #288 ) );
#72 =( GEOMETRIC_REPRESENTATION_CONTEXT ( 3 ) GLOBAL_UNCERTAINTY_ASSIGNED_CONTEXT ( ( #73 ) ) GLOBAL_UNIT_ASSIGNED_CONTEXT ( ( #32, #75, #178 ) ) REPRESENTATION_CONTEXT ( 'NONE', 'WORKASPACE' ) );
#73 = UNCERTAINTY_MEASURE_WITH_UNIT (LENGTH_MEASURE( 1.000000000000000082E-05 ), #32, 'distance_accuracy_value', 'NONE');
#74 = FACE_OUTER_BOUND ( 'NONE', #38, .T. ) ;
#75 =( NAMED_UNIT ( * ) PLANE_ANGLE_UNIT ( ) SI_UNIT ( $, .RADIAN. ) );
#76 = MECHANICAL_DESIGN_GEOMETRIC_PRESENTATION_REPRESENTATION (  '', ( #93 ), #205 ) ;
#77 = DIRECTION ( 'NONE',  ( -1.000000000000000000, 1.646843145670114146E-17, 0.000000000000000000 ) ) ;
#78 = PRODUCT_DEFINITION_FORMATION_WITH_SPECIFIED_SOURCE ( 'ANY', '', #165, .NOT_KNOWN. ) ;
#79 = EDGE_CURVE ( 'NONE', #154, #67, #125, .T. ) ;
#80 = CARTESIAN_POINT ( 'NONE',  ( 1.449978133535231439E-18, 0.08804591605141746935, 0.000000000000000000 ) ) ;
#81 = LINE ( 'NONE', #184, #62 ) ;
#82 = CARTESIAN_POINT ( 'NONE',  ( 6.123233995736772199E-17, 2.500000000000000000, 0.000000000000000000 ) ) ;
#83 = EDGE_CURVE ( 'NONE', #92, #128, #264, .T. ) ;
#84 = AXIS2_PLACEMENT_3D ( 'NONE', #120, #108, #88 ) ;
#85 = PRESENTATION_STYLE_ASSIGNMENT (( #285 ) ) ;
#86 = AXIS2_PLACEMENT_3D ( 'NONE', #176, #226, #7 ) ;
#87 = UNCERTAINTY_MEASURE_WITH_UNIT (LENGTH_MEASURE( 1.000000000000000082E-05 ), #145, 'distance_accuracy_value', 'NONE');
#88 = DIRECTION ( 'NONE',  ( -1.000000000000000000, 1.646843145670113838E-17, 0.000000000000000000 ) ) ;
#89 = ORIENTED_EDGE ( 'NONE', *, *, #223, .T. ) ;
#90 = SURFACE_SIDE_STYLE ('',( #307 ) ) ;
#91 = PRODUCT_CONTEXT ( 'NONE', #60, 'mechanical' ) ;
#92 = VERTEX_POINT ( 'NONE', #140 ) ;
#93 = STYLED_ITEM ( 'NONE', ( #68 ), #266 ) ;
#94 = DIMENSIONAL_EXPONENTS ( 1.000000000000000000, 0.000000000000000000, 0.000000000000000000, 0.000000000000000000, 0.000000000000000000, 0.000000000000000000, 0.000000000000000000 ) ;
#95 = PRESENTATION_STYLE_ASSIGNMENT (( #204 ) ) ;
#96 = UNCERTAINTY_MEASURE_WITH_UNIT (LENGTH_MEASURE( 1.000000000000000082E-05 ), #71, 'distance_accuracy_value', 'NONE');
#97 = CARTESIAN_POINT ( 'NONE',  ( 2.963994933507120740E-16, 0.08804591605141759425, 0.000000000000000000 ) ) ;
#98 = AXIS2_PLACEMENT_3D ( 'NONE', #2, #196, #291 ) ;
#99 =( LENGTH_UNIT ( ) NAMED_UNIT ( * ) SI_UNIT ( $, .METRE. ) );
#100 = AXIS2_PLACEMENT_3D ( 'NONE', #114, #195, #241 ) ;
#101 =( NAMED_UNIT ( * ) SI_UNIT ( $, .STERADIAN. ) SOLID_ANGLE_UNIT ( ) );
#102 =( LENGTH_UNIT ( ) NAMED_UNIT ( * ) SI_UNIT ( $, .METRE. ) );
#103 = ADVANCED_FACE ( 'NONE', ( #246 ), #12, .T. ) ;
#104 = SURFACE_SIDE_STYLE ('',( #275 ) ) ;
#105 = CARTESIAN_POINT ( 'NONE',  ( 0.1875000000000000278, 2.500000000000000000, 2.296212748401285877E-17 ) ) ;
#106 = CIRCLE ( 'NONE', #130, 0.1875000000000000278 ) ;
#107 = COLOUR_RGB ( '',1.000000000000000000, 0.000000000000000000, 0.000000000000000000 ) ;
#108 = DIRECTION ( 'NONE',  ( 1.646843145670114146E-17, 1.000000000000000000, 0.000000000000000000 ) ) ;
#109 = EDGE_LOOP ( 'NONE', ( #133, #267, #156, #209 ) ) ;
#110 = ORIENTED_EDGE ( 'NONE', *, *, #277, .F. ) ;
#111 =( NAMED_UNIT ( * ) SI_UNIT ( $, .STERADIAN. ) SOLID_ANGLE_UNIT ( ) );
#112 = CLOSED_SHELL ( 'NONE', ( #103, #230, #242, #150 ) ) ;
#113 = ORIENTED_EDGE ( 'NONE', *, *, #200, .F. ) ;
#114 = CARTESIAN_POINT ( 'NONE',  ( 9.492323212542229959E-36, 5.763951009845399473E-19, 0.000000000000000000 ) ) ;
#115 = DIMENSIONAL_EXPONENTS ( 1.000000000000000000, 0.000000000000000000, 0.000000000000000000, 0.000000000000000000, 0.000000000000000000, 0.000000000000000000, 0.000000000000000000 ) ;
#116 = FILL_AREA_STYLE_COLOUR ( '', #194 ) ;
#117 = EDGE_LOOP ( 'NONE', ( #216, #34 ) ) ;
#118 = VECTOR ( 'NONE', #191, 39.37007874015748854 ) ;
#119 = STYLED_ITEM ( 'NONE', ( #95 ), #268 ) ;
#120 = CARTESIAN_POINT ( 'NONE',  ( 9.492323212542229959E-36, 5.763951009845399473E-19, 0.000000000000000000 ) ) ;
#121 = LENGTH_MEASURE_WITH_UNIT ( LENGTH_MEASURE( 0.02539999999999999897 ), #3 );
#122 = DIRECTION ( 'NONE',  ( -9.750067588697827429E-17, 1.000000000000000000, -0.000000000000000000 ) ) ;
#123 = ADVANCED_FACE ( 'NONE', ( #14 ), #151, .F. ) ;
#124 = DIRECTION ( 'NONE',  ( -9.750067588697828662E-17, 1.000000000000000000, 0.000000000000000000 ) ) ;
#125 = CIRCLE ( 'NONE', #252, 0.1874999999999996947 ) ;
#126 = AXIS2_PLACEMENT_3D ( 'NONE', #160, #210, #21 ) ;
#127 = CARTESIAN_POINT ( 'NONE',  ( 1.449978133535231054E-18, 0.08804591605141745547, 0.000000000000000000 ) ) ;
#128 = VERTEX_POINT ( 'NONE', #37 ) ;
#129 = DIRECTION ( 'NONE',  ( -1.646843145670114146E-17, -1.000000000000000000, 0.000000000000000000 ) ) ;
#130 = AXIS2_PLACEMENT_3D ( 'NONE', #80, #240, #66 ) ;
#131 = ORIENTED_EDGE ( 'NONE', *, *, #213, .T. ) ;
#132 = LENGTH_MEASURE_WITH_UNIT ( LENGTH_MEASURE( 0.02539999999999999897 ), #102 );
#133 = ORIENTED_EDGE ( 'NONE', *, *, #227, .F. ) ;
#134 = DIMENSIONAL_EXPONENTS ( 1.000000000000000000, 0.000000000000000000, 0.000000000000000000, 0.000000000000000000, 0.000000000000000000, 0.000000000000000000, 0.000000000000000000 ) ;
#135 = CYLINDRICAL_SURFACE ( 'NONE', #45, 0.1874999999999998335 ) ;
#136 = FILL_AREA_STYLE ('',( #169 ) ) ;
#137 = PRESENTATION_LAYER_ASSIGNMENT (  '', '', ( #201 ) ) ;
#138 = ORIENTED_EDGE ( 'NONE', *, *, #1, .F. ) ;
#139 =( LENGTH_UNIT ( ) NAMED_UNIT ( * ) SI_UNIT ( $, .METRE. ) );
#140 = CARTESIAN_POINT ( 'NONE',  ( -0.03500000000000000333, 1.152790201969079895E-18, 0.000000000000000000 ) ) ;
#141 = ADVANCED_FACE ( 'NONE', ( #180 ), #135, .T. ) ;
#142 =( NAMED_UNIT ( * ) PLANE_ANGLE_UNIT ( ) SI_UNIT ( $, .RADIAN. ) );
#143 = DIRECTION ( 'NONE',  ( 1.000000000000000000, -1.646843145670113838E-17, 0.000000000000000000 ) ) ;
#144 = MECHANICAL_DESIGN_GEOMETRIC_PRESENTATION_REPRESENTATION (  '', ( #293 ), #202 ) ;
#145 =( CONVERSION_BASED_UNIT ( 'INCH', #121 ) LENGTH_UNIT ( ) NAMED_UNIT ( #94 ) );
#146 = CARTESIAN_POINT ( 'NONE',  ( 0.1875000000000000555, 0.08804591605141746935, 2.296212748401287109E-17 ) ) ;
#147 = CIRCLE ( 'NONE', #35, 0.1874999999999999445 ) ;
#148 = CIRCLE ( 'NONE', #48, 0.1874999999999999445 ) ;
#149 =( LENGTH_UNIT ( ) NAMED_UNIT ( * ) SI_UNIT ( $, .METRE. ) );
#150 = ADVANCED_FACE ( 'NONE', ( #232 ), #55, .T. ) ;
#151 = PLANE ( 'NONE',  #271 ) ;
#152 = CIRCLE ( 'NONE', #86, 0.1874999999999996947 ) ;
#153 = CYLINDRICAL_SURFACE ( 'NONE', #49, 0.1874999999999998335 ) ;
#154 = VERTEX_POINT ( 'NONE', #58 ) ;
#155 = DIRECTION ( 'NONE',  ( 1.000000000000000000, 9.750067588697828662E-17, 0.000000000000000000 ) ) ;
#156 = ORIENTED_EDGE ( 'NONE', *, *, #177, .T. ) ;
#157 = DIRECTION ( 'NONE',  ( 1.000000000000000000, -1.646843145670114146E-17, 0.000000000000000000 ) ) ;
#158 = MECHANICAL_DESIGN_GEOMETRIC_PRESENTATION_REPRESENTATION (  '', ( #119 ), #9 ) ;
#159 = CARTESIAN_POINT ( 'NONE',  ( 0.03500000000000000333, 0.000000000000000000, 1.362419564051430508E-17 ) ) ;
#160 = CARTESIAN_POINT ( 'NONE',  ( 0.000000000000000000, 0.000000000000000000, 0.000000000000000000 ) ) ;
#161 = CARTESIAN_POINT ( 'NONE',  ( 6.123233995736772199E-17, 2.500000000000000000, 0.000000000000000000 ) ) ;
#162 = ORIENTED_EDGE ( 'NONE', *, *, #227, .T. ) ;
#163 = DIRECTION ( 'NONE',  ( -9.750067588697827429E-17, 1.000000000000000000, -0.000000000000000000 ) ) ;
#164 = PLANE ( 'NONE',  #304 ) ;
#165 = PRODUCT ( '59829', '59829', '', ( #91 ) ) ;
#166 = ADVANCED_FACE ( 'NONE', ( #282 ), #153, .T. ) ;
#167 = VECTOR ( 'NONE', #221, 39.37007874015748143 ) ;
#168 = FILL_AREA_STYLE_COLOUR ( '', #107 ) ;
#169 = FILL_AREA_STYLE_COLOUR ( '', #250 ) ;
#170 = FILL_AREA_STYLE ('',( #70 ) ) ;
#171 =( NAMED_UNIT ( * ) PLANE_ANGLE_UNIT ( ) SI_UNIT ( $, .RADIAN. ) );
#172 =( NAMED_UNIT ( * ) SI_UNIT ( $, .STERADIAN. ) SOLID_ANGLE_UNIT ( ) );
#173 = FILL_AREA_STYLE ('',( #116 ) ) ;
#174 = AXIS2_PLACEMENT_3D ( 'NONE', #247, #249, #143 ) ;
#175 =( LENGTH_UNIT ( ) NAMED_UNIT ( * ) SI_UNIT ( $, .METRE. ) );
#176 = CARTESIAN_POINT ( 'NONE',  ( 2.963994933507120740E-16, 0.08804591605141759425, 0.000000000000000000 ) ) ;
#177 = EDGE_CURVE ( 'NONE', #67, #309, #11, .T. ) ;
#178 =( NAMED_UNIT ( * ) SI_UNIT ( $, .STERADIAN. ) SOLID_ANGLE_UNIT ( ) );
#179 = DIRECTION ( 'NONE',  ( 1.000000000000000000, 0.000000000000000000, 0.000000000000000000 ) ) ;
#180 = FACE_OUTER_BOUND ( 'NONE', #109, .T. ) ;
#181 = DIRECTION ( 'NONE',  ( -9.750067588697827429E-17, 1.000000000000000000, -0.000000000000000000 ) ) ;
#182 = ORIENTED_EDGE ( 'NONE', *, *, #213, .F. ) ;
#183 = SURFACE_STYLE_USAGE ( .BOTH. , #244 ) ;
#184 = CARTESIAN_POINT ( 'NONE',  ( 0.03500000000000000333, 0.000000000000000000, 4.286263797015735979E-18 ) ) ;
#185 = PRESENTATION_STYLE_ASSIGNMENT (( #183 ) ) ;
#186 = AXIS2_PLACEMENT_3D ( 'NONE', #257, #294, #179 ) ;
#187 = DIRECTION ( 'NONE',  ( -1.000000000000000000, 0.000000000000000000, 0.000000000000000000 ) ) ;
#188 = VERTEX_POINT ( 'NONE', #105 ) ;
#189 = SURFACE_STYLE_USAGE ( .BOTH. , #90 ) ;
#190 = CARTESIAN_POINT ( 'NONE',  ( 0.1874999999999999167, 2.500000000000000000, 2.296212748401285260E-17 ) ) ;
#191 = DIRECTION ( 'NONE',  ( -0.8660254037844397068, 0.4999999999999979461, 0.000000000000000000 ) ) ;
#192 = SURFACE_STYLE_FILL_AREA ( #173 ) ;
#193 = PRESENTATION_LAYER_ASSIGNMENT (  '', '', ( #229 ) ) ;
#194 = COLOUR_RGB ( '',1.000000000000000000, 0.000000000000000000, 0.000000000000000000 ) ;
#195 = DIRECTION ( 'NONE',  ( 1.646843145670114146E-17, 1.000000000000000000, 0.000000000000000000 ) ) ;
#196 = DIRECTION ( 'NONE',  ( -1.646843145670114146E-17, -1.000000000000000000, -0.000000000000000000 ) ) ;
#197 = MECHANICAL_DESIGN_GEOMETRIC_PRESENTATION_REPRESENTATION (  '', ( #229 ), #276 ) ;
#198 = PRESENTATION_LAYER_ASSIGNMENT (  '', '', ( #119 ) ) ;
#199 = PRESENTATION_STYLE_ASSIGNMENT (( #189 ) ) ;
#200 = EDGE_CURVE ( 'NONE', #128, #278, #106, .T. ) ;
#201 = STYLED_ITEM ( 'NONE', ( #185 ), #150 ) ;
#202 =( GEOMETRIC_REPRESENTATION_CONTEXT ( 3 ) GLOBAL_UNCERTAINTY_ASSIGNED_CONTEXT ( ( #220 ) ) GLOBAL_UNIT_ASSIGNED_CONTEXT ( ( #217, #142, #39 ) ) REPRESENTATION_CONTEXT ( 'NONE', 'WORKASPACE' ) );
#203 = EDGE_CURVE ( 'NONE', #309, #188, #147, .T. ) ;
#204 = SURFACE_STYLE_USAGE ( .BOTH. , #104 ) ;
#205 =( GEOMETRIC_REPRESENTATION_CONTEXT ( 3 ) GLOBAL_UNCERTAINTY_ASSIGNED_CONTEXT ( ( #96 ) ) GLOBAL_UNIT_ASSIGNED_CONTEXT ( ( #71, #231, #101 ) ) REPRESENTATION_CONTEXT ( 'NONE', 'WORKASPACE' ) );
#206 = CARTESIAN_POINT ( 'NONE',  ( 4.746161606271114980E-36, 2.881975504922699737E-19, 0.000000000000000000 ) ) ;
#207 = ORIENTED_EDGE ( 'NONE', *, *, #277, .T. ) ;
#208 = FILL_AREA_STYLE ('',( #305 ) ) ;
#209 = ORIENTED_EDGE ( 'NONE', *, *, #284, .F. ) ;
#210 = DIRECTION ( 'NONE',  ( 0.000000000000000000, 0.000000000000000000, 1.000000000000000000 ) ) ;
#211 = ORIENTED_EDGE ( 'NONE', *, *, #223, .F. ) ;
#212 =( NAMED_UNIT ( * ) SI_UNIT ( $, .STERADIAN. ) SOLID_ANGLE_UNIT ( ) );
#213 = EDGE_CURVE ( 'NONE', #13, #92, #28, .T. ) ;
#214 = CIRCLE ( 'NONE', #186, 0.1875000000000000278 ) ;
#215 = ORIENTED_EDGE ( 'NONE', *, *, #79, .F. ) ;
#216 = ORIENTED_EDGE ( 'NONE', *, *, #203, .T. ) ;
#217 =( CONVERSION_BASED_UNIT ( 'INCH', #20 ) LENGTH_UNIT ( ) NAMED_UNIT ( #43 ) );
#218 = DIMENSIONAL_EXPONENTS ( 1.000000000000000000, 0.000000000000000000, 0.000000000000000000, 0.000000000000000000, 0.000000000000000000, 0.000000000000000000, 0.000000000000000000 ) ;
#219 = ADVANCED_BREP_SHAPE_REPRESENTATION ( '59829', ( #268, #266, #126 ), #72 ) ;
#220 = UNCERTAINTY_MEASURE_WITH_UNIT (LENGTH_MEASURE( 1.000000000000000082E-05 ), #217, 'distance_accuracy_value', 'NONE');
#221 = DIRECTION ( 'NONE',  ( -9.750067588697828662E-17, 1.000000000000000000, -0.000000000000000000 ) ) ;
#222 = LENGTH_MEASURE_WITH_UNIT ( LENGTH_MEASURE( 0.02539999999999999897 ), #175 );
#223 = EDGE_CURVE ( 'NONE', #92, #13, #69, .T. ) ;
#224 = MECHANICAL_DESIGN_GEOMETRIC_PRESENTATION_REPRESENTATION (  '', ( #201 ), #236 ) ;
#225 = COLOUR_RGB ( '',0.7921568627450980005, 0.8196078431372548767, 0.9333333333333333481 ) ;
#226 = DIRECTION ( 'NONE',  ( -9.750067588697827429E-17, 1.000000000000000000, -0.000000000000000000 ) ) ;
#227 = EDGE_CURVE ( 'NONE', #154, #188, #27, .T. ) ;
#228 = PLANE ( 'NONE',  #56 ) ;
#229 = STYLED_ITEM ( 'NONE', ( #199 ), #103 ) ;
#230 = ADVANCED_FACE ( 'NONE', ( #22 ), #164, .T. ) ;
#231 =( NAMED_UNIT ( * ) PLANE_ANGLE_UNIT ( ) SI_UNIT ( $, .RADIAN. ) );
#232 = FACE_OUTER_BOUND ( 'NONE', #260, .T. ) ;
#233 =( CONVERSION_BASED_UNIT ( 'INCH', #132 ) LENGTH_UNIT ( ) NAMED_UNIT ( #218 ) );
#234 = ORIENTED_EDGE ( 'NONE', *, *, #200, .T. ) ;
#235 = APPLICATION_CONTEXT ( 'automotive_design' ) ;
#236 =( GEOMETRIC_REPRESENTATION_CONTEXT ( 3 ) GLOBAL_UNCERTAINTY_ASSIGNED_CONTEXT ( ( #272 ) ) GLOBAL_UNIT_ASSIGNED_CONTEXT ( ( #233, #33, #212 ) ) REPRESENTATION_CONTEXT ( 'NONE', 'WORKASPACE' ) );
#237 = STYLED_ITEM ( 'NONE', ( #286 ), #230 ) ;
#238 = DIRECTION ( 'NONE',  ( -1.000000000000000000, 0.000000000000000000, 0.000000000000000000 ) ) ;
#239 = ORIENTED_EDGE ( 'NONE', *, *, #203, .F. ) ;
#240 = DIRECTION ( 'NONE',  ( -1.646843145670114146E-17, -1.000000000000000000, -0.000000000000000000 ) ) ;
#241 = DIRECTION ( 'NONE',  ( -1.000000000000000000, 1.646843145670113838E-17, 0.000000000000000000 ) ) ;
#242 = ADVANCED_FACE ( 'NONE', ( #44 ), #36, .T. ) ;
#243 = APPLICATION_PROTOCOL_DEFINITION ( 'draft international standard', 'automotive_design', 1998, #60 ) ;
#244 = SURFACE_SIDE_STYLE ('',( #40 ) ) ;
#245 = FILL_AREA_STYLE ('',( #168 ) ) ;
#246 = FACE_OUTER_BOUND ( 'NONE', #19, .T. ) ;
#247 = CARTESIAN_POINT ( 'NONE',  ( 9.492323212542229959E-36, 5.763951009845399473E-19, 0.000000000000000000 ) ) ;
#248 = SURFACE_SIDE_STYLE ('',( #192 ) ) ;
#249 = DIRECTION ( 'NONE',  ( -1.646843145670114146E-17, -1.000000000000000000, -0.000000000000000000 ) ) ;
#250 = COLOUR_RGB ( '',1.000000000000000000, 0.000000000000000000, 0.000000000000000000 ) ;
#251 = PRESENTATION_LAYER_ASSIGNMENT (  '', '', ( #293 ) ) ;
#252 = AXIS2_PLACEMENT_3D ( 'NONE', #97, #163, #29 ) ;
#253 = PRESENTATION_LAYER_ASSIGNMENT (  '', '', ( #237 ) ) ;
#254 = FILL_AREA_STYLE ('',( #274 ) ) ;
#255 = CARTESIAN_POINT ( 'NONE',  ( 2.963994933507120740E-16, 0.08804591605141745547, 0.000000000000000000 ) ) ;
#256 =( NAMED_UNIT ( * ) SI_UNIT ( $, .STERADIAN. ) SOLID_ANGLE_UNIT ( ) );
#257 = CARTESIAN_POINT ( 'NONE',  ( 1.449978133535231439E-18, 0.08804591605141746935, 0.000000000000000000 ) ) ;
#258 = CARTESIAN_POINT ( 'NONE',  ( 6.123233995736772199E-17, 2.500000000000000000, 0.000000000000000000 ) ) ;
#259 = APPLICATION_PROTOCOL_DEFINITION ( 'draft international standard', 'automotive_design', 1998, #235 ) ;
#260 = EDGE_LOOP ( 'NONE', ( #89, #131 ) ) ;
#261 = DIRECTION ( 'NONE',  ( -9.750067588697828662E-17, 1.000000000000000000, -0.000000000000000000 ) ) ;
#262 = SHAPE_DEFINITION_REPRESENTATION ( #42, #219 ) ;
#263 = EDGE_LOOP ( 'NONE', ( #15, #162, #239, #57 ) ) ;
#264 = LINE ( 'NONE', #25, #118 ) ;
#265 = PRODUCT_RELATED_PRODUCT_CATEGORY ( 'part', '', ( #165 ) ) ;
#266 = MANIFOLD_SOLID_BREP ( 'Revolve - Tool Body (Tipped Off)', #292 ) ;
#267 = ORIENTED_EDGE ( 'NONE', *, *, #79, .T. ) ;
#268 = MANIFOLD_SOLID_BREP ( 'Revolve - Cutting Edge', #112 ) ;
#269 = PRESENTATION_LAYER_ASSIGNMENT (  '', '', ( #93 ) ) ;
#270 = SURFACE_STYLE_FILL_AREA ( #170 ) ;
#271 = AXIS2_PLACEMENT_3D ( 'NONE', #16, #302, #155 ) ;
#272 = UNCERTAINTY_MEASURE_WITH_UNIT (LENGTH_MEASURE( 1.000000000000000082E-05 ), #233, 'distance_accuracy_value', 'NONE');
#273 = CARTESIAN_POINT ( 'NONE',  ( -0.1874999999999998890, 2.500000000000000000, 0.000000000000000000 ) ) ;
#274 = FILL_AREA_STYLE_COLOUR ( '', #225 ) ;
#275 = SURFACE_STYLE_FILL_AREA ( #254 ) ;
#276 =( GEOMETRIC_REPRESENTATION_CONTEXT ( 3 ) GLOBAL_UNCERTAINTY_ASSIGNED_CONTEXT ( ( #65 ) ) GLOBAL_UNIT_ASSIGNED_CONTEXT ( ( #5, #10, #111 ) ) REPRESENTATION_CONTEXT ( 'NONE', 'WORKASPACE' ) );
#277 = EDGE_CURVE ( 'NONE', #278, #128, #214, .T. ) ;
#278 = VERTEX_POINT ( 'NONE', #146 ) ;
#279 = ORIENTED_EDGE ( 'NONE', *, *, #308, .F. ) ;
#280 = ADVANCED_FACE ( 'NONE', ( #74 ), #228, .F. ) ;
#281 = DIRECTION ( 'NONE',  ( 0.8660254037844397068, 0.4999999999999979461, 1.060575238724908024E-16 ) ) ;
#282 = FACE_OUTER_BOUND ( 'NONE', #263, .T. ) ;
#283 = EDGE_LOOP ( 'NONE', ( #113, #110 ) ) ;
#284 = EDGE_CURVE ( 'NONE', #188, #309, #148, .T. ) ;
#285 = SURFACE_STYLE_USAGE ( .BOTH. , #46 ) ;
#286 = PRESENTATION_STYLE_ASSIGNMENT (( #289 ) ) ;
#287 = AXIS2_PLACEMENT_3D ( 'NONE', #206, #129, #157 ) ;
#288 = DIMENSIONAL_EXPONENTS ( 1.000000000000000000, 0.000000000000000000, 0.000000000000000000, 0.000000000000000000, 0.000000000000000000, 0.000000000000000000, 0.000000000000000000 ) ;
#289 = SURFACE_STYLE_USAGE ( .BOTH. , #248 ) ;
#290 = DIMENSIONAL_EXPONENTS ( 1.000000000000000000, 0.000000000000000000, 0.000000000000000000, 0.000000000000000000, 0.000000000000000000, 0.000000000000000000, 0.000000000000000000 ) ;
#291 = DIRECTION ( 'NONE',  ( 1.000000000000000000, -1.646843145670113838E-17, 0.000000000000000000 ) ) ;
#292 = CLOSED_SHELL ( 'NONE', ( #166, #280, #141, #123 ) ) ;
#293 = STYLED_ITEM ( 'NONE', ( #85 ), #242 ) ;
#294 = DIRECTION ( 'NONE',  ( -1.646843145670114146E-17, -1.000000000000000000, -0.000000000000000000 ) ) ;
#295 = DIRECTION ( 'NONE',  ( 1.646843145670114146E-17, 1.000000000000000000, 0.000000000000000000 ) ) ;
#296 = LENGTH_MEASURE_WITH_UNIT ( LENGTH_MEASURE( 0.02539999999999999897 ), #149 );
#297 = DIRECTION ( 'NONE',  ( -1.000000000000000000, 0.000000000000000000, 0.000000000000000000 ) ) ;
#298 =( GEOMETRIC_REPRESENTATION_CONTEXT ( 3 ) GLOBAL_UNCERTAINTY_ASSIGNED_CONTEXT ( ( #301 ) ) GLOBAL_UNIT_ASSIGNED_CONTEXT ( ( #24, #171, #256 ) ) REPRESENTATION_CONTEXT ( 'NONE', 'WORKASPACE' ) );
#299 = DIRECTION ( 'NONE',  ( -9.750067588697827429E-17, 1.000000000000000000, -0.000000000000000000 ) ) ;
#300 = ORIENTED_EDGE ( 'NONE', *, *, #83, .F. ) ;
#301 = UNCERTAINTY_MEASURE_WITH_UNIT (LENGTH_MEASURE( 1.000000000000000082E-05 ), #24, 'distance_accuracy_value', 'NONE');
#302 = DIRECTION ( 'NONE',  ( 9.750067588697828662E-17, -1.000000000000000000, 0.000000000000000000 ) ) ;
#303 = SURFACE_STYLE_USAGE ( .BOTH. , #17 ) ;
#304 = AXIS2_PLACEMENT_3D ( 'NONE', #127, #295, #77 ) ;
#305 = FILL_AREA_STYLE_COLOUR ( '', #26 ) ;
#306 = EDGE_LOOP ( 'NONE', ( #138, #211, #59, #234 ) ) ;
#307 = SURFACE_STYLE_FILL_AREA ( #136 ) ;
#308 = EDGE_CURVE ( 'NONE', #67, #154, #152, .T. ) ;
#309 = VERTEX_POINT ( 'NONE', #273 ) ;
ENDSEC;
END-ISO-10303-21;
