ISO-10303-21;
HEADER;
FILE_DESCRIPTION (( 'STEP AP214' ),
    '1' );
FILE_NAME ('Micro_MMBM-030-15X.STEP',
    '2021-09-03T16:33:17',
    ( '' ),
    ( '' ),
    'SwSTEP 2.0',
    'SolidWorks 2020',
    '' );
FILE_SCHEMA (( 'AUTOMOTIVE_DESIGN' ));
ENDSEC;

DATA;
#1 = CARTESIAN_POINT ( 'NONE',  ( 0.0000000000000000000, 0.0000000000000000000, 2.244094000000000033 ) ) ;
#2 = VERTEX_POINT ( 'NONE', #263 ) ;
#3 = DIRECTION ( 'NONE',  ( 0.7071067811865358044, 8.659560562354788645E-17, -0.7071067811865590080 ) ) ;
#4 = FILL_AREA_STYLE_COLOUR ( '', #261 ) ;
#5 = AXIS2_PLACEMENT_3D ( 'NONE', #21, #85, #302 ) ;
#6 = ORIENTED_EDGE ( 'NONE', *, *, #99, .F. ) ;
#7 = SURFACE_STYLE_USAGE ( .BOTH. , #214 ) ;
#8 = LINE ( 'NONE', #100, #216 ) ;
#9 =( NAMED_UNIT ( * ) PLANE_ANGLE_UNIT ( ) SI_UNIT ( $, .RADIAN. ) );
#10 = AXIS2_PLACEMENT_3D ( 'NONE', #162, #271, #11 ) ;
#11 = DIRECTION ( 'NONE',  ( -1.000000000000000000, 0.0000000000000000000, 0.0000000000000000000 ) ) ;
#12 = EDGE_LOOP ( 'NONE', ( #23, #337, #290, #248 ) ) ;
#13 = CARTESIAN_POINT ( 'NONE',  ( 0.05708650000000004693, 6.991079949952542812E-18, 0.0000000000000000000 ) ) ;
#14 = CIRCLE ( 'NONE', #205, 0.05904909450000001003 ) ;
#15 = PRODUCT_DEFINITION_FORMATION_WITH_SPECIFIED_SOURCE ( 'ANY', '', #132, .NOT_KNOWN. ) ;
#16 = FILL_AREA_STYLE ('',( #84 ) ) ;
#17 = ADVANCED_BREP_SHAPE_REPRESENTATION ( 'Micro_MMBM-030-15X', ( #136, #378 ), #119 ) ;
#18 =( NAMED_UNIT ( * ) PLANE_ANGLE_UNIT ( ) SI_UNIT ( $, .RADIAN. ) );
#19 = EDGE_CURVE ( 'NONE', #208, #227, #36, .T. ) ;
#20 = VERTEX_POINT ( 'NONE', #243 ) ;
#21 = CARTESIAN_POINT ( 'NONE',  ( 0.0000000000000000000, 0.0000000000000000000, 0.5905510000000000481 ) ) ;
#22 = PRODUCT_DEFINITION_SHAPE ( 'NONE', 'NONE',  #278 ) ;
#23 = ORIENTED_EDGE ( 'NONE', *, *, #213, .F. ) ;
#24 = CARTESIAN_POINT ( 'NONE',  ( 0.1181100000000000066, 1.446430334472939084E-17, 0.5905510000000000481 ) ) ;
#25 = MECHANICAL_DESIGN_GEOMETRIC_PRESENTATION_REPRESENTATION (  '', ( #324 ), #167 ) ;
#26 = DIRECTION ( 'NONE',  ( -0.0000000000000000000, -0.0000000000000000000, -1.000000000000000000 ) ) ;
#27 = EDGE_LOOP ( 'NONE', ( #175, #285, #147, #79 ) ) ;
#28 = PLANE ( 'NONE',  #185 ) ;
#29 = CARTESIAN_POINT ( 'NONE',  ( 0.0000000000000000000, 0.0000000000000000000, 0.0000000000000000000 ) ) ;
#30 = EDGE_CURVE ( 'NONE', #184, #163, #239, .T. ) ;
#31 = DIRECTION ( 'NONE',  ( 0.0000000000000000000, 0.0000000000000000000, -1.000000000000000000 ) ) ;
#32 = ORIENTED_EDGE ( 'NONE', *, *, #155, .T. ) ;
#33 = AXIS2_PLACEMENT_3D ( 'NONE', #193, #353, #242 ) ;
#34 = VECTOR ( 'NONE', #89, 39.37007874015748143 ) ;
#35 = DIRECTION ( 'NONE',  ( -1.000000000000000000, 0.0000000000000000000, 0.0000000000000000000 ) ) ;
#36 = LINE ( 'NONE', #217, #58 ) ;
#37 = FACE_OUTER_BOUND ( 'NONE', #172, .T. ) ;
#38 = FILL_AREA_STYLE ('',( #4 ) ) ;
#39 = AXIS2_PLACEMENT_3D ( 'NONE', #289, #141, #287 ) ;
#40 = EDGE_LOOP ( 'NONE', ( #57, #267, #255, #314 ) ) ;
#41 =( NAMED_UNIT ( * ) PLANE_ANGLE_UNIT ( ) SI_UNIT ( $, .RADIAN. ) );
#42 = CARTESIAN_POINT ( 'NONE',  ( 0.0000000000000000000, 0.0000000000000000000, 2.244094000000000033 ) ) ;
#43 = DIRECTION ( 'NONE',  ( -1.000000000000000000, 0.0000000000000000000, 0.0000000000000000000 ) ) ;
#44 = EDGE_CURVE ( 'NONE', #341, #115, #106, .T. ) ;
#45 = VECTOR ( 'NONE', #3, 39.37007874015748854 ) ;
#46 = ORIENTED_EDGE ( 'NONE', *, *, #86, .F. ) ;
#47 = CARTESIAN_POINT ( 'NONE',  ( 0.05904909450000001003, 7.231428457197458695E-18, 0.1181100000000000066 ) ) ;
#48 = CYLINDRICAL_SURFACE ( 'NONE', #336, 0.1181100000000000066 ) ;
#49 = VECTOR ( 'NONE', #159, 39.37007874015748143 ) ;
#50 = ADVANCED_FACE ( 'NONE', ( #325 ), #270, .T. ) ;
#51 = CIRCLE ( 'NONE', #92, 0.1181100000000000066 ) ;
#52 = CARTESIAN_POINT ( 'NONE',  ( 0.0000000000000000000, 0.0000000000000000000, 0.5905510000000000481 ) ) ;
#53 =( NAMED_UNIT ( * ) SI_UNIT ( $, .STERADIAN. ) SOLID_ANGLE_UNIT ( ) );
#54 = ORIENTED_EDGE ( 'NONE', *, *, #297, .F. ) ;
#55 = CARTESIAN_POINT ( 'NONE',  ( 0.0000000000000000000, 0.0000000000000000000, 0.0000000000000000000 ) ) ;
#56 = DIRECTION ( 'NONE',  ( -1.000000000000000000, 0.0000000000000000000, 0.0000000000000000000 ) ) ;
#57 = ORIENTED_EDGE ( 'NONE', *, *, #44, .T. ) ;
#58 = VECTOR ( 'NONE', #123, 39.37007874015748143 ) ;
#59 = FACE_OUTER_BOUND ( 'NONE', #60, .T. ) ;
#60 = EDGE_LOOP ( 'NONE', ( #126, #331 ) ) ;
#61 = EDGE_CURVE ( 'NONE', #2, #341, #8, .T. ) ;
#62 = DIMENSIONAL_EXPONENTS ( 1.000000000000000000, 0.0000000000000000000, 0.0000000000000000000, 0.0000000000000000000, 0.0000000000000000000, 0.0000000000000000000, 0.0000000000000000000 ) ;
#63 = DIRECTION ( 'NONE',  ( -1.000000000000000000, 0.0000000000000000000, 0.0000000000000000000 ) ) ;
#64 = EDGE_LOOP ( 'NONE', ( #6, #121, #374, #46 ) ) ;
#65 = DIRECTION ( 'NONE',  ( -0.1736481776669296095, 0.0000000000000000000, -0.9848077530122082424 ) ) ;
#66 = ORIENTED_EDGE ( 'NONE', *, *, #276, .F. ) ;
#67 = APPLICATION_CONTEXT ( 'automotive_design' ) ;
#68 = CARTESIAN_POINT ( 'NONE',  ( 0.0000000000000000000, 0.0000000000000000000, 0.1181100000000000066 ) ) ;
#69 = ADVANCED_FACE ( 'NONE', ( #241 ), #320, .F. ) ;
#70 = CIRCLE ( 'NONE', #224, 0.1181100000000000066 ) ;
#71 = CARTESIAN_POINT ( 'NONE',  ( 0.0000000000000000000, 0.0000000000000000000, 0.1181100000000000066 ) ) ;
#72 = EDGE_CURVE ( 'NONE', #131, #2, #118, .T. ) ;
#73 = DIRECTION ( 'NONE',  ( -0.0000000000000000000, -0.0000000000000000000, -1.000000000000000000 ) ) ;
#74 = ORIENTED_EDGE ( 'NONE', *, *, #276, .T. ) ;
#75 = AXIS2_PLACEMENT_3D ( 'NONE', #373, #116, #181 ) ;
#76 = EDGE_LOOP ( 'NONE', ( #32, #78 ) ) ;
#77 =( CONVERSION_BASED_UNIT ( 'INCH', #154 ) LENGTH_UNIT ( ) NAMED_UNIT ( #95 ) );
#78 = ORIENTED_EDGE ( 'NONE', *, *, #109, .T. ) ;
#79 = ORIENTED_EDGE ( 'NONE', *, *, #19, .F. ) ;
#80 = AXIS2_PLACEMENT_3D ( 'NONE', #42, #161, #269 ) ;
#81 = ORIENTED_EDGE ( 'NONE', *, *, #379, .T. ) ;
#82 = PRESENTATION_STYLE_ASSIGNMENT (( #173 ) ) ;
#83 = VECTOR ( 'NONE', #346, 39.37007874015748143 ) ;
#84 = FILL_AREA_STYLE_COLOUR ( '', #101 ) ;
#85 = DIRECTION ( 'NONE',  ( -0.0000000000000000000, -0.0000000000000000000, -1.000000000000000000 ) ) ;
#86 = EDGE_CURVE ( 'NONE', #115, #341, #252, .T. ) ;
#87 = CARTESIAN_POINT ( 'NONE',  ( 0.05708650000000008162, 0.0000000000000000000, 0.5905510000000000481 ) ) ;
#88 = CARTESIAN_POINT ( 'NONE',  ( 0.0000000000000000000, 0.0000000000000000000, 2.244094000000000033 ) ) ;
#89 = DIRECTION ( 'NONE',  ( -0.0000000000000000000, -0.0000000000000000000, -1.000000000000000000 ) ) ;
#90 = ORIENTED_EDGE ( 'NONE', *, *, #365, .F. ) ;
#91 = DIRECTION ( 'NONE',  ( 1.000000000000000000, 0.0000000000000000000, 0.0000000000000000000 ) ) ;
#92 = AXIS2_PLACEMENT_3D ( 'NONE', #275, #280, #226 ) ;
#93 = LINE ( 'NONE', #281, #321 ) ;
#94 = ORIENTED_EDGE ( 'NONE', *, *, #61, .F. ) ;
#95 = DIMENSIONAL_EXPONENTS ( 1.000000000000000000, 0.0000000000000000000, 0.0000000000000000000, 0.0000000000000000000, 0.0000000000000000000, 0.0000000000000000000, 0.0000000000000000000 ) ;
#96 = FACE_OUTER_BOUND ( 'NONE', #204, .T. ) ;
#97 = ORIENTED_EDGE ( 'NONE', *, *, #72, .F. ) ;
#98 = EDGE_CURVE ( 'NONE', #227, #111, #323, .T. ) ;
#99 = EDGE_CURVE ( 'NONE', #131, #115, #274, .T. ) ;
#100 = CARTESIAN_POINT ( 'NONE',  ( -0.05708650000000004693, 0.0000000000000000000, 0.0000000000000000000 ) ) ;
#101 = COLOUR_RGB ( '',0.7921568627450980005, 0.8196078431372548767, 0.9333333333333333481 ) ;
#102 = SURFACE_STYLE_FILL_AREA ( #38 ) ;
#103 = PRESENTATION_STYLE_ASSIGNMENT (( #7 ) ) ;
#104 = EDGE_CURVE ( 'NONE', #192, #208, #51, .T. ) ;
#105 = ORIENTED_EDGE ( 'NONE', *, *, #30, .F. ) ;
#106 = CIRCLE ( 'NONE', #33, 0.05708650000000001917 ) ;
#107 = DIRECTION ( 'NONE',  ( 1.000000000000000000, 0.0000000000000000000, -0.0000000000000000000 ) ) ;
#108 = DIRECTION ( 'NONE',  ( -0.0000000000000000000, -0.0000000000000000000, -1.000000000000000000 ) ) ;
#109 = EDGE_CURVE ( 'NONE', #282, #163, #355, .T. ) ;
#110 = DIRECTION ( 'NONE',  ( -0.0000000000000000000, -0.0000000000000000000, -1.000000000000000000 ) ) ;
#111 = VERTEX_POINT ( 'NONE', #24 ) ;
#112 = DIRECTION ( 'NONE',  ( -1.000000000000000000, 0.0000000000000000000, 0.0000000000000000000 ) ) ;
#113 = CARTESIAN_POINT ( 'NONE',  ( 0.0000000000000000000, 0.0000000000000000000, 0.1181100000000000066 ) ) ;
#114 = FACE_OUTER_BOUND ( 'NONE', #64, .T. ) ;
#115 = VERTEX_POINT ( 'NONE', #134 ) ;
#116 = DIRECTION ( 'NONE',  ( 0.0000000000000000000, 0.0000000000000000000, -1.000000000000000000 ) ) ;
#117 = ORIENTED_EDGE ( 'NONE', *, *, #308, .F. ) ;
#118 = CIRCLE ( 'NONE', #188, 0.05708650000000008162 ) ;
#119 =( GEOMETRIC_REPRESENTATION_CONTEXT ( 3 ) GLOBAL_UNCERTAINTY_ASSIGNED_CONTEXT ( ( #339 ) ) GLOBAL_UNIT_ASSIGNED_CONTEXT ( ( #128, #9, #268 ) ) REPRESENTATION_CONTEXT ( 'NONE', 'WORKASPACE' ) );
#120 = DIRECTION ( 'NONE',  ( -0.0000000000000000000, -0.0000000000000000000, -1.000000000000000000 ) ) ;
#121 = ORIENTED_EDGE ( 'NONE', *, *, #72, .T. ) ;
#122 = DIRECTION ( 'NONE',  ( 0.0000000000000000000, 0.0000000000000000000, 1.000000000000000000 ) ) ;
#123 = DIRECTION ( 'NONE',  ( -0.0000000000000000000, -0.0000000000000000000, -1.000000000000000000 ) ) ;
#124 = PRODUCT_CONTEXT ( 'NONE', #292, 'mechanical' ) ;
#125 = CONICAL_SURFACE ( 'NONE', #39, 0.05904909450000001003, 0.1745329251994321984 ) ;
#126 = ORIENTED_EDGE ( 'NONE', *, *, #98, .T. ) ;
#127 = ORIENTED_EDGE ( 'NONE', *, *, #19, .T. ) ;
#128 =( CONVERSION_BASED_UNIT ( 'INCH', #294 ) LENGTH_UNIT ( ) NAMED_UNIT ( #143 ) );
#129 = ORIENTED_EDGE ( 'NONE', *, *, #155, .F. ) ;
#130 = EDGE_CURVE ( 'NONE', #2, #131, #212, .T. ) ;
#131 = VERTEX_POINT ( 'NONE', #307 ) ;
#132 = PRODUCT ( 'Micro_MMBM-030-15X', 'Micro_MMBM-030-15X', '', ( #124 ) ) ;
#133 = ADVANCED_FACE ( 'NONE', ( #364 ), #366, .T. ) ;
#134 = CARTESIAN_POINT ( 'NONE',  ( 0.05708650000000001917, 7.111254203575000753E-18, 0.1292404265071317171 ) ) ;
#135 = PRODUCT_DEFINITION_CONTEXT ( 'detailed design', #67, 'design' ) ;
#136 = MANIFOLD_SOLID_BREP ( 'Cut-Revolve1', #215 ) ;
#137 = AXIS2_PLACEMENT_3D ( 'NONE', #113, #120, #63 ) ;
#138 = LINE ( 'NONE', #247, #45 ) ;
#139 = VERTEX_POINT ( 'NONE', #47 ) ;
#140 = CARTESIAN_POINT ( 'NONE',  ( -0.05904909450000001003, 0.0000000000000000000, 0.0000000000000000000 ) ) ;
#141 = DIRECTION ( 'NONE',  ( -0.0000000000000000000, -0.0000000000000000000, -1.000000000000000000 ) ) ;
#142 = ORIENTED_EDGE ( 'NONE', *, *, #180, .F. ) ;
#143 = DIMENSIONAL_EXPONENTS ( 1.000000000000000000, 0.0000000000000000000, 0.0000000000000000000, 0.0000000000000000000, 0.0000000000000000000, 0.0000000000000000000, 0.0000000000000000000 ) ;
#144 = PRESENTATION_LAYER_ASSIGNMENT (  '', '', ( #295 ) ) ;
#145 = CARTESIAN_POINT ( 'NONE',  ( 0.0000000000000000000, 0.0000000000000000000, 0.0000000000000000000 ) ) ;
#146 = DIRECTION ( 'NONE',  ( 1.000000000000000000, 0.0000000000000000000, 0.0000000000000000000 ) ) ;
#147 = ORIENTED_EDGE ( 'NONE', *, *, #98, .F. ) ;
#148 = DIRECTION ( 'NONE',  ( -1.000000000000000000, 0.0000000000000000000, 0.0000000000000000000 ) ) ;
#149 = EDGE_LOOP ( 'NONE', ( #66, #357, #309, #190 ) ) ;
#150 = DIRECTION ( 'NONE',  ( -1.000000000000000000, 0.0000000000000000000, 0.0000000000000000000 ) ) ;
#151 = AXIS2_PLACEMENT_3D ( 'NONE', #232, #174, #150 ) ;
#152 = LINE ( 'NONE', #262, #218 ) ;
#153 = ORIENTED_EDGE ( 'NONE', *, *, #303, .F. ) ;
#154 = LENGTH_MEASURE_WITH_UNIT ( LENGTH_MEASURE( 0.02539999999999999897 ), #322 );
#155 = EDGE_CURVE ( 'NONE', #163, #282, #198, .T. ) ;
#156 = CONICAL_SURFACE ( 'NONE', #75, 0.1031100000000002570, 0.7853981633974318477 ) ;
#157 = CIRCLE ( 'NONE', #272, 0.1031100000000002570 ) ;
#158 = APPLICATION_PROTOCOL_DEFINITION ( 'draft international standard', 'automotive_design', 1998, #292 ) ;
#159 = DIRECTION ( 'NONE',  ( -0.0000000000000000000, -0.0000000000000000000, -1.000000000000000000 ) ) ;
#160 = DIRECTION ( 'NONE',  ( 0.0000000000000000000, 0.0000000000000000000, 1.000000000000000000 ) ) ;
#161 = DIRECTION ( 'NONE',  ( 0.0000000000000000000, 0.0000000000000000000, -1.000000000000000000 ) ) ;
#162 = CARTESIAN_POINT ( 'NONE',  ( 0.0000000000000000000, 0.0000000000000000000, 0.1292404265071317171 ) ) ;
#163 = VERTEX_POINT ( 'NONE', #140 ) ;
#164 = FACE_OUTER_BOUND ( 'NONE', #149, .T. ) ;
#165 = DIRECTION ( 'NONE',  ( -1.000000000000000000, 0.0000000000000000000, 0.0000000000000000000 ) ) ;
#166 = AXIS2_PLACEMENT_3D ( 'NONE', #343, #284, #313 ) ;
#167 =( GEOMETRIC_REPRESENTATION_CONTEXT ( 3 ) GLOBAL_UNCERTAINTY_ASSIGNED_CONTEXT ( ( #171 ) ) GLOBAL_UNIT_ASSIGNED_CONTEXT ( ( #77, #41, #265 ) ) REPRESENTATION_CONTEXT ( 'NONE', 'WORKASPACE' ) );
#168 = DIRECTION ( 'NONE',  ( -1.000000000000000000, 0.0000000000000000000, 0.0000000000000000000 ) ) ;
#169 = ADVANCED_FACE ( 'NONE', ( #164 ), #225, .T. ) ;
#170 = CARTESIAN_POINT ( 'NONE',  ( 0.0000000000000000000, 0.0000000000000000000, 0.0000000000000000000 ) ) ;
#171 = UNCERTAINTY_MEASURE_WITH_UNIT (LENGTH_MEASURE( 1.000000000000000082E-05 ), #77, 'distance_accuracy_value', 'NONE');
#172 = EDGE_LOOP ( 'NONE', ( #298, #81 ) ) ;
#173 = SURFACE_STYLE_USAGE ( .BOTH. , #310 ) ;
#174 = DIRECTION ( 'NONE',  ( -0.0000000000000000000, -0.0000000000000000000, -1.000000000000000000 ) ) ;
#175 = ORIENTED_EDGE ( 'NONE', *, *, #303, .T. ) ;
#176 = AXIS2_PLACEMENT_3D ( 'NONE', #170, #197, #112 ) ;
#177 = PRESENTATION_LAYER_ASSIGNMENT (  '', '', ( #324 ) ) ;
#178 = FACE_OUTER_BOUND ( 'NONE', #189, .T. ) ;
#179 = ORIENTED_EDGE ( 'NONE', *, *, #104, .T. ) ;
#180 = EDGE_CURVE ( 'NONE', #111, #227, #70, .T. ) ;
#181 = DIRECTION ( 'NONE',  ( -1.000000000000000000, 0.0000000000000000000, 0.0000000000000000000 ) ) ;
#182 = ORIENTED_EDGE ( 'NONE', *, *, #130, .T. ) ;
#183 = DIRECTION ( 'NONE',  ( -0.0000000000000000000, -0.0000000000000000000, -1.000000000000000000 ) ) ;
#184 = VERTEX_POINT ( 'NONE', #199 ) ;
#185 = AXIS2_PLACEMENT_3D ( 'NONE', #88, #206, #257 ) ;
#186 =( LENGTH_UNIT ( ) NAMED_UNIT ( * ) SI_UNIT ( $, .METRE. ) );
#187 = ADVANCED_FACE ( 'NONE', ( #342 ), #48, .T. ) ;
#188 = AXIS2_PLACEMENT_3D ( 'NONE', #328, #296, #43 ) ;
#189 = EDGE_LOOP ( 'NONE', ( #182, #377, #316, #94 ) ) ;
#190 = ORIENTED_EDGE ( 'NONE', *, *, #109, .F. ) ;
#191 = SHAPE_DEFINITION_REPRESENTATION ( #22, #17 ) ;
#192 = VERTEX_POINT ( 'NONE', #231 ) ;
#193 = CARTESIAN_POINT ( 'NONE',  ( 0.0000000000000000000, 0.0000000000000000000, 0.1292404265071317171 ) ) ;
#194 = AXIS2_PLACEMENT_3D ( 'NONE', #145, #335, #249 ) ;
#195 = LENGTH_MEASURE_WITH_UNIT ( LENGTH_MEASURE( 0.02539999999999999897 ), #201 );
#196 = DIRECTION ( 'NONE',  ( -0.0000000000000000000, -0.0000000000000000000, -1.000000000000000000 ) ) ;
#197 = DIRECTION ( 'NONE',  ( -0.0000000000000000000, -0.0000000000000000000, -1.000000000000000000 ) ) ;
#198 = CIRCLE ( 'NONE', #176, 0.05904909450000001003 ) ;
#199 = CARTESIAN_POINT ( 'NONE',  ( -0.05904909450000001003, 0.0000000000000000000, 0.1181100000000000066 ) ) ;
#200 = ORIENTED_EDGE ( 'NONE', *, *, #379, .F. ) ;
#201 =( LENGTH_UNIT ( ) NAMED_UNIT ( * ) SI_UNIT ( $, .METRE. ) );
#202 = CARTESIAN_POINT ( 'NONE',  ( 0.05904909450000001003, 7.231428457197458695E-18, 0.0000000000000000000 ) ) ;
#203 = CYLINDRICAL_SURFACE ( 'NONE', #166, 0.05708650000000004693 ) ;
#204 = EDGE_LOOP ( 'NONE', ( #54, #362, #367, #90 ) ) ;
#205 = AXIS2_PLACEMENT_3D ( 'NONE', #71, #183, #35 ) ;
#206 = DIRECTION ( 'NONE',  ( 0.0000000000000000000, 0.0000000000000000000, 1.000000000000000000 ) ) ;
#207 = CYLINDRICAL_SURFACE ( 'NONE', #151, 0.1181100000000000066 ) ;
#208 = VERTEX_POINT ( 'NONE', #279 ) ;
#209 = LINE ( 'NONE', #317, #363 ) ;
#210 = ORIENTED_EDGE ( 'NONE', *, *, #368, .F. ) ;
#211 = DIRECTION ( 'NONE',  ( -0.0000000000000000000, -0.0000000000000000000, -1.000000000000000000 ) ) ;
#212 = CIRCLE ( 'NONE', #5, 0.05708650000000008162 ) ;
#213 = EDGE_CURVE ( 'NONE', #20, #192, #138, .T. ) ;
#214 = SURFACE_SIDE_STYLE ('',( #102 ) ) ;
#215 = CLOSED_SHELL ( 'NONE', ( #133, #348, #273, #50, #187, #338, #220, #354, #327, #356, #304, #169, #69 ) ) ;
#216 = VECTOR ( 'NONE', #211, 39.37007874015748143 ) ;
#217 = CARTESIAN_POINT ( 'NONE',  ( -0.1181100000000000066, 0.0000000000000000000, 2.244094000000000033 ) ) ;
#218 = VECTOR ( 'NONE', #230, 39.37007874015748854 ) ;
#219 = DIRECTION ( 'NONE',  ( 1.000000000000000000, 0.0000000000000000000, 0.0000000000000000000 ) ) ;
#220 = ADVANCED_FACE ( 'NONE', ( #37 ), #28, .T. ) ;
#221 = ORIENTED_EDGE ( 'NONE', *, *, #334, .T. ) ;
#222 = ORIENTED_EDGE ( 'NONE', *, *, #213, .T. ) ;
#223 = EDGE_LOOP ( 'NONE', ( #351, #97 ) ) ;
#224 = AXIS2_PLACEMENT_3D ( 'NONE', #52, #371, #168 ) ;
#225 = CYLINDRICAL_SURFACE ( 'NONE', #194, 0.05904909450000001003 ) ;
#226 = DIRECTION ( 'NONE',  ( 1.000000000000000000, 0.0000000000000000000, 0.0000000000000000000 ) ) ;
#227 = VERTEX_POINT ( 'NONE', #344 ) ;
#228 = MECHANICAL_DESIGN_GEOMETRIC_PRESENTATION_REPRESENTATION (  '', ( #295 ), #245 ) ;
#229 = DIRECTION ( 'NONE',  ( -0.0000000000000000000, -0.0000000000000000000, -1.000000000000000000 ) ) ;
#230 = DIRECTION ( 'NONE',  ( -0.7071067811865358044, 0.0000000000000000000, -0.7071067811865590080 ) ) ;
#231 = CARTESIAN_POINT ( 'NONE',  ( 0.1181100000000000066, 1.446430334472939084E-17, 2.229093999999999465 ) ) ;
#232 = CARTESIAN_POINT ( 'NONE',  ( 0.0000000000000000000, 0.0000000000000000000, 2.244094000000000033 ) ) ;
#233 = CARTESIAN_POINT ( 'NONE',  ( 0.05904909450000001003, 7.231428457197458695E-18, 0.1181100000000000066 ) ) ;
#234 = CARTESIAN_POINT ( 'NONE',  ( 0.05904909450000001003, 7.231428457197458695E-18, 0.0000000000000000000 ) ) ;
#235 = PLANE ( 'NONE',  #300 ) ;
#236 = CARTESIAN_POINT ( 'NONE',  ( -0.05904909450000001003, 0.0000000000000000000, 0.0000000000000000000 ) ) ;
#237 = AXIS2_PLACEMENT_3D ( 'NONE', #349, #286, #91 ) ;
#238 = PRODUCT_RELATED_PRODUCT_CATEGORY ( 'part', '', ( #132 ) ) ;
#239 = LINE ( 'NONE', #236, #49 ) ;
#240 = CIRCLE ( 'NONE', #237, 0.1031100000000002570 ) ;
#241 = FACE_OUTER_BOUND ( 'NONE', #76, .T. ) ;
#242 = DIRECTION ( 'NONE',  ( -1.000000000000000000, 0.0000000000000000000, 0.0000000000000000000 ) ) ;
#243 = CARTESIAN_POINT ( 'NONE',  ( 0.1031100000000002570, 1.354581824536888722E-17, 2.244094000000000033 ) ) ;
#244 =( CONVERSION_BASED_UNIT ( 'INCH', #195 ) LENGTH_UNIT ( ) NAMED_UNIT ( #62 ) );
#245 =( GEOMETRIC_REPRESENTATION_CONTEXT ( 3 ) GLOBAL_UNCERTAINTY_ASSIGNED_CONTEXT ( ( #250 ) ) GLOBAL_UNIT_ASSIGNED_CONTEXT ( ( #244, #18, #53 ) ) REPRESENTATION_CONTEXT ( 'NONE', 'WORKASPACE' ) );
#246 = SURFACE_STYLE_FILL_AREA ( #16 ) ;
#247 = CARTESIAN_POINT ( 'NONE',  ( 0.1031100000000002570, 1.262733314600838667E-17, 2.244094000000000033 ) ) ;
#248 = ORIENTED_EDGE ( 'NONE', *, *, #104, .F. ) ;
#249 = DIRECTION ( 'NONE',  ( -1.000000000000000000, 0.0000000000000000000, 0.0000000000000000000 ) ) ;
#250 = UNCERTAINTY_MEASURE_WITH_UNIT (LENGTH_MEASURE( 1.000000000000000082E-05 ), #244, 'distance_accuracy_value', 'NONE');
#251 = CARTESIAN_POINT ( 'NONE',  ( -0.05708650000000001917, 0.0000000000000000000, 0.1292404265071317171 ) ) ;
#252 = CIRCLE ( 'NONE', #10, 0.05708650000000001917 ) ;
#253 = CARTESIAN_POINT ( 'NONE',  ( 0.0000000000000000000, 0.0000000000000000000, 0.0000000000000000000 ) ) ;
#254 = DIRECTION ( 'NONE',  ( -1.000000000000000000, 0.0000000000000000000, 0.0000000000000000000 ) ) ;
#255 = ORIENTED_EDGE ( 'NONE', *, *, #334, .F. ) ;
#256 = FACE_OUTER_BOUND ( 'NONE', #12, .T. ) ;
#257 = DIRECTION ( 'NONE',  ( 1.000000000000000000, 0.0000000000000000000, -0.0000000000000000000 ) ) ;
#258 = CYLINDRICAL_SURFACE ( 'NONE', #291, 0.05708650000000004693 ) ;
#259 = EDGE_LOOP ( 'NONE', ( #117, #179, #127, #142 ) ) ;
#260 = AXIS2_PLACEMENT_3D ( 'NONE', #55, #229, #165 ) ;
#261 = COLOUR_RGB ( '',0.7921568627450980005, 0.8196078431372548767, 0.9333333333333333481 ) ;
#262 = CARTESIAN_POINT ( 'NONE',  ( -0.1031100000000002570, 0.0000000000000000000, 2.244094000000000033 ) ) ;
#263 = CARTESIAN_POINT ( 'NONE',  ( -0.05708650000000008162, 0.0000000000000000000, 0.5905510000000000481 ) ) ;
#264 = EDGE_CURVE ( 'NONE', #288, #20, #240, .T. ) ;
#265 =( NAMED_UNIT ( * ) SI_UNIT ( $, .STERADIAN. ) SOLID_ANGLE_UNIT ( ) );
#266 = CIRCLE ( 'NONE', #283, 0.1181100000000000066 ) ;
#267 = ORIENTED_EDGE ( 'NONE', *, *, #297, .T. ) ;
#268 =( NAMED_UNIT ( * ) SI_UNIT ( $, .STERADIAN. ) SOLID_ANGLE_UNIT ( ) );
#269 = DIRECTION ( 'NONE',  ( -1.000000000000000000, 0.0000000000000000000, 0.0000000000000000000 ) ) ;
#270 = CONICAL_SURFACE ( 'NONE', #80, 0.1031100000000002570, 0.7853981633974318477 ) ;
#271 = DIRECTION ( 'NONE',  ( -0.0000000000000000000, -0.0000000000000000000, -1.000000000000000000 ) ) ;
#272 = AXIS2_PLACEMENT_3D ( 'NONE', #1, #122, #352 ) ;
#273 = ADVANCED_FACE ( 'NONE', ( #318 ), #369, .T. ) ;
#274 = LINE ( 'NONE', #13, #359 ) ;
#275 = CARTESIAN_POINT ( 'NONE',  ( 0.0000000000000000000, 0.0000000000000000000, 2.229093999999999465 ) ) ;
#276 = EDGE_CURVE ( 'NONE', #139, #282, #376, .T. ) ;
#277 = DIRECTION ( 'NONE',  ( -1.000000000000000000, 0.0000000000000000000, 0.0000000000000000000 ) ) ;
#278 = PRODUCT_DEFINITION ( 'UNKNOWN', '', #15, #135 ) ;
#279 = CARTESIAN_POINT ( 'NONE',  ( -0.1181100000000000066, 0.0000000000000000000, 2.229093999999999465 ) ) ;
#280 = DIRECTION ( 'NONE',  ( 0.0000000000000000000, 0.0000000000000000000, -1.000000000000000000 ) ) ;
#281 = CARTESIAN_POINT ( 'NONE',  ( 0.1181100000000000066, 1.446430334472939084E-17, 2.244094000000000033 ) ) ;
#282 = VERTEX_POINT ( 'NONE', #202 ) ;
#283 = AXIS2_PLACEMENT_3D ( 'NONE', #350, #31, #146 ) ;
#284 = DIRECTION ( 'NONE',  ( -0.0000000000000000000, -0.0000000000000000000, -1.000000000000000000 ) ) ;
#285 = ORIENTED_EDGE ( 'NONE', *, *, #308, .T. ) ;
#286 = DIRECTION ( 'NONE',  ( 0.0000000000000000000, 0.0000000000000000000, 1.000000000000000000 ) ) ;
#287 = DIRECTION ( 'NONE',  ( -1.000000000000000000, 0.0000000000000000000, 0.0000000000000000000 ) ) ;
#288 = VERTEX_POINT ( 'NONE', #372 ) ;
#289 = CARTESIAN_POINT ( 'NONE',  ( 0.0000000000000000000, 0.0000000000000000000, 0.1181100000000000066 ) ) ;
#290 = ORIENTED_EDGE ( 'NONE', *, *, #368, .T. ) ;
#291 = AXIS2_PLACEMENT_3D ( 'NONE', #29, #26, #148 ) ;
#292 = APPLICATION_CONTEXT ( 'automotive_design' ) ;
#293 = CARTESIAN_POINT ( 'NONE',  ( 0.0000000000000000000, 0.0000000000000000000, 0.0000000000000000000 ) ) ;
#294 = LENGTH_MEASURE_WITH_UNIT ( LENGTH_MEASURE( 0.02539999999999999897 ), #186 );
#295 = STYLED_ITEM ( 'NONE', ( #82 ), #136 ) ;
#296 = DIRECTION ( 'NONE',  ( -0.0000000000000000000, -0.0000000000000000000, -1.000000000000000000 ) ) ;
#297 = EDGE_CURVE ( 'NONE', #115, #139, #340, .T. ) ;
#298 = ORIENTED_EDGE ( 'NONE', *, *, #264, .T. ) ;
#299 = EDGE_LOOP ( 'NONE', ( #200, #222, #153, #210 ) ) ;
#300 = AXIS2_PLACEMENT_3D ( 'NONE', #87, #370, #56 ) ;
#301 = DIRECTION ( 'NONE',  ( -1.000000000000000000, 0.0000000000000000000, 0.0000000000000000000 ) ) ;
#302 = DIRECTION ( 'NONE',  ( -1.000000000000000000, 0.0000000000000000000, 0.0000000000000000000 ) ) ;
#303 = EDGE_CURVE ( 'NONE', #208, #192, #266, .T. ) ;
#304 = ADVANCED_FACE ( 'NONE', ( #114 ), #203, .T. ) ;
#305 = DIRECTION ( 'NONE',  ( -1.000000000000000000, 0.0000000000000000000, 0.0000000000000000000 ) ) ;
#306 = CIRCLE ( 'NONE', #137, 0.05904909450000001003 ) ;
#307 = CARTESIAN_POINT ( 'NONE',  ( 0.05708650000000008162, 6.991079949952547434E-18, 0.5905510000000000481 ) ) ;
#308 = EDGE_CURVE ( 'NONE', #192, #111, #93, .T. ) ;
#309 = ORIENTED_EDGE ( 'NONE', *, *, #30, .T. ) ;
#310 = SURFACE_SIDE_STYLE ('',( #246 ) ) ;
#311 = FACE_BOUND ( 'NONE', #223, .T. ) ;
#312 = AXIS2_PLACEMENT_3D ( 'NONE', #68, #73, #254 ) ;
#313 = DIRECTION ( 'NONE',  ( -1.000000000000000000, 0.0000000000000000000, 0.0000000000000000000 ) ) ;
#314 = ORIENTED_EDGE ( 'NONE', *, *, #358, .F. ) ;
#315 = FACE_OUTER_BOUND ( 'NONE', #259, .T. ) ;
#316 = ORIENTED_EDGE ( 'NONE', *, *, #44, .F. ) ;
#317 = CARTESIAN_POINT ( 'NONE',  ( -0.05904909450000001003, 0.0000000000000000000, 0.1181100000000000066 ) ) ;
#318 = FACE_OUTER_BOUND ( 'NONE', #40, .T. ) ;
#319 = DIRECTION ( 'NONE',  ( -0.0000000000000000000, -0.0000000000000000000, -1.000000000000000000 ) ) ;
#320 = PLANE ( 'NONE',  #375 ) ;
#321 = VECTOR ( 'NONE', #319, 39.37007874015748143 ) ;
#322 =( LENGTH_UNIT ( ) NAMED_UNIT ( * ) SI_UNIT ( $, .METRE. ) );
#323 = CIRCLE ( 'NONE', #330, 0.1181100000000000066 ) ;
#324 = STYLED_ITEM ( 'NONE', ( #103 ), #17 ) ;
#325 = FACE_OUTER_BOUND ( 'NONE', #299, .T. ) ;
#326 = APPLICATION_PROTOCOL_DEFINITION ( 'draft international standard', 'automotive_design', 1998, #67 ) ;
#327 = ADVANCED_FACE ( 'NONE', ( #311, #59 ), #235, .T. ) ;
#328 = CARTESIAN_POINT ( 'NONE',  ( 0.0000000000000000000, 0.0000000000000000000, 0.5905510000000000481 ) ) ;
#329 = DIRECTION ( 'NONE',  ( 0.0000000000000000000, 0.0000000000000000000, 1.000000000000000000 ) ) ;
#330 = AXIS2_PLACEMENT_3D ( 'NONE', #361, #108, #301 ) ;
#331 = ORIENTED_EDGE ( 'NONE', *, *, #180, .T. ) ;
#332 = CARTESIAN_POINT ( 'NONE',  ( 0.0000000000000000000, 0.0000000000000000000, 2.244094000000000033 ) ) ;
#333 = DIRECTION ( 'NONE',  ( -0.0000000000000000000, -0.0000000000000000000, -1.000000000000000000 ) ) ;
#334 = EDGE_CURVE ( 'NONE', #184, #139, #306, .T. ) ;
#335 = DIRECTION ( 'NONE',  ( -0.0000000000000000000, -0.0000000000000000000, -1.000000000000000000 ) ) ;
#336 = AXIS2_PLACEMENT_3D ( 'NONE', #332, #196, #305 ) ;
#337 = ORIENTED_EDGE ( 'NONE', *, *, #264, .F. ) ;
#338 = ADVANCED_FACE ( 'NONE', ( #315 ), #207, .T. ) ;
#339 = UNCERTAINTY_MEASURE_WITH_UNIT (LENGTH_MEASURE( 1.000000000000000082E-05 ), #128, 'distance_accuracy_value', 'NONE');
#340 = LINE ( 'NONE', #233, #83 ) ;
#341 = VERTEX_POINT ( 'NONE', #251 ) ;
#342 = FACE_OUTER_BOUND ( 'NONE', #27, .T. ) ;
#343 = CARTESIAN_POINT ( 'NONE',  ( 0.0000000000000000000, 0.0000000000000000000, 0.0000000000000000000 ) ) ;
#344 = CARTESIAN_POINT ( 'NONE',  ( -0.1181100000000000066, 0.0000000000000000000, 0.5905510000000000481 ) ) ;
#345 = AXIS2_PLACEMENT_3D ( 'NONE', #253, #333, #277 ) ;
#346 = DIRECTION ( 'NONE',  ( 0.1736481776669296095, 2.126576849575762362E-17, -0.9848077530122082424 ) ) ;
#347 = EDGE_LOOP ( 'NONE', ( #221, #74, #129, #105 ) ) ;
#348 = ADVANCED_FACE ( 'NONE', ( #178 ), #258, .T. ) ;
#349 = CARTESIAN_POINT ( 'NONE',  ( 0.0000000000000000000, 0.0000000000000000000, 2.244094000000000033 ) ) ;
#350 = CARTESIAN_POINT ( 'NONE',  ( 0.0000000000000000000, 0.0000000000000000000, 2.229093999999999465 ) ) ;
#351 = ORIENTED_EDGE ( 'NONE', *, *, #130, .F. ) ;
#352 = DIRECTION ( 'NONE',  ( 1.000000000000000000, 0.0000000000000000000, 0.0000000000000000000 ) ) ;
#353 = DIRECTION ( 'NONE',  ( -0.0000000000000000000, -0.0000000000000000000, -1.000000000000000000 ) ) ;
#354 = ADVANCED_FACE ( 'NONE', ( #256 ), #156, .T. ) ;
#355 = CIRCLE ( 'NONE', #260, 0.05904909450000001003 ) ;
#356 = ADVANCED_FACE ( 'NONE', ( #96 ), #125, .T. ) ;
#357 = ORIENTED_EDGE ( 'NONE', *, *, #365, .T. ) ;
#358 = EDGE_CURVE ( 'NONE', #341, #184, #209, .T. ) ;
#359 = VECTOR ( 'NONE', #110, 39.37007874015748143 ) ;
#360 = CARTESIAN_POINT ( 'NONE',  ( 0.0000000000000000000, 0.0000000000000000000, 0.0000000000000000000 ) ) ;
#361 = CARTESIAN_POINT ( 'NONE',  ( 0.0000000000000000000, 0.0000000000000000000, 0.5905510000000000481 ) ) ;
#362 = ORIENTED_EDGE ( 'NONE', *, *, #86, .T. ) ;
#363 = VECTOR ( 'NONE', #65, 39.37007874015748143 ) ;
#364 = FACE_OUTER_BOUND ( 'NONE', #347, .T. ) ;
#365 = EDGE_CURVE ( 'NONE', #139, #184, #14, .T. ) ;
#366 = CYLINDRICAL_SURFACE ( 'NONE', #345, 0.05904909450000001003 ) ;
#367 = ORIENTED_EDGE ( 'NONE', *, *, #358, .T. ) ;
#368 = EDGE_CURVE ( 'NONE', #288, #208, #152, .T. ) ;
#369 = CONICAL_SURFACE ( 'NONE', #312, 0.05904909450000001003, 0.1745329251994321984 ) ;
#370 = DIRECTION ( 'NONE',  ( -0.0000000000000000000, 0.0000000000000000000, -1.000000000000000000 ) ) ;
#371 = DIRECTION ( 'NONE',  ( -0.0000000000000000000, -0.0000000000000000000, -1.000000000000000000 ) ) ;
#372 = CARTESIAN_POINT ( 'NONE',  ( -0.1031100000000002570, 0.0000000000000000000, 2.244094000000000033 ) ) ;
#373 = CARTESIAN_POINT ( 'NONE',  ( 0.0000000000000000000, 0.0000000000000000000, 2.244094000000000033 ) ) ;
#374 = ORIENTED_EDGE ( 'NONE', *, *, #61, .T. ) ;
#375 = AXIS2_PLACEMENT_3D ( 'NONE', #360, #329, #107 ) ;
#376 = LINE ( 'NONE', #234, #34 ) ;
#377 = ORIENTED_EDGE ( 'NONE', *, *, #99, .T. ) ;
#378 = AXIS2_PLACEMENT_3D ( 'NONE', #293, #160, #219 ) ;
#379 = EDGE_CURVE ( 'NONE', #20, #288, #157, .T. ) ;
ENDSEC;
END-ISO-10303-21;
