ISO-10303-21;
HEADER;
FILE_DESCRIPTION (( 'STEP AP214' ),
    '1' );
FILE_NAME ('83742.STEP',
    '2023-07-05T19:23:23',
    ( '' ),
    ( '' ),
    'SwSTEP 2.0',
    'SolidWorks 2023',
    '' );
FILE_SCHEMA (( 'AUTOMOTIVE_DESIGN' ));
ENDSEC;

DATA;
#1 = VERTEX_POINT ( 'NONE', #188 ) ;
#2 = EDGE_LOOP ( 'NONE', ( #347, #314, #265, #103 ) ) ;
#3 =( NAMED_UNIT ( * ) SI_UNIT ( $, .STERADIAN. ) SOLID_ANGLE_UNIT ( ) );
#4 = EDGE_LOOP ( 'NONE', ( #24, #159, #162 ) ) ;
#5 = PRESENTATION_STYLE_ASSIGNMENT (( #15 ) ) ;
#6 =( NAMED_UNIT ( * ) SI_UNIT ( $, .STERADIAN. ) SOLID_ANGLE_UNIT ( ) );
#7 = ADVANCED_FACE ( 'NONE', ( #291 ), #268, .T. ) ;
#8 = DIMENSIONAL_EXPONENTS ( 1.000000000000000000, 0.000000000000000000, 0.000000000000000000, 0.000000000000000000, 0.000000000000000000, 0.000000000000000000, 0.000000000000000000 ) ;
#9 = DIRECTION ( 'NONE',  ( -1.000000000000000000, 0.000000000000000000, 0.000000000000000000 ) ) ;
#10 = CARTESIAN_POINT ( 'NONE',  ( 0.000000000000000000, 0.1623797632095817789, -0.09374999999999998612 ) ) ;
#11 = DIRECTION ( 'NONE',  ( 0.000000000000000000, 1.000000000000000000, 0.000000000000000000 ) ) ;
#12 = CIRCLE ( 'NONE', #204, 0.09374999999999988898 ) ;
#13 = SURFACE_SIDE_STYLE ('',( #195 ) ) ;
#14 = CIRCLE ( 'NONE', #278, 0.09375000000000005551 ) ;
#15 = SURFACE_STYLE_USAGE ( .BOTH. , #323 ) ;
#16 = CARTESIAN_POINT ( 'NONE',  ( 0.000000000000000000, 0.000000000000000000, -0.09374999999999998612 ) ) ;
#17 = COLOUR_RGB ( '',1.000000000000000000, 0.000000000000000000, 0.000000000000000000 ) ;
#18 = CIRCLE ( 'NONE', #70, 0.09374999999999998612 ) ;
#19 = APPLICATION_PROTOCOL_DEFINITION ( 'draft international standard', 'automotive_design', 1998, #97 ) ;
#20 = SURFACE_SIDE_STYLE ('',( #277 ) ) ;
#21 =( GEOMETRIC_REPRESENTATION_CONTEXT ( 3 ) GLOBAL_UNCERTAINTY_ASSIGNED_CONTEXT ( ( #186 ) ) GLOBAL_UNIT_ASSIGNED_CONTEXT ( ( #106, #160, #3 ) ) REPRESENTATION_CONTEXT ( 'NONE', 'WORKASPACE' ) );
#22 = CLOSED_SHELL ( 'NONE', ( #7, #40, #39, #351 ) ) ;
#23 = SURFACE_SIDE_STYLE ('',( #201 ) ) ;
#24 = ORIENTED_EDGE ( 'NONE', *, *, #327, .F. ) ;
#25 = ORIENTED_EDGE ( 'NONE', *, *, #327, .T. ) ;
#26 = AXIS2_PLACEMENT_3D ( 'NONE', #100, #243, #105 ) ;
#27 = ORIENTED_EDGE ( 'NONE', *, *, #37, .F. ) ;
#28 = EDGE_CURVE ( 'NONE', #47, #240, #180, .T. ) ;
#29 = UNCERTAINTY_MEASURE_WITH_UNIT (LENGTH_MEASURE( 1.000000000000000082E-05 ), #250, 'distance_accuracy_value', 'NONE');
#30 =( LENGTH_UNIT ( ) NAMED_UNIT ( * ) SI_UNIT ( $, .METRE. ) );
#31 = CARTESIAN_POINT ( 'NONE',  ( 0.000000000000000000, 0.6250000000000000000, 0.000000000000000000 ) ) ;
#32 = CYLINDRICAL_SURFACE ( 'NONE', #248, 0.09374999999999997224 ) ;
#33 = DIRECTION ( 'NONE',  ( -1.221419288799112129E-16, 1.000000000000000000, -0.000000000000000000 ) ) ;
#34 = LINE ( 'NONE', #82, #163 ) ;
#35 = CIRCLE ( 'NONE', #44, 0.09374999999999988898 ) ;
#36 = DIRECTION ( 'NONE',  ( -1.221419288799112129E-16, 1.000000000000000000, -0.000000000000000000 ) ) ;
#37 = EDGE_CURVE ( 'NONE', #246, #1, #300, .T. ) ;
#38 =( NAMED_UNIT ( * ) PLANE_ANGLE_UNIT ( ) SI_UNIT ( $, .RADIAN. ) );
#39 = ADVANCED_FACE ( 'NONE', ( #110 ), #32, .T. ) ;
#40 = ADVANCED_FACE ( 'NONE', ( #147 ), #84, .F. ) ;
#41 = PRESENTATION_LAYER_ASSIGNMENT (  '', '', ( #205 ) ) ;
#42 = DIRECTION ( 'NONE',  ( 0.000000000000000000, 0.000000000000000000, 1.000000000000000000 ) ) ;
#43 = STYLED_ITEM ( 'NONE', ( #123 ), #120 ) ;
#44 = AXIS2_PLACEMENT_3D ( 'NONE', #113, #78, #229 ) ;
#45 = ORIENTED_EDGE ( 'NONE', *, *, #344, .F. ) ;
#46 = FILL_AREA_STYLE ('',( #213 ) ) ;
#47 = VERTEX_POINT ( 'NONE', #10 ) ;
#48 = ORIENTED_EDGE ( 'NONE', *, *, #178, .T. ) ;
#49 = VECTOR ( 'NONE', #65, 39.37007874015748143 ) ;
#50 = EDGE_LOOP ( 'NONE', ( #74, #27 ) ) ;
#51 = VERTEX_POINT ( 'NONE', #139 ) ;
#52 = UNCERTAINTY_MEASURE_WITH_UNIT (LENGTH_MEASURE( 1.000000000000000082E-05 ), #280, 'distance_accuracy_value', 'NONE');
#53 = FILL_AREA_STYLE_COLOUR ( '', #92 ) ;
#54 = FILL_AREA_STYLE ('',( #53 ) ) ;
#55 = CARTESIAN_POINT ( 'NONE',  ( -6.123233995736763571E-17, 2.000000000000000000, 0.000000000000000000 ) ) ;
#56 = ADVANCED_FACE ( 'NONE', ( #176 ), #171, .T. ) ;
#57 =( NAMED_UNIT ( * ) PLANE_ANGLE_UNIT ( ) SI_UNIT ( $, .RADIAN. ) );
#58 = PRODUCT_DEFINITION_SHAPE ( 'NONE', 'NONE',  #64 ) ;
#59 = DIRECTION ( 'NONE',  ( 1.000000000000000000, 1.221419288799112129E-16, 0.000000000000000000 ) ) ;
#60 = DIRECTION ( 'NONE',  ( 0.000000000000000000, 0.8660254037844380415, 0.5000000000000009992 ) ) ;
#61 = VECTOR ( 'NONE', #234, 39.37007874015748143 ) ;
#62 = DIRECTION ( 'NONE',  ( -1.000000000000000000, -1.221419288799112129E-16, 0.000000000000000000 ) ) ;
#63 = PRESENTATION_STYLE_ASSIGNMENT (( #305 ) ) ;
#64 = PRODUCT_DEFINITION ( 'UNKNOWN', '', #349, #136 ) ;
#65 = DIRECTION ( 'NONE',  ( -1.221419288799112129E-16, 1.000000000000000000, -0.000000000000000000 ) ) ;
#66 = PRESENTATION_LAYER_ASSIGNMENT (  '', '', ( #43 ) ) ;
#67 =( NAMED_UNIT ( * ) PLANE_ANGLE_UNIT ( ) SI_UNIT ( $, .RADIAN. ) );
#68 = APPLICATION_PROTOCOL_DEFINITION ( 'draft international standard', 'automotive_design', 1998, #116 ) ;
#69 = CARTESIAN_POINT ( 'NONE',  ( 0.000000000000000000, 0.000000000000000000, 0.000000000000000000 ) ) ;
#70 = AXIS2_PLACEMENT_3D ( 'NONE', #299, #190, #189 ) ;
#71 =( NAMED_UNIT ( * ) PLANE_ANGLE_UNIT ( ) SI_UNIT ( $, .RADIAN. ) );
#72 = ORIENTED_EDGE ( 'NONE', *, *, #217, .F. ) ;
#73 = CARTESIAN_POINT ( 'NONE',  ( 0.000000000000000000, 0.000000000000000000, 0.000000000000000000 ) ) ;
#74 = ORIENTED_EDGE ( 'NONE', *, *, #242, .F. ) ;
#75 = CIRCLE ( 'NONE', #26, 0.09374999999999998612 ) ;
#76 = DIRECTION ( 'NONE',  ( -0.000000000000000000, -1.000000000000000000, -0.000000000000000000 ) ) ;
#77 = ORIENTED_EDGE ( 'NONE', *, *, #141, .F. ) ;
#78 = DIRECTION ( 'NONE',  ( -1.221419288799112129E-16, 1.000000000000000000, -0.000000000000000000 ) ) ;
#79 = DIMENSIONAL_EXPONENTS ( 1.000000000000000000, 0.000000000000000000, 0.000000000000000000, 0.000000000000000000, 0.000000000000000000, 0.000000000000000000, 0.000000000000000000 ) ;
#80 = FACE_OUTER_BOUND ( 'NONE', #4, .T. ) ;
#81 =( CONVERSION_BASED_UNIT ( 'INCH', #296 ) LENGTH_UNIT ( ) NAMED_UNIT ( #306 ) );
#82 = CARTESIAN_POINT ( 'NONE',  ( 1.148106374200643401E-17, 0.000000000000000000, 0.09374999999999998612 ) ) ;
#83 = FILL_AREA_STYLE ('',( #331 ) ) ;
#84 = PLANE ( 'NONE',  #164 ) ;
#85 = DIMENSIONAL_EXPONENTS ( 1.000000000000000000, 0.000000000000000000, 0.000000000000000000, 0.000000000000000000, 0.000000000000000000, 0.000000000000000000, 0.000000000000000000 ) ;
#86 = PLANE ( 'NONE',  #303 ) ;
#87 = SURFACE_SIDE_STYLE ('',( #338 ) ) ;
#88 = DIRECTION ( 'NONE',  ( 6.123233995736778362E-17, 0.8660254037844380415, -0.5000000000000009992 ) ) ;
#89 = EDGE_CURVE ( 'NONE', #266, #168, #173, .T. ) ;
#90 = COLOUR_RGB ( '',1.000000000000000000, 0.000000000000000000, 0.000000000000000000 ) ;
#91 = EDGE_CURVE ( 'NONE', #240, #47, #75, .T. ) ;
#92 = COLOUR_RGB ( '',1.000000000000000000, 0.000000000000000000, 0.000000000000000000 ) ;
#93 = FACE_OUTER_BOUND ( 'NONE', #214, .T. ) ;
#94 = DIRECTION ( 'NONE',  ( 0.000000000000000000, 0.000000000000000000, -1.000000000000000000 ) ) ;
#95 =( NAMED_UNIT ( * ) PLANE_ANGLE_UNIT ( ) SI_UNIT ( $, .RADIAN. ) );
#96 =( CONVERSION_BASED_UNIT ( 'INCH', #119 ) LENGTH_UNIT ( ) NAMED_UNIT ( #339 ) );
#97 = APPLICATION_CONTEXT ( 'automotive_design' ) ;
#98 = COLOUR_RGB ( '',0.7921568627450980005, 0.8196078431372548767, 0.9333333333333333481 ) ;
#99 = AXIS2_PLACEMENT_3D ( 'NONE', #252, #11, #111 ) ;
#100 = CARTESIAN_POINT ( 'NONE',  ( 0.000000000000000000, 0.1623797632095817789, 0.000000000000000000 ) ) ;
#101 = LINE ( 'NONE', #16, #61 ) ;
#102 = FILL_AREA_STYLE_COLOUR ( '', #98 ) ;
#103 = ORIENTED_EDGE ( 'NONE', *, *, #91, .F. ) ;
#104 = ORIENTED_EDGE ( 'NONE', *, *, #326, .F. ) ;
#105 = DIRECTION ( 'NONE',  ( 0.000000000000000000, 0.000000000000000000, -1.000000000000000000 ) ) ;
#106 =( CONVERSION_BASED_UNIT ( 'INCH', #125 ) LENGTH_UNIT ( ) NAMED_UNIT ( #8 ) );
#107 = ORIENTED_EDGE ( 'NONE', *, *, #89, .T. ) ;
#108 = ORIENTED_EDGE ( 'NONE', *, *, #295, .F. ) ;
#109 = AXIS2_PLACEMENT_3D ( 'NONE', #222, #198, #144 ) ;
#110 = FACE_OUTER_BOUND ( 'NONE', #185, .T. ) ;
#111 = DIRECTION ( 'NONE',  ( 0.000000000000000000, 0.000000000000000000, 1.000000000000000000 ) ) ;
#112 = LENGTH_MEASURE_WITH_UNIT ( LENGTH_MEASURE( 0.02539999999999999897 ), #194 );
#113 = CARTESIAN_POINT ( 'NONE',  ( 1.067128122525102851E-16, 0.6250000000000000000, 0.000000000000000000 ) ) ;
#114 = CONICAL_SURFACE ( 'NONE', #99, 22.73032555864674364, 0.5235987755983000369 ) ;
#115 = SURFACE_STYLE_USAGE ( .BOTH. , #13 ) ;
#116 = APPLICATION_CONTEXT ( 'automotive_design' ) ;
#117 = CARTESIAN_POINT ( 'NONE',  ( 0.000000000000000000, 0.000000000000000000, 0.000000000000000000 ) ) ;
#118 =( GEOMETRIC_REPRESENTATION_CONTEXT ( 3 ) GLOBAL_UNCERTAINTY_ASSIGNED_CONTEXT ( ( #289 ) ) GLOBAL_UNIT_ASSIGNED_CONTEXT ( ( #263, #71, #208 ) ) REPRESENTATION_CONTEXT ( 'NONE', 'WORKASPACE' ) );
#119 = LENGTH_MEASURE_WITH_UNIT ( LENGTH_MEASURE( 0.02539999999999999897 ), #343 );
#120 = ADVANCED_FACE ( 'NONE', ( #316 ), #219, .T. ) ;
#121 = LINE ( 'NONE', #307, #49 ) ;
#122 =( NAMED_UNIT ( * ) SI_UNIT ( $, .STERADIAN. ) SOLID_ANGLE_UNIT ( ) );
#123 = PRESENTATION_STYLE_ASSIGNMENT (( #115 ) ) ;
#124 = PRESENTATION_LAYER_ASSIGNMENT (  '', '', ( #135 ) ) ;
#125 = LENGTH_MEASURE_WITH_UNIT ( LENGTH_MEASURE( 0.02539999999999999897 ), #127 );
#126 = VERTEX_POINT ( 'NONE', #150 ) ;
#127 =( LENGTH_UNIT ( ) NAMED_UNIT ( * ) SI_UNIT ( $, .METRE. ) );
#128 = MECHANICAL_DESIGN_GEOMETRIC_PRESENTATION_REPRESENTATION (  '', ( #226 ), #282 ) ;
#129 = ORIENTED_EDGE ( 'NONE', *, *, #151, .F. ) ;
#130 = ADVANCED_FACE ( 'NONE', ( #93 ), #236, .T. ) ;
#131 = ORIENTED_EDGE ( 'NONE', *, *, #326, .T. ) ;
#132 = UNCERTAINTY_MEASURE_WITH_UNIT (LENGTH_MEASURE( 1.000000000000000082E-05 ), #96, 'distance_accuracy_value', 'NONE');
#133 = PRESENTATION_STYLE_ASSIGNMENT (( #187 ) ) ;
#134 = LINE ( 'NONE', #199, #283 ) ;
#135 = STYLED_ITEM ( 'NONE', ( #342 ), #210 ) ;
#136 = PRODUCT_DEFINITION_CONTEXT ( 'detailed design', #97, 'design' ) ;
#137 = DIMENSIONAL_EXPONENTS ( 1.000000000000000000, 0.000000000000000000, 0.000000000000000000, 0.000000000000000000, 0.000000000000000000, 0.000000000000000000, 0.000000000000000000 ) ;
#138 = LENGTH_MEASURE_WITH_UNIT ( LENGTH_MEASURE( 0.02539999999999999897 ), #30 );
#139 = CARTESIAN_POINT ( 'NONE',  ( 0.09374999999999998612, 0.6250000000000000000, 1.148106374200643863E-17 ) ) ;
#140 = DIRECTION ( 'NONE',  ( -1.221419288799112129E-16, 1.000000000000000000, -0.000000000000000000 ) ) ;
#141 = EDGE_CURVE ( 'NONE', #1, #47, #101, .T. ) ;
#142 =( NAMED_UNIT ( * ) PLANE_ANGLE_UNIT ( ) SI_UNIT ( $, .RADIAN. ) );
#143 = UNCERTAINTY_MEASURE_WITH_UNIT (LENGTH_MEASURE( 1.000000000000000082E-05 ), #313, 'distance_accuracy_value', 'NONE');
#144 = DIRECTION ( 'NONE',  ( 0.000000000000000000, 0.000000000000000000, -1.000000000000000000 ) ) ;
#145 = MECHANICAL_DESIGN_GEOMETRIC_PRESENTATION_REPRESENTATION (  '', ( #154 ), #294 ) ;
#146 = DIRECTION ( 'NONE',  ( -1.221419288799112129E-16, 1.000000000000000000, -0.000000000000000000 ) ) ;
#147 = FACE_OUTER_BOUND ( 'NONE', #166, .T. ) ;
#148 = DIRECTION ( 'NONE',  ( 1.000000000000000000, 0.000000000000000000, 0.000000000000000000 ) ) ;
#149 =( GEOMETRIC_REPRESENTATION_CONTEXT ( 3 ) GLOBAL_UNCERTAINTY_ASSIGNED_CONTEXT ( ( #143 ) ) GLOBAL_UNIT_ASSIGNED_CONTEXT ( ( #313, #218, #165 ) ) REPRESENTATION_CONTEXT ( 'NONE', 'WORKASPACE' ) );
#150 = CARTESIAN_POINT ( 'NONE',  ( 0.000000000000000000, 0.000000000000000000, 0.000000000000000000 ) ) ;
#151 = EDGE_CURVE ( 'NONE', #286, #51, #12, .T. ) ;
#152 = LENGTH_MEASURE_WITH_UNIT ( LENGTH_MEASURE( 0.02539999999999999897 ), #309 );
#153 =( GEOMETRIC_REPRESENTATION_CONTEXT ( 3 ) GLOBAL_UNCERTAINTY_ASSIGNED_CONTEXT ( ( #52 ) ) GLOBAL_UNIT_ASSIGNED_CONTEXT ( ( #280, #38, #262 ) ) REPRESENTATION_CONTEXT ( 'NONE', 'WORKASPACE' ) );
#154 = STYLED_ITEM ( 'NONE', ( #63 ), #130 ) ;
#155 = PRODUCT_RELATED_PRODUCT_CATEGORY ( 'part', '', ( #216 ) ) ;
#156 =( LENGTH_UNIT ( ) NAMED_UNIT ( * ) SI_UNIT ( $, .METRE. ) );
#157 = ORIENTED_EDGE ( 'NONE', *, *, #242, .T. ) ;
#158 = SURFACE_STYLE_USAGE ( .BOTH. , #184 ) ;
#159 = ORIENTED_EDGE ( 'NONE', *, *, #344, .T. ) ;
#160 =( NAMED_UNIT ( * ) PLANE_ANGLE_UNIT ( ) SI_UNIT ( $, .RADIAN. ) );
#161 = COLOUR_RGB ( '',1.000000000000000000, 0.000000000000000000, 0.000000000000000000 ) ;
#162 = ORIENTED_EDGE ( 'NONE', *, *, #28, .T. ) ;
#163 = VECTOR ( 'NONE', #251, 39.37007874015748143 ) ;
#164 = AXIS2_PLACEMENT_3D ( 'NONE', #254, #298, #62 ) ;
#165 =( NAMED_UNIT ( * ) SI_UNIT ( $, .STERADIAN. ) SOLID_ANGLE_UNIT ( ) );
#166 = EDGE_LOOP ( 'NONE', ( #129, #104 ) ) ;
#167 = UNCERTAINTY_MEASURE_WITH_UNIT (LENGTH_MEASURE( 1.000000000000000082E-05 ), #337, 'distance_accuracy_value', 'NONE');
#168 = VERTEX_POINT ( 'NONE', #182 ) ;
#169 = FACE_OUTER_BOUND ( 'NONE', #285, .T. ) ;
#170 = PRESENTATION_LAYER_ASSIGNMENT (  '', '', ( #312 ) ) ;
#171 = PLANE ( 'NONE',  #179 ) ;
#172 = CARTESIAN_POINT ( 'NONE',  ( -6.123233995736763571E-17, 2.000000000000000000, 0.000000000000000000 ) ) ;
#173 = CIRCLE ( 'NONE', #200, 0.09375000000000005551 ) ;
#174 =( GEOMETRIC_REPRESENTATION_CONTEXT ( 3 ) GLOBAL_UNCERTAINTY_ASSIGNED_CONTEXT ( ( #167 ) ) GLOBAL_UNIT_ASSIGNED_CONTEXT ( ( #337, #57, #6 ) ) REPRESENTATION_CONTEXT ( 'NONE', 'WORKASPACE' ) );
#175 = CLOSED_SHELL ( 'NONE', ( #310, #130, #56, #215, #120 ) ) ;
#176 = FACE_OUTER_BOUND ( 'NONE', #50, .T. ) ;
#177 = FILL_AREA_STYLE_COLOUR ( '', #257 ) ;
#178 = EDGE_CURVE ( 'NONE', #51, #266, #121, .T. ) ;
#179 = AXIS2_PLACEMENT_3D ( 'NONE', #333, #230, #196 ) ;
#180 = CIRCLE ( 'NONE', #109, 0.09374999999999998612 ) ;
#181 = CARTESIAN_POINT ( 'NONE',  ( 1.067128122525102851E-16, 0.6250000000000000000, 0.000000000000000000 ) ) ;
#182 = CARTESIAN_POINT ( 'NONE',  ( -0.09375000000000012490, 2.000000000000000000, 0.000000000000000000 ) ) ;
#183 = MECHANICAL_DESIGN_GEOMETRIC_PRESENTATION_REPRESENTATION (  '', ( #135 ), #118 ) ;
#184 = SURFACE_SIDE_STYLE ('',( #346 ) ) ;
#185 = EDGE_LOOP ( 'NONE', ( #264, #131, #207, #318 ) ) ;
#186 = UNCERTAINTY_MEASURE_WITH_UNIT (LENGTH_MEASURE( 1.000000000000000082E-05 ), #106, 'distance_accuracy_value', 'NONE');
#187 = SURFACE_STYLE_USAGE ( .BOTH. , #319 ) ;
#188 = CARTESIAN_POINT ( 'NONE',  ( 0.000000000000000000, 0.6250000000000000000, -0.09374999999999998612 ) ) ;
#189 = DIRECTION ( 'NONE',  ( 0.000000000000000000, 0.000000000000000000, -1.000000000000000000 ) ) ;
#190 = DIRECTION ( 'NONE',  ( -0.000000000000000000, -1.000000000000000000, -0.000000000000000000 ) ) ;
#191 = DIRECTION ( 'NONE',  ( -1.221419288799112129E-16, 1.000000000000000000, -0.000000000000000000 ) ) ;
#192 = AXIS2_PLACEMENT_3D ( 'NONE', #224, #279, #42 ) ;
#193 = VECTOR ( 'NONE', #140, 39.37007874015748143 ) ;
#194 =( LENGTH_UNIT ( ) NAMED_UNIT ( * ) SI_UNIT ( $, .METRE. ) );
#195 = SURFACE_STYLE_FILL_AREA ( #83 ) ;
#196 = DIRECTION ( 'NONE',  ( 0.000000000000000000, -0.000000000000000000, 1.000000000000000000 ) ) ;
#197 = CARTESIAN_POINT ( 'NONE',  ( 0.09374999999999998612, 2.000000000000000000, 0.000000000000000000 ) ) ;
#198 = DIRECTION ( 'NONE',  ( -0.000000000000000000, -1.000000000000000000, -0.000000000000000000 ) ) ;
#199 = CARTESIAN_POINT ( 'NONE',  ( 0.000000000000000000, 0.000000000000000000, 0.000000000000000000 ) ) ;
#200 = AXIS2_PLACEMENT_3D ( 'NONE', #172, #33, #308 ) ;
#201 = SURFACE_STYLE_FILL_AREA ( #260 ) ;
#202 = ADVANCED_BREP_SHAPE_REPRESENTATION ( '83742', ( #210, #212, #261 ), #340 ) ;
#203 = SHAPE_DEFINITION_REPRESENTATION ( #58, #202 ) ;
#204 = AXIS2_PLACEMENT_3D ( 'NONE', #181, #341, #206 ) ;
#205 = STYLED_ITEM ( 'NONE', ( #5 ), #310 ) ;
#206 = DIRECTION ( 'NONE',  ( -1.000000000000000000, 0.000000000000000000, 0.000000000000000000 ) ) ;
#207 = ORIENTED_EDGE ( 'NONE', *, *, #217, .T. ) ;
#208 =( NAMED_UNIT ( * ) SI_UNIT ( $, .STERADIAN. ) SOLID_ANGLE_UNIT ( ) );
#209 = MECHANICAL_DESIGN_GEOMETRIC_PRESENTATION_REPRESENTATION (  '', ( #312 ), #149 ) ;
#210 = MANIFOLD_SOLID_BREP ( 'Revolve - Cutting Edge', #175 ) ;
#211 = ORIENTED_EDGE ( 'NONE', *, *, #295, .T. ) ;
#212 = MANIFOLD_SOLID_BREP ( 'Revolve - Tool Body (Straight Shanked)', #22 ) ;
#213 = FILL_AREA_STYLE_COLOUR ( '', #348 ) ;
#214 = EDGE_LOOP ( 'NONE', ( #157, #315, #244, #77 ) ) ;
#215 = ADVANCED_FACE ( 'NONE', ( #239 ), #311, .T. ) ;
#216 = PRODUCT ( '83742', '83742', '', ( #304 ) ) ;
#217 = EDGE_CURVE ( 'NONE', #286, #168, #273, .T. ) ;
#218 =( NAMED_UNIT ( * ) PLANE_ANGLE_UNIT ( ) SI_UNIT ( $, .RADIAN. ) );
#219 = CONICAL_SURFACE ( 'NONE', #192, 22.73032555864674364, 0.5235987755983000369 ) ;
#220 = ORIENTED_EDGE ( 'NONE', *, *, #91, .T. ) ;
#221 = SURFACE_STYLE_USAGE ( .BOTH. , #87 ) ;
#222 = CARTESIAN_POINT ( 'NONE',  ( 0.000000000000000000, 0.1623797632095817789, 0.000000000000000000 ) ) ;
#223 = CARTESIAN_POINT ( 'NONE',  ( 1.148106374200643401E-17, 0.6250000000000000000, 0.09374999999999998612 ) ) ;
#224 = CARTESIAN_POINT ( 'NONE',  ( 0.000000000000000000, 39.37007874015748143, 0.000000000000000000 ) ) ;
#225 =( NAMED_UNIT ( * ) SI_UNIT ( $, .STERADIAN. ) SOLID_ANGLE_UNIT ( ) );
#226 = STYLED_ITEM ( 'NONE', ( #324 ), #56 ) ;
#227 = AXIS2_PLACEMENT_3D ( 'NONE', #73, #76, #290 ) ;
#228 = AXIS2_PLACEMENT_3D ( 'NONE', #31, #301, #328 ) ;
#229 = DIRECTION ( 'NONE',  ( -1.000000000000000000, 0.000000000000000000, 0.000000000000000000 ) ) ;
#230 = DIRECTION ( 'NONE',  ( 0.000000000000000000, 1.000000000000000000, 0.000000000000000000 ) ) ;
#231 = CARTESIAN_POINT ( 'NONE',  ( -6.123233995736763571E-17, 2.000000000000000000, 0.000000000000000000 ) ) ;
#232 = DIRECTION ( 'NONE',  ( -1.000000000000000000, 0.000000000000000000, 0.000000000000000000 ) ) ;
#233 = DIMENSIONAL_EXPONENTS ( 1.000000000000000000, 0.000000000000000000, 0.000000000000000000, 0.000000000000000000, 0.000000000000000000, 0.000000000000000000, 0.000000000000000000 ) ;
#234 = DIRECTION ( 'NONE',  ( -0.000000000000000000, -1.000000000000000000, -0.000000000000000000 ) ) ;
#235 = SURFACE_STYLE_USAGE ( .BOTH. , #20 ) ;
#236 = CYLINDRICAL_SURFACE ( 'NONE', #241, 0.09374999999999998612 ) ;
#237 = VECTOR ( 'NONE', #88, 39.37007874015748143 ) ;
#238 = LENGTH_MEASURE_WITH_UNIT ( LENGTH_MEASURE( 0.02539999999999999897 ), #156 );
#239 = FACE_OUTER_BOUND ( 'NONE', #2, .T. ) ;
#240 = VERTEX_POINT ( 'NONE', #293 ) ;
#241 = AXIS2_PLACEMENT_3D ( 'NONE', #69, #345, #94 ) ;
#242 = EDGE_CURVE ( 'NONE', #1, #246, #18, .T. ) ;
#243 = DIRECTION ( 'NONE',  ( -0.000000000000000000, -1.000000000000000000, -0.000000000000000000 ) ) ;
#244 = ORIENTED_EDGE ( 'NONE', *, *, #28, .F. ) ;
#245 = LENGTH_MEASURE_WITH_UNIT ( LENGTH_MEASURE( 0.02539999999999999897 ), #317 );
#246 = VERTEX_POINT ( 'NONE', #223 ) ;
#247 = CARTESIAN_POINT ( 'NONE',  ( -0.09375000000000004163, 2.000000000000000000, 0.000000000000000000 ) ) ;
#248 = AXIS2_PLACEMENT_3D ( 'NONE', #55, #36, #232 ) ;
#249 = EDGE_LOOP ( 'NONE', ( #321, #48, #108, #72 ) ) ;
#250 =( CONVERSION_BASED_UNIT ( 'INCH', #138 ) LENGTH_UNIT ( ) NAMED_UNIT ( #233 ) );
#251 = DIRECTION ( 'NONE',  ( -0.000000000000000000, -1.000000000000000000, -0.000000000000000000 ) ) ;
#252 = CARTESIAN_POINT ( 'NONE',  ( 0.000000000000000000, 39.37007874015748143, 0.000000000000000000 ) ) ;
#253 = SURFACE_STYLE_FILL_AREA ( #54 ) ;
#254 = CARTESIAN_POINT ( 'NONE',  ( 1.067128122525102851E-16, 0.6250000000000000000, 0.000000000000000000 ) ) ;
#255 = CARTESIAN_POINT ( 'NONE',  ( -6.123233995736763571E-17, 2.000000000000000000, 0.000000000000000000 ) ) ;
#256 = FILL_AREA_STYLE_COLOUR ( '', #90 ) ;
#257 = COLOUR_RGB ( '',0.7921568627450980005, 0.8196078431372548767, 0.9333333333333333481 ) ;
#258 =( NAMED_UNIT ( * ) SI_UNIT ( $, .STERADIAN. ) SOLID_ANGLE_UNIT ( ) );
#259 = DIRECTION ( 'NONE',  ( 0.000000000000000000, 0.000000000000000000, 1.000000000000000000 ) ) ;
#260 = FILL_AREA_STYLE ('',( #256 ) ) ;
#261 = AXIS2_PLACEMENT_3D ( 'NONE', #117, #259, #148 ) ;
#262 =( NAMED_UNIT ( * ) SI_UNIT ( $, .STERADIAN. ) SOLID_ANGLE_UNIT ( ) );
#263 =( CONVERSION_BASED_UNIT ( 'INCH', #238 ) LENGTH_UNIT ( ) NAMED_UNIT ( #79 ) );
#264 = ORIENTED_EDGE ( 'NONE', *, *, #178, .F. ) ;
#265 = ORIENTED_EDGE ( 'NONE', *, *, #141, .T. ) ;
#266 = VERTEX_POINT ( 'NONE', #329 ) ;
#267 = PRESENTATION_STYLE_ASSIGNMENT (( #158 ) ) ;
#268 = CYLINDRICAL_SURFACE ( 'NONE', #334, 0.09374999999999997224 ) ;
#269 = LINE ( 'NONE', #336, #237 ) ;
#270 = MECHANICAL_DESIGN_GEOMETRIC_PRESENTATION_REPRESENTATION (  '', ( #43 ), #153 ) ;
#271 =( LENGTH_UNIT ( ) NAMED_UNIT ( * ) SI_UNIT ( $, .METRE. ) );
#272 = FILL_AREA_STYLE_COLOUR ( '', #17 ) ;
#273 = LINE ( 'NONE', #247, #193 ) ;
#274 = DIRECTION ( 'NONE',  ( -1.000000000000000000, 0.000000000000000000, 0.000000000000000000 ) ) ;
#275 = PRESENTATION_LAYER_ASSIGNMENT (  '', '', ( #288 ) ) ;
#276 = EDGE_CURVE ( 'NONE', #246, #240, #34, .T. ) ;
#277 = SURFACE_STYLE_FILL_AREA ( #281 ) ;
#278 = AXIS2_PLACEMENT_3D ( 'NONE', #231, #146, #9 ) ;
#279 = DIRECTION ( 'NONE',  ( 0.000000000000000000, 1.000000000000000000, 0.000000000000000000 ) ) ;
#280 =( CONVERSION_BASED_UNIT ( 'INCH', #152 ) LENGTH_UNIT ( ) NAMED_UNIT ( #137 ) );
#281 = FILL_AREA_STYLE ('',( #177 ) ) ;
#282 =( GEOMETRIC_REPRESENTATION_CONTEXT ( 3 ) GLOBAL_UNCERTAINTY_ASSIGNED_CONTEXT ( ( #322 ) ) GLOBAL_UNIT_ASSIGNED_CONTEXT ( ( #81, #142, #225 ) ) REPRESENTATION_CONTEXT ( 'NONE', 'WORKASPACE' ) );
#283 = VECTOR ( 'NONE', #60, 39.37007874015748143 ) ;
#284 = EDGE_LOOP ( 'NONE', ( #45, #25, #220 ) ) ;
#285 = EDGE_LOOP ( 'NONE', ( #211, #107 ) ) ;
#286 = VERTEX_POINT ( 'NONE', #325 ) ;
#287 = SURFACE_STYLE_FILL_AREA ( #350 ) ;
#288 = STYLED_ITEM ( 'NONE', ( #267 ), #215 ) ;
#289 = UNCERTAINTY_MEASURE_WITH_UNIT (LENGTH_MEASURE( 1.000000000000000082E-05 ), #263, 'distance_accuracy_value', 'NONE');
#290 = DIRECTION ( 'NONE',  ( 0.000000000000000000, 0.000000000000000000, -1.000000000000000000 ) ) ;
#291 = FACE_OUTER_BOUND ( 'NONE', #249, .T. ) ;
#292 = FILL_AREA_STYLE ('',( #272 ) ) ;
#293 = CARTESIAN_POINT ( 'NONE',  ( 1.148106374200643401E-17, 0.1623797632095817789, 0.09374999999999998612 ) ) ;
#294 =( GEOMETRIC_REPRESENTATION_CONTEXT ( 3 ) GLOBAL_UNCERTAINTY_ASSIGNED_CONTEXT ( ( #132 ) ) GLOBAL_UNIT_ASSIGNED_CONTEXT ( ( #96, #67, #258 ) ) REPRESENTATION_CONTEXT ( 'NONE', 'WORKASPACE' ) );
#295 = EDGE_CURVE ( 'NONE', #168, #266, #14, .T. ) ;
#296 = LENGTH_MEASURE_WITH_UNIT ( LENGTH_MEASURE( 0.02539999999999999897 ), #271 );
#297 = DIRECTION ( 'NONE',  ( 1.221419288799112129E-16, -1.000000000000000000, 0.000000000000000000 ) ) ;
#298 = DIRECTION ( 'NONE',  ( -1.221419288799112129E-16, 1.000000000000000000, 0.000000000000000000 ) ) ;
#299 = CARTESIAN_POINT ( 'NONE',  ( 0.000000000000000000, 0.6250000000000000000, 0.000000000000000000 ) ) ;
#300 = CIRCLE ( 'NONE', #228, 0.09374999999999998612 ) ;
#301 = DIRECTION ( 'NONE',  ( -0.000000000000000000, -1.000000000000000000, -0.000000000000000000 ) ) ;
#302 = PRESENTATION_LAYER_ASSIGNMENT (  '', '', ( #226 ) ) ;
#303 = AXIS2_PLACEMENT_3D ( 'NONE', #197, #297, #59 ) ;
#304 = PRODUCT_CONTEXT ( 'NONE', #116, 'mechanical' ) ;
#305 = SURFACE_STYLE_USAGE ( .BOTH. , #23 ) ;
#306 = DIMENSIONAL_EXPONENTS ( 1.000000000000000000, 0.000000000000000000, 0.000000000000000000, 0.000000000000000000, 0.000000000000000000, 0.000000000000000000, 0.000000000000000000 ) ;
#307 = CARTESIAN_POINT ( 'NONE',  ( 0.09374999999999990286, 2.000000000000000000, 1.148106374200643247E-17 ) ) ;
#308 = DIRECTION ( 'NONE',  ( -1.000000000000000000, 0.000000000000000000, 0.000000000000000000 ) ) ;
#309 =( LENGTH_UNIT ( ) NAMED_UNIT ( * ) SI_UNIT ( $, .METRE. ) );
#310 = ADVANCED_FACE ( 'NONE', ( #80 ), #114, .T. ) ;
#311 = CYLINDRICAL_SURFACE ( 'NONE', #227, 0.09374999999999998612 ) ;
#312 = STYLED_ITEM ( 'NONE', ( #133 ), #212 ) ;
#313 =( CONVERSION_BASED_UNIT ( 'INCH', #245 ) LENGTH_UNIT ( ) NAMED_UNIT ( #85 ) );
#314 = ORIENTED_EDGE ( 'NONE', *, *, #37, .T. ) ;
#315 = ORIENTED_EDGE ( 'NONE', *, *, #276, .T. ) ;
#316 = FACE_OUTER_BOUND ( 'NONE', #284, .T. ) ;
#317 =( LENGTH_UNIT ( ) NAMED_UNIT ( * ) SI_UNIT ( $, .METRE. ) );
#318 = ORIENTED_EDGE ( 'NONE', *, *, #89, .F. ) ;
#319 = SURFACE_SIDE_STYLE ('',( #287 ) ) ;
#320 = MECHANICAL_DESIGN_GEOMETRIC_PRESENTATION_REPRESENTATION (  '', ( #288 ), #21 ) ;
#321 = ORIENTED_EDGE ( 'NONE', *, *, #151, .T. ) ;
#322 = UNCERTAINTY_MEASURE_WITH_UNIT (LENGTH_MEASURE( 1.000000000000000082E-05 ), #81, 'distance_accuracy_value', 'NONE');
#323 = SURFACE_SIDE_STYLE ('',( #253 ) ) ;
#324 = PRESENTATION_STYLE_ASSIGNMENT (( #221 ) ) ;
#325 = CARTESIAN_POINT ( 'NONE',  ( -0.09374999999999979183, 0.6250000000000000000, 0.000000000000000000 ) ) ;
#326 = EDGE_CURVE ( 'NONE', #51, #286, #35, .T. ) ;
#327 = EDGE_CURVE ( 'NONE', #126, #240, #134, .T. ) ;
#328 = DIRECTION ( 'NONE',  ( 0.000000000000000000, 0.000000000000000000, -1.000000000000000000 ) ) ;
#329 = CARTESIAN_POINT ( 'NONE',  ( 0.09374999999999998612, 2.000000000000000000, 1.148106374200643863E-17 ) ) ;
#330 = PRESENTATION_LAYER_ASSIGNMENT (  '', '', ( #154 ) ) ;
#331 = FILL_AREA_STYLE_COLOUR ( '', #161 ) ;
#332 = MECHANICAL_DESIGN_GEOMETRIC_PRESENTATION_REPRESENTATION (  '', ( #205 ), #174 ) ;
#333 = CARTESIAN_POINT ( 'NONE',  ( 0.000000000000000000, 0.6250000000000000000, 0.000000000000000000 ) ) ;
#334 = AXIS2_PLACEMENT_3D ( 'NONE', #255, #191, #274 ) ;
#335 = DIMENSIONAL_EXPONENTS ( 1.000000000000000000, 0.000000000000000000, 0.000000000000000000, 0.000000000000000000, 0.000000000000000000, 0.000000000000000000, 0.000000000000000000 ) ;
#336 = CARTESIAN_POINT ( 'NONE',  ( 0.000000000000000000, 0.000000000000000000, 0.000000000000000000 ) ) ;
#337 =( CONVERSION_BASED_UNIT ( 'INCH', #112 ) LENGTH_UNIT ( ) NAMED_UNIT ( #335 ) );
#338 = SURFACE_STYLE_FILL_AREA ( #292 ) ;
#339 = DIMENSIONAL_EXPONENTS ( 1.000000000000000000, 0.000000000000000000, 0.000000000000000000, 0.000000000000000000, 0.000000000000000000, 0.000000000000000000, 0.000000000000000000 ) ;
#340 =( GEOMETRIC_REPRESENTATION_CONTEXT ( 3 ) GLOBAL_UNCERTAINTY_ASSIGNED_CONTEXT ( ( #29 ) ) GLOBAL_UNIT_ASSIGNED_CONTEXT ( ( #250, #95, #122 ) ) REPRESENTATION_CONTEXT ( 'NONE', 'WORKASPACE' ) );
#341 = DIRECTION ( 'NONE',  ( -1.221419288799112129E-16, 1.000000000000000000, -0.000000000000000000 ) ) ;
#342 = PRESENTATION_STYLE_ASSIGNMENT (( #235 ) ) ;
#343 =( LENGTH_UNIT ( ) NAMED_UNIT ( * ) SI_UNIT ( $, .METRE. ) );
#344 = EDGE_CURVE ( 'NONE', #126, #47, #269, .T. ) ;
#345 = DIRECTION ( 'NONE',  ( -0.000000000000000000, -1.000000000000000000, -0.000000000000000000 ) ) ;
#346 = SURFACE_STYLE_FILL_AREA ( #46 ) ;
#347 = ORIENTED_EDGE ( 'NONE', *, *, #276, .F. ) ;
#348 = COLOUR_RGB ( '',1.000000000000000000, 0.000000000000000000, 0.000000000000000000 ) ;
#349 = PRODUCT_DEFINITION_FORMATION_WITH_SPECIFIED_SOURCE ( 'ANY', '', #216, .NOT_KNOWN. ) ;
#350 = FILL_AREA_STYLE ('',( #102 ) ) ;
#351 = ADVANCED_FACE ( 'NONE', ( #169 ), #86, .F. ) ;
ENDSEC;
END-ISO-10303-21;
