ISO-10303-21;
HEADER;
FILE_DESCRIPTION (( 'STEP AP214' ),
    '1' );
FILE_NAME ('84050.STEP',
    '2023-06-23T11:06:48',
    ( '' ),
    ( '' ),
    'SwSTEP 2.0',
    'SolidWorks 2023',
    '' );
FILE_SCHEMA (( 'AUTOMOTIVE_DESIGN' ));
ENDSEC;

DATA;
#1 = SURFACE_SIDE_STYLE ('',( #341 ) ) ;
#2 = MECHANICAL_DESIGN_GEOMETRIC_PRESENTATION_REPRESENTATION (  '', ( #79 ), #284 ) ;
#3 = PRODUCT_DEFINITION_SHAPE ( 'NONE', 'NONE',  #184 ) ;
#4 = STYLED_ITEM ( 'NONE', ( #99 ), #61 ) ;
#5 = VECTOR ( 'NONE', #88, 39.37007874015748143 ) ;
#6 = FILL_AREA_STYLE_COLOUR ( '', #334 ) ;
#7 = DIRECTION ( 'NONE',  ( -1.000000000000000000, -2.721437331438562546E-17, 0.000000000000000000 ) ) ;
#8 =( NAMED_UNIT ( * ) SI_UNIT ( $, .STERADIAN. ) SOLID_ANGLE_UNIT ( ) );
#9 = VERTEX_POINT ( 'NONE', #41 ) ;
#10 = PRESENTATION_LAYER_ASSIGNMENT (  '', '', ( #122 ) ) ;
#11 = AXIS2_PLACEMENT_3D ( 'NONE', #328, #330, #191 ) ;
#12 = CARTESIAN_POINT ( 'NONE',  ( -6.347838994089590308E-18, 0.4832531754730541862, 0.000000000000000000 ) ) ;
#13 =( LENGTH_UNIT ( ) NAMED_UNIT ( * ) SI_UNIT ( $, .METRE. ) );
#14 = EDGE_LOOP ( 'NONE', ( #307, #28, #187, #194 ) ) ;
#15 = CYLINDRICAL_SURFACE ( 'NONE', #59, 0.1250000000000000278 ) ;
#16 = ADVANCED_FACE ( 'NONE', ( #142 ), #185, .T. ) ;
#17 = DIRECTION ( 'NONE',  ( -2.721437331438562546E-17, 1.000000000000000000, -0.000000000000000000 ) ) ;
#18 = LENGTH_MEASURE_WITH_UNIT ( LENGTH_MEASURE( 0.02539999999999999897 ), #13 );
#19 = AXIS2_PLACEMENT_3D ( 'NONE', #345, #20, #256 ) ;
#20 = DIRECTION ( 'NONE',  ( -0.000000000000000000, -1.000000000000000000, -0.000000000000000000 ) ) ;
#21 = DIRECTION ( 'NONE',  ( 0.000000000000000000, -0.000000000000000000, 1.000000000000000000 ) ) ;
#22 = LINE ( 'NONE', #220, #85 ) ;
#23 = DIRECTION ( 'NONE',  ( -1.000000000000000000, 0.000000000000000000, 0.000000000000000000 ) ) ;
#24 = EDGE_CURVE ( 'NONE', #295, #9, #340, .T. ) ;
#25 = DIRECTION ( 'NONE',  ( 0.000000000000000000, 1.000000000000000000, 0.000000000000000000 ) ) ;
#26 = PRESENTATION_LAYER_ASSIGNMENT (  '', '', ( #182 ) ) ;
#27 = EDGE_LOOP ( 'NONE', ( #251, #258 ) ) ;
#28 = ORIENTED_EDGE ( 'NONE', *, *, #337, .T. ) ;
#29 = DIRECTION ( 'NONE',  ( -2.721437331438562546E-17, 1.000000000000000000, -0.000000000000000000 ) ) ;
#30 =( CONVERSION_BASED_UNIT ( 'INCH', #64 ) LENGTH_UNIT ( ) NAMED_UNIT ( #314 ) );
#31 = SHAPE_DEFINITION_REPRESENTATION ( #3, #204 ) ;
#32 = CYLINDRICAL_SURFACE ( 'NONE', #132, 0.06250000000000000000 ) ;
#33 = ORIENTED_EDGE ( 'NONE', *, *, #207, .F. ) ;
#34 = AXIS2_PLACEMENT_3D ( 'NONE', #232, #155, #23 ) ;
#35 = DIRECTION ( 'NONE',  ( -0.000000000000000000, -1.000000000000000000, -0.000000000000000000 ) ) ;
#36 = FILL_AREA_STYLE ('',( #277 ) ) ;
#37 = EDGE_LOOP ( 'NONE', ( #68, #75, #213, #164 ) ) ;
#38 =( LENGTH_UNIT ( ) NAMED_UNIT ( * ) SI_UNIT ( $, .METRE. ) );
#39 = ORIENTED_EDGE ( 'NONE', *, *, #290, .F. ) ;
#40 = UNCERTAINTY_MEASURE_WITH_UNIT (LENGTH_MEASURE( 1.000000000000000082E-05 ), #159, 'distance_accuracy_value', 'NONE');
#41 = CARTESIAN_POINT ( 'NONE',  ( 0.06250000000000000000, 0.2500000000000000555, 1.148106374200643555E-17 ) ) ;
#42 = CARTESIAN_POINT ( 'NONE',  ( 7.654042494670957545E-18, 0.000000000000000000, 0.06250000000000000000 ) ) ;
#43 = DIMENSIONAL_EXPONENTS ( 1.000000000000000000, 0.000000000000000000, 0.000000000000000000, 0.000000000000000000, 0.000000000000000000, 0.000000000000000000, 0.000000000000000000 ) ;
#44 = PRESENTATION_LAYER_ASSIGNMENT (  '', '', ( #4 ) ) ;
#45 =( GEOMETRIC_REPRESENTATION_CONTEXT ( 3 ) GLOBAL_UNCERTAINTY_ASSIGNED_CONTEXT ( ( #106 ) ) GLOBAL_UNIT_ASSIGNED_CONTEXT ( ( #218, #56, #239 ) ) REPRESENTATION_CONTEXT ( 'NONE', 'WORKASPACE' ) );
#46 = DIRECTION ( 'NONE',  ( 0.000000000000000000, 0.000000000000000000, -1.000000000000000000 ) ) ;
#47 = UNCERTAINTY_MEASURE_WITH_UNIT (LENGTH_MEASURE( 1.000000000000000082E-05 ), #344, 'distance_accuracy_value', 'NONE');
#48 = ORIENTED_EDGE ( 'NONE', *, *, #337, .F. ) ;
#49 = STYLED_ITEM ( 'NONE', ( #60 ), #174 ) ;
#50 = DIRECTION ( 'NONE',  ( 0.000000000000000000, 0.000000000000000000, 1.000000000000000000 ) ) ;
#51 = ADVANCED_FACE ( 'NONE', ( #298 ), #208, .T. ) ;
#52 = DIRECTION ( 'NONE',  ( -1.000000000000000000, 0.000000000000000000, 0.000000000000000000 ) ) ;
#53 =( LENGTH_UNIT ( ) NAMED_UNIT ( * ) SI_UNIT ( $, .METRE. ) );
#54 = CIRCLE ( 'NONE', #304, 0.1250000000000000278 ) ;
#55 = FILL_AREA_STYLE ('',( #138 ) ) ;
#56 =( NAMED_UNIT ( * ) PLANE_ANGLE_UNIT ( ) SI_UNIT ( $, .RADIAN. ) );
#57 = MECHANICAL_DESIGN_GEOMETRIC_PRESENTATION_REPRESENTATION (  '', ( #4 ), #263 ) ;
#58 = STYLED_ITEM ( 'NONE', ( #63 ), #312 ) ;
#59 = AXIS2_PLACEMENT_3D ( 'NONE', #115, #358, #87 ) ;
#60 = PRESENTATION_STYLE_ASSIGNMENT (( #199 ) ) ;
#61 = MANIFOLD_SOLID_BREP ( 'Revolve - Cutting Edge', #229 ) ;
#62 = DIRECTION ( 'NONE',  ( -2.721437331438562546E-17, 1.000000000000000000, -0.000000000000000000 ) ) ;
#63 = PRESENTATION_STYLE_ASSIGNMENT (( #302 ) ) ;
#64 = LENGTH_MEASURE_WITH_UNIT ( LENGTH_MEASURE( 0.02539999999999999897 ), #38 );
#65 = ORIENTED_EDGE ( 'NONE', *, *, #188, .T. ) ;
#66 = LINE ( 'NONE', #42, #210 ) ;
#67 = MANIFOLD_SOLID_BREP ( 'Revolve - Tool Body (Reduced Cut Diameter)', #319 ) ;
#68 = ORIENTED_EDGE ( 'NONE', *, *, #274, .F. ) ;
#69 = DIRECTION ( 'NONE',  ( -2.721437331438562546E-17, 1.000000000000000000, -0.000000000000000000 ) ) ;
#70 = APPLICATION_CONTEXT ( 'automotive_design' ) ;
#71 = DIMENSIONAL_EXPONENTS ( 1.000000000000000000, 0.000000000000000000, 0.000000000000000000, 0.000000000000000000, 0.000000000000000000, 0.000000000000000000, 0.000000000000000000 ) ;
#72 = SURFACE_SIDE_STYLE ('',( #143 ) ) ;
#73 = AXIS2_PLACEMENT_3D ( 'NONE', #245, #107, #167 ) ;
#74 = CARTESIAN_POINT ( 'NONE',  ( -6.347838994089590308E-18, 0.4832531754730541862, 0.000000000000000000 ) ) ;
#75 = ORIENTED_EDGE ( 'NONE', *, *, #104, .T. ) ;
#76 = ORIENTED_EDGE ( 'NONE', *, *, #290, .T. ) ;
#77 = DIMENSIONAL_EXPONENTS ( 1.000000000000000000, 0.000000000000000000, 0.000000000000000000, 0.000000000000000000, 0.000000000000000000, 0.000000000000000000, 0.000000000000000000 ) ;
#78 =( NAMED_UNIT ( * ) SI_UNIT ( $, .STERADIAN. ) SOLID_ANGLE_UNIT ( ) );
#79 = STYLED_ITEM ( 'NONE', ( #131 ), #51 ) ;
#80 = CIRCLE ( 'NONE', #73, 0.06250000000000000000 ) ;
#81 = AXIS2_PLACEMENT_3D ( 'NONE', #325, #25, #21 ) ;
#82 = DIRECTION ( 'NONE',  ( -1.000000000000000000, 0.000000000000000000, 0.000000000000000000 ) ) ;
#83 = FACE_OUTER_BOUND ( 'NONE', #97, .T. ) ;
#84 = APPLICATION_CONTEXT ( 'automotive_design' ) ;
#85 = VECTOR ( 'NONE', #29, 39.37007874015748143 ) ;
#86 = LINE ( 'NONE', #332, #109 ) ;
#87 = DIRECTION ( 'NONE',  ( -1.000000000000000000, 0.000000000000000000, 0.000000000000000000 ) ) ;
#88 = DIRECTION ( 'NONE',  ( -0.000000000000000000, -1.000000000000000000, -0.000000000000000000 ) ) ;
#89 = ADVANCED_FACE ( 'NONE', ( #231 ), #273, .T. ) ;
#90 = SURFACE_STYLE_USAGE ( .BOTH. , #252 ) ;
#91 =( GEOMETRIC_REPRESENTATION_CONTEXT ( 3 ) GLOBAL_UNCERTAINTY_ASSIGNED_CONTEXT ( ( #195 ) ) GLOBAL_UNIT_ASSIGNED_CONTEXT ( ( #146, #226, #287 ) ) REPRESENTATION_CONTEXT ( 'NONE', 'WORKASPACE' ) );
#92 = PRESENTATION_LAYER_ASSIGNMENT (  '', '', ( #49 ) ) ;
#93 = ORIENTED_EDGE ( 'NONE', *, *, #24, .F. ) ;
#94 = ORIENTED_EDGE ( 'NONE', *, *, #297, .F. ) ;
#95 = CIRCLE ( 'NONE', #151, 0.06250000000000000000 ) ;
#96 = ORIENTED_EDGE ( 'NONE', *, *, #297, .T. ) ;
#97 = EDGE_LOOP ( 'NONE', ( #96, #224, #338, #267 ) ) ;
#98 = CARTESIAN_POINT ( 'NONE',  ( 0.000000000000000000, 0.2500000000000000000, 0.000000000000000000 ) ) ;
#99 = PRESENTATION_STYLE_ASSIGNMENT (( #149 ) ) ;
#100 =( NAMED_UNIT ( * ) PLANE_ANGLE_UNIT ( ) SI_UNIT ( $, .RADIAN. ) );
#101 = SURFACE_STYLE_FILL_AREA ( #318 ) ;
#102 = MECHANICAL_DESIGN_GEOMETRIC_PRESENTATION_REPRESENTATION (  '', ( #122 ), #91 ) ;
#103 = ORIENTED_EDGE ( 'NONE', *, *, #24, .T. ) ;
#104 = EDGE_CURVE ( 'NONE', #9, #295, #342, .T. ) ;
#105 = CARTESIAN_POINT ( 'NONE',  ( -0.1250000000000000000, 0.4832531754730541862, 0.000000000000000000 ) ) ;
#106 = UNCERTAINTY_MEASURE_WITH_UNIT (LENGTH_MEASURE( 1.000000000000000082E-05 ), #218, 'distance_accuracy_value', 'NONE');
#107 = DIRECTION ( 'NONE',  ( -0.000000000000000000, -1.000000000000000000, -0.000000000000000000 ) ) ;
#108 = DIRECTION ( 'NONE',  ( 0.000000000000000000, -1.000000000000000000, -0.000000000000000000 ) ) ;
#109 = VECTOR ( 'NONE', #253, 39.37007874015748143 ) ;
#110 = ORIENTED_EDGE ( 'NONE', *, *, #254, .T. ) ;
#111 = CARTESIAN_POINT ( 'NONE',  ( 0.000000000000000000, 0.2500000000000000555, 0.000000000000000000 ) ) ;
#112 = DIRECTION ( 'NONE',  ( 1.000000000000000000, 2.721437331438562546E-17, 0.000000000000000000 ) ) ;
#113 = EDGE_CURVE ( 'NONE', #136, #202, #162, .T. ) ;
#114 = VERTEX_POINT ( 'NONE', #346 ) ;
#115 = CARTESIAN_POINT ( 'NONE',  ( -6.123233995736766036E-17, 2.500000000000000000, 0.000000000000000000 ) ) ;
#116 = SURFACE_STYLE_FILL_AREA ( #172 ) ;
#117 = AXIS2_PLACEMENT_3D ( 'NONE', #219, #327, #82 ) ;
#118 = CARTESIAN_POINT ( 'NONE',  ( 0.000000000000000000, 0.000000000000000000, -0.06250000000000000000 ) ) ;
#119 = UNCERTAINTY_MEASURE_WITH_UNIT (LENGTH_MEASURE( 1.000000000000000082E-05 ), #322, 'distance_accuracy_value', 'NONE');
#120 =( LENGTH_UNIT ( ) NAMED_UNIT ( * ) SI_UNIT ( $, .METRE. ) );
#121 = CARTESIAN_POINT ( 'NONE',  ( -0.06250000000000000000, 0.2500000000000000555, 0.000000000000000000 ) ) ;
#122 = STYLED_ITEM ( 'NONE', ( #197 ), #67 ) ;
#123 = CIRCLE ( 'NONE', #19, 0.06250000000000000000 ) ;
#124 = CARTESIAN_POINT ( 'NONE',  ( 7.654042494670957545E-18, 0.2500000000000000000, 0.06250000000000000000 ) ) ;
#125 = VERTEX_POINT ( 'NONE', #243 ) ;
#126 = ORIENTED_EDGE ( 'NONE', *, *, #317, .F. ) ;
#127 = COLOUR_RGB ( '',1.000000000000000000, 0.000000000000000000, 0.000000000000000000 ) ;
#128 = CONICAL_SURFACE ( 'NONE', #265, 0.06250000000000000000, 0.2617993877991502405 ) ;
#129 = DIMENSIONAL_EXPONENTS ( 1.000000000000000000, 0.000000000000000000, 0.000000000000000000, 0.000000000000000000, 0.000000000000000000, 0.000000000000000000, 0.000000000000000000 ) ;
#130 = VERTEX_POINT ( 'NONE', #105 ) ;
#131 = PRESENTATION_STYLE_ASSIGNMENT (( #268 ) ) ;
#132 = AXIS2_PLACEMENT_3D ( 'NONE', #209, #289, #46 ) ;
#133 = DIRECTION ( 'NONE',  ( -1.000000000000000000, 0.000000000000000000, 0.000000000000000000 ) ) ;
#134 = FILL_AREA_STYLE_COLOUR ( '', #127 ) ;
#135 =( LENGTH_UNIT ( ) NAMED_UNIT ( * ) SI_UNIT ( $, .METRE. ) );
#136 = VERTEX_POINT ( 'NONE', #320 ) ;
#137 = COLOUR_RGB ( '',1.000000000000000000, 0.000000000000000000, 0.000000000000000000 ) ;
#138 = FILL_AREA_STYLE_COLOUR ( '', #170 ) ;
#139 = CARTESIAN_POINT ( 'NONE',  ( -0.1250000000000001388, 2.500000000000000000, 0.000000000000000000 ) ) ;
#140 = MECHANICAL_DESIGN_GEOMETRIC_PRESENTATION_REPRESENTATION (  '', ( #49 ), #186 ) ;
#141 = LINE ( 'NONE', #118, #5 ) ;
#142 = FACE_OUTER_BOUND ( 'NONE', #306, .T. ) ;
#143 = SURFACE_STYLE_FILL_AREA ( #36 ) ;
#144 = PRODUCT ( '84050', '84050', '', ( #316 ) ) ;
#145 = AXIS2_PLACEMENT_3D ( 'NONE', #12, #280, #352 ) ;
#146 =( CONVERSION_BASED_UNIT ( 'INCH', #173 ) LENGTH_UNIT ( ) NAMED_UNIT ( #43 ) );
#147 = FILL_AREA_STYLE_COLOUR ( '', #150 ) ;
#148 = DIRECTION ( 'NONE',  ( 0.2588190451025215166, 0.9659258262890679791, 3.169619151431774186E-17 ) ) ;
#149 = SURFACE_STYLE_USAGE ( .BOTH. , #1 ) ;
#150 = COLOUR_RGB ( '',0.7921568627450980005, 0.8196078431372548767, 0.9333333333333333481 ) ;
#151 = AXIS2_PLACEMENT_3D ( 'NONE', #305, #211, #154 ) ;
#152 = DIRECTION ( 'NONE',  ( -0.000000000000000000, -1.000000000000000000, -0.000000000000000000 ) ) ;
#153 =( NAMED_UNIT ( * ) SI_UNIT ( $, .STERADIAN. ) SOLID_ANGLE_UNIT ( ) );
#154 = DIRECTION ( 'NONE',  ( 0.000000000000000000, 0.000000000000000000, -1.000000000000000000 ) ) ;
#155 = DIRECTION ( 'NONE',  ( -2.721437331438562546E-17, 1.000000000000000000, -0.000000000000000000 ) ) ;
#156 = UNCERTAINTY_MEASURE_WITH_UNIT (LENGTH_MEASURE( 1.000000000000000082E-05 ), #163, 'distance_accuracy_value', 'NONE');
#157 = VECTOR ( 'NONE', #148, 39.37007874015748143 ) ;
#158 = LENGTH_MEASURE_WITH_UNIT ( LENGTH_MEASURE( 0.02539999999999999897 ), #53 );
#159 =( CONVERSION_BASED_UNIT ( 'INCH', #214 ) LENGTH_UNIT ( ) NAMED_UNIT ( #71 ) );
#160 = AXIS2_PLACEMENT_3D ( 'NONE', #246, #108, #260 ) ;
#161 = MECHANICAL_DESIGN_GEOMETRIC_PRESENTATION_REPRESENTATION (  '', ( #182 ), #272 ) ;
#162 = CIRCLE ( 'NONE', #285, 0.1250000000000000555 ) ;
#163 =( CONVERSION_BASED_UNIT ( 'INCH', #359 ) LENGTH_UNIT ( ) NAMED_UNIT ( #129 ) );
#164 = ORIENTED_EDGE ( 'NONE', *, *, #254, .F. ) ;
#165 = CARTESIAN_POINT ( 'NONE',  ( 0.1250000000000000000, 2.500000000000000000, 0.000000000000000000 ) ) ;
#166 =( NAMED_UNIT ( * ) PLANE_ANGLE_UNIT ( ) SI_UNIT ( $, .RADIAN. ) );
#167 = DIRECTION ( 'NONE',  ( 0.000000000000000000, 0.000000000000000000, -1.000000000000000000 ) ) ;
#168 = EDGE_CURVE ( 'NONE', #125, #190, #80, .T. ) ;
#169 = ORIENTED_EDGE ( 'NONE', *, *, #113, .F. ) ;
#170 = COLOUR_RGB ( '',0.7921568627450980005, 0.8196078431372548767, 0.9333333333333333481 ) ;
#171 = CIRCLE ( 'NONE', #11, 0.1250000000000000555 ) ;
#172 = FILL_AREA_STYLE ('',( #301 ) ) ;
#173 = LENGTH_MEASURE_WITH_UNIT ( LENGTH_MEASURE( 0.02539999999999999897 ), #308 );
#174 = ADVANCED_FACE ( 'NONE', ( #83 ), #321, .T. ) ;
#175 = CARTESIAN_POINT ( 'NONE',  ( 0.000000000000000000, 0.2500000000000000555, 0.000000000000000000 ) ) ;
#176 = PRESENTATION_LAYER_ASSIGNMENT (  '', '', ( #58 ) ) ;
#177 = SURFACE_STYLE_USAGE ( .BOTH. , #215 ) ;
#178 = EDGE_LOOP ( 'NONE', ( #93, #329 ) ) ;
#179 = DIRECTION ( 'NONE',  ( 2.721437331438562546E-17, -1.000000000000000000, 0.000000000000000000 ) ) ;
#180 = CARTESIAN_POINT ( 'NONE',  ( 2.314444109046076427E-35, 0.2500000000000000000, 0.000000000000000000 ) ) ;
#181 = SURFACE_SIDE_STYLE ('',( #101 ) ) ;
#182 = STYLED_ITEM ( 'NONE', ( #240 ), #89 ) ;
#183 = COLOUR_RGB ( '',1.000000000000000000, 0.000000000000000000, 0.000000000000000000 ) ;
#184 = PRODUCT_DEFINITION ( 'UNKNOWN', '', #216, #203 ) ;
#185 = CONICAL_SURFACE ( 'NONE', #281, 0.06250000000000000000, 0.2617993877991502405 ) ;
#186 =( GEOMETRIC_REPRESENTATION_CONTEXT ( 3 ) GLOBAL_UNCERTAINTY_ASSIGNED_CONTEXT ( ( #313 ) ) GLOBAL_UNIT_ASSIGNED_CONTEXT ( ( #30, #225, #78 ) ) REPRESENTATION_CONTEXT ( 'NONE', 'WORKASPACE' ) );
#187 = ORIENTED_EDGE ( 'NONE', *, *, #343, .F. ) ;
#188 = EDGE_CURVE ( 'NONE', #130, #202, #86, .T. ) ;
#189 = CARTESIAN_POINT ( 'NONE',  ( 0.000000000000000000, 0.2500000000000000555, 0.000000000000000000 ) ) ;
#190 = VERTEX_POINT ( 'NONE', #356 ) ;
#191 = DIRECTION ( 'NONE',  ( -1.000000000000000000, 0.000000000000000000, 0.000000000000000000 ) ) ;
#192 = EDGE_LOOP ( 'NONE', ( #233, #255, #223, #39 ) ) ;
#193 = LINE ( 'NONE', #121, #198 ) ;
#194 = ORIENTED_EDGE ( 'NONE', *, *, #188, .F. ) ;
#195 = UNCERTAINTY_MEASURE_WITH_UNIT (LENGTH_MEASURE( 1.000000000000000082E-05 ), #146, 'distance_accuracy_value', 'NONE');
#196 = LINE ( 'NONE', #282, #157 ) ;
#197 = PRESENTATION_STYLE_ASSIGNMENT (( #90 ) ) ;
#198 = VECTOR ( 'NONE', #303, 39.37007874015748143 ) ;
#199 = SURFACE_STYLE_USAGE ( .BOTH. , #355 ) ;
#200 = DIRECTION ( 'NONE',  ( -1.000000000000000000, 0.000000000000000000, 0.000000000000000000 ) ) ;
#201 = DIRECTION ( 'NONE',  ( 0.000000000000000000, 0.000000000000000000, -1.000000000000000000 ) ) ;
#202 = VERTEX_POINT ( 'NONE', #139 ) ;
#203 = PRODUCT_DEFINITION_CONTEXT ( 'detailed design', #84, 'design' ) ;
#204 = ADVANCED_BREP_SHAPE_REPRESENTATION ( '84050', ( #61, #67, #292 ), #45 ) ;
#205 = EDGE_CURVE ( 'NONE', #315, #125, #141, .T. ) ;
#206 = AXIS2_PLACEMENT_3D ( 'NONE', #165, #179, #112 ) ;
#207 = EDGE_CURVE ( 'NONE', #295, #130, #193, .T. ) ;
#208 = PLANE ( 'NONE',  #160 ) ;
#209 = CARTESIAN_POINT ( 'NONE',  ( 0.000000000000000000, 0.000000000000000000, 0.000000000000000000 ) ) ;
#210 = VECTOR ( 'NONE', #286, 39.37007874015748143 ) ;
#211 = DIRECTION ( 'NONE',  ( -0.000000000000000000, -1.000000000000000000, -0.000000000000000000 ) ) ;
#212 = DIRECTION ( 'NONE',  ( -2.721437331438562546E-17, 1.000000000000000000, -0.000000000000000000 ) ) ;
#213 = ORIENTED_EDGE ( 'NONE', *, *, #207, .T. ) ;
#214 = LENGTH_MEASURE_WITH_UNIT ( LENGTH_MEASURE( 0.02539999999999999897 ), #135 );
#215 = SURFACE_SIDE_STYLE ('',( #336 ) ) ;
#216 = PRODUCT_DEFINITION_FORMATION_WITH_SPECIFIED_SOURCE ( 'ANY', '', #144, .NOT_KNOWN. ) ;
#217 = ADVANCED_FACE ( 'NONE', ( #227 ), #128, .T. ) ;
#218 =( CONVERSION_BASED_UNIT ( 'INCH', #283 ) LENGTH_UNIT ( ) NAMED_UNIT ( #266 ) );
#219 = CARTESIAN_POINT ( 'NONE',  ( -6.123233995736766036E-17, 2.500000000000000000, 0.000000000000000000 ) ) ;
#220 = CARTESIAN_POINT ( 'NONE',  ( 0.1249999999999999584, 2.500000000000000000, 1.530808498934191817E-17 ) ) ;
#221 = DIRECTION ( 'NONE',  ( 0.000000000000000000, 0.000000000000000000, -1.000000000000000000 ) ) ;
#222 = PRODUCT_RELATED_PRODUCT_CATEGORY ( 'part', '', ( #144 ) ) ;
#223 = ORIENTED_EDGE ( 'NONE', *, *, #205, .T. ) ;
#224 = ORIENTED_EDGE ( 'NONE', *, *, #228, .T. ) ;
#225 =( NAMED_UNIT ( * ) PLANE_ANGLE_UNIT ( ) SI_UNIT ( $, .RADIAN. ) );
#226 =( NAMED_UNIT ( * ) PLANE_ANGLE_UNIT ( ) SI_UNIT ( $, .RADIAN. ) );
#227 = FACE_OUTER_BOUND ( 'NONE', #37, .T. ) ;
#228 = EDGE_CURVE ( 'NONE', #248, #190, #66, .T. ) ;
#229 = CLOSED_SHELL ( 'NONE', ( #174, #89, #312, #51 ) ) ;
#230 = FILL_AREA_STYLE ('',( #6 ) ) ;
#231 = FACE_OUTER_BOUND ( 'NONE', #339, .T. ) ;
#232 = CARTESIAN_POINT ( 'NONE',  ( 0.000000000000000000, 0.2500000000000000555, 0.000000000000000000 ) ) ;
#233 = ORIENTED_EDGE ( 'NONE', *, *, #228, .F. ) ;
#234 = ADVANCED_FACE ( 'NONE', ( #288 ), #309, .F. ) ;
#235 = FILL_AREA_STYLE ('',( #147 ) ) ;
#236 = PRESENTATION_LAYER_ASSIGNMENT (  '', '', ( #79 ) ) ;
#237 = EDGE_LOOP ( 'NONE', ( #48, #110, #65, #169 ) ) ;
#238 = AXIS2_PLACEMENT_3D ( 'NONE', #279, #35, #221 ) ;
#239 =( NAMED_UNIT ( * ) SI_UNIT ( $, .STERADIAN. ) SOLID_ANGLE_UNIT ( ) );
#240 = PRESENTATION_STYLE_ASSIGNMENT (( #177 ) ) ;
#241 = FACE_OUTER_BOUND ( 'NONE', #27, .T. ) ;
#242 =( GEOMETRIC_REPRESENTATION_CONTEXT ( 3 ) GLOBAL_UNCERTAINTY_ASSIGNED_CONTEXT ( ( #156 ) ) GLOBAL_UNIT_ASSIGNED_CONTEXT ( ( #163, #166, #8 ) ) REPRESENTATION_CONTEXT ( 'NONE', 'WORKASPACE' ) );
#243 = CARTESIAN_POINT ( 'NONE',  ( 0.000000000000000000, 0.000000000000000000, -0.06250000000000000000 ) ) ;
#244 = DIRECTION ( 'NONE',  ( -2.721437331438562546E-17, 1.000000000000000000, -0.000000000000000000 ) ) ;
#245 = CARTESIAN_POINT ( 'NONE',  ( 0.000000000000000000, 0.000000000000000000, 0.000000000000000000 ) ) ;
#246 = CARTESIAN_POINT ( 'NONE',  ( 0.000000000000000000, 0.000000000000000000, 0.000000000000000000 ) ) ;
#247 = FACE_OUTER_BOUND ( 'NONE', #192, .T. ) ;
#248 = VERTEX_POINT ( 'NONE', #124 ) ;
#249 = AXIS2_PLACEMENT_3D ( 'NONE', #180, #262, #7 ) ;
#250 = FACE_OUTER_BOUND ( 'NONE', #14, .T. ) ;
#251 = ORIENTED_EDGE ( 'NONE', *, *, #343, .T. ) ;
#252 = SURFACE_SIDE_STYLE ('',( #276 ) ) ;
#253 = DIRECTION ( 'NONE',  ( -2.721437331438562546E-17, 1.000000000000000000, -0.000000000000000000 ) ) ;
#254 = EDGE_CURVE ( 'NONE', #114, #130, #54, .T. ) ;
#255 = ORIENTED_EDGE ( 'NONE', *, *, #331, .T. ) ;
#256 = DIRECTION ( 'NONE',  ( 0.000000000000000000, 0.000000000000000000, -1.000000000000000000 ) ) ;
#257 = ADVANCED_FACE ( 'NONE', ( #250 ), #324, .T. ) ;
#258 = ORIENTED_EDGE ( 'NONE', *, *, #113, .T. ) ;
#259 = DIRECTION ( 'NONE',  ( -1.000000000000000000, 0.000000000000000000, 0.000000000000000000 ) ) ;
#260 = DIRECTION ( 'NONE',  ( 0.000000000000000000, 0.000000000000000000, -1.000000000000000000 ) ) ;
#261 = MECHANICAL_DESIGN_GEOMETRIC_PRESENTATION_REPRESENTATION (  '', ( #58 ), #242 ) ;
#262 = DIRECTION ( 'NONE',  ( -2.721437331438562546E-17, 1.000000000000000000, 0.000000000000000000 ) ) ;
#263 =( GEOMETRIC_REPRESENTATION_CONTEXT ( 3 ) GLOBAL_UNCERTAINTY_ASSIGNED_CONTEXT ( ( #47 ) ) GLOBAL_UNIT_ASSIGNED_CONTEXT ( ( #344, #100, #296 ) ) REPRESENTATION_CONTEXT ( 'NONE', 'WORKASPACE' ) );
#264 = CARTESIAN_POINT ( 'NONE',  ( 0.000000000000000000, 0.2500000000000000000, -0.06250000000000000000 ) ) ;
#265 = AXIS2_PLACEMENT_3D ( 'NONE', #189, #62, #200 ) ;
#266 = DIMENSIONAL_EXPONENTS ( 1.000000000000000000, 0.000000000000000000, 0.000000000000000000, 0.000000000000000000, 0.000000000000000000, 0.000000000000000000, 0.000000000000000000 ) ;
#267 = ORIENTED_EDGE ( 'NONE', *, *, #205, .F. ) ;
#268 = SURFACE_STYLE_USAGE ( .BOTH. , #181 ) ;
#269 = DIRECTION ( 'NONE',  ( -1.000000000000000000, 0.000000000000000000, 0.000000000000000000 ) ) ;
#270 = CARTESIAN_POINT ( 'NONE',  ( -6.123233995736766036E-17, 2.500000000000000000, 0.000000000000000000 ) ) ;
#271 = ADVANCED_FACE ( 'NONE', ( #300 ), #15, .T. ) ;
#272 =( GEOMETRIC_REPRESENTATION_CONTEXT ( 3 ) GLOBAL_UNCERTAINTY_ASSIGNED_CONTEXT ( ( #40 ) ) GLOBAL_UNIT_ASSIGNED_CONTEXT ( ( #159, #278, #348 ) ) REPRESENTATION_CONTEXT ( 'NONE', 'WORKASPACE' ) );
#273 = PLANE ( 'NONE',  #81 ) ;
#274 = EDGE_CURVE ( 'NONE', #9, #114, #196, .T. ) ;
#275 = DIRECTION ( 'NONE',  ( 1.000000000000000000, 0.000000000000000000, 0.000000000000000000 ) ) ;
#276 = SURFACE_STYLE_FILL_AREA ( #55 ) ;
#277 = FILL_AREA_STYLE_COLOUR ( '', #137 ) ;
#278 =( NAMED_UNIT ( * ) PLANE_ANGLE_UNIT ( ) SI_UNIT ( $, .RADIAN. ) );
#279 = CARTESIAN_POINT ( 'NONE',  ( 0.000000000000000000, 0.000000000000000000, 0.000000000000000000 ) ) ;
#280 = DIRECTION ( 'NONE',  ( -2.721437331438562546E-17, 1.000000000000000000, -0.000000000000000000 ) ) ;
#281 = AXIS2_PLACEMENT_3D ( 'NONE', #175, #69, #259 ) ;
#282 = CARTESIAN_POINT ( 'NONE',  ( 0.06250000000000000000, 0.2500000000000000555, 7.654042494670957545E-18 ) ) ;
#283 = LENGTH_MEASURE_WITH_UNIT ( LENGTH_MEASURE( 0.02539999999999999897 ), #299 );
#284 =( GEOMETRIC_REPRESENTATION_CONTEXT ( 3 ) GLOBAL_UNCERTAINTY_ASSIGNED_CONTEXT ( ( #119 ) ) GLOBAL_UNIT_ASSIGNED_CONTEXT ( ( #322, #347, #153 ) ) REPRESENTATION_CONTEXT ( 'NONE', 'WORKASPACE' ) );
#285 = AXIS2_PLACEMENT_3D ( 'NONE', #270, #17, #133 ) ;
#286 = DIRECTION ( 'NONE',  ( -0.000000000000000000, -1.000000000000000000, -0.000000000000000000 ) ) ;
#287 =( NAMED_UNIT ( * ) SI_UNIT ( $, .STERADIAN. ) SOLID_ANGLE_UNIT ( ) );
#288 = FACE_OUTER_BOUND ( 'NONE', #178, .T. ) ;
#289 = DIRECTION ( 'NONE',  ( -0.000000000000000000, -1.000000000000000000, -0.000000000000000000 ) ) ;
#290 = EDGE_CURVE ( 'NONE', #190, #125, #95, .T. ) ;
#291 = CARTESIAN_POINT ( 'NONE',  ( 0.000000000000000000, 0.000000000000000000, 0.000000000000000000 ) ) ;
#292 = AXIS2_PLACEMENT_3D ( 'NONE', #291, #50, #275 ) ;
#293 = PLANE ( 'NONE',  #206 ) ;
#294 = CARTESIAN_POINT ( 'NONE',  ( -0.06250000000000000000, 0.2500000000000000555, 0.000000000000000000 ) ) ;
#295 = VERTEX_POINT ( 'NONE', #294 ) ;
#296 =( NAMED_UNIT ( * ) SI_UNIT ( $, .STERADIAN. ) SOLID_ANGLE_UNIT ( ) );
#297 = EDGE_CURVE ( 'NONE', #315, #248, #323, .T. ) ;
#298 = FACE_OUTER_BOUND ( 'NONE', #351, .T. ) ;
#299 =( LENGTH_UNIT ( ) NAMED_UNIT ( * ) SI_UNIT ( $, .METRE. ) );
#300 = FACE_OUTER_BOUND ( 'NONE', #237, .T. ) ;
#301 = FILL_AREA_STYLE_COLOUR ( '', #183 ) ;
#302 = SURFACE_STYLE_USAGE ( .BOTH. , #72 ) ;
#303 = DIRECTION ( 'NONE',  ( -0.2588190451025215166, 0.9659258262890679791, 0.000000000000000000 ) ) ;
#304 = AXIS2_PLACEMENT_3D ( 'NONE', #74, #244, #269 ) ;
#305 = CARTESIAN_POINT ( 'NONE',  ( 0.000000000000000000, 0.000000000000000000, 0.000000000000000000 ) ) ;
#306 = EDGE_LOOP ( 'NONE', ( #103, #326, #126, #33 ) ) ;
#307 = ORIENTED_EDGE ( 'NONE', *, *, #317, .T. ) ;
#308 =( LENGTH_UNIT ( ) NAMED_UNIT ( * ) SI_UNIT ( $, .METRE. ) );
#309 = PLANE ( 'NONE',  #249 ) ;
#310 = ORIENTED_EDGE ( 'NONE', *, *, #168, .T. ) ;
#311 = DIMENSIONAL_EXPONENTS ( 1.000000000000000000, 0.000000000000000000, 0.000000000000000000, 0.000000000000000000, 0.000000000000000000, 0.000000000000000000, 0.000000000000000000 ) ;
#312 = ADVANCED_FACE ( 'NONE', ( #247 ), #32, .T. ) ;
#313 = UNCERTAINTY_MEASURE_WITH_UNIT (LENGTH_MEASURE( 1.000000000000000082E-05 ), #30, 'distance_accuracy_value', 'NONE');
#314 = DIMENSIONAL_EXPONENTS ( 1.000000000000000000, 0.000000000000000000, 0.000000000000000000, 0.000000000000000000, 0.000000000000000000, 0.000000000000000000, 0.000000000000000000 ) ;
#315 = VERTEX_POINT ( 'NONE', #264 ) ;
#316 = PRODUCT_CONTEXT ( 'NONE', #70, 'mechanical' ) ;
#317 = EDGE_CURVE ( 'NONE', #130, #114, #357, .T. ) ;
#318 = FILL_AREA_STYLE ('',( #134 ) ) ;
#319 = CLOSED_SHELL ( 'NONE', ( #257, #16, #234, #217, #271, #333 ) ) ;
#320 = CARTESIAN_POINT ( 'NONE',  ( 0.1250000000000000278, 2.500000000000000000, 1.530808498934192125E-17 ) ) ;
#321 = CYLINDRICAL_SURFACE ( 'NONE', #238, 0.06250000000000000000 ) ;
#322 =( CONVERSION_BASED_UNIT ( 'INCH', #158 ) LENGTH_UNIT ( ) NAMED_UNIT ( #311 ) );
#323 = CIRCLE ( 'NONE', #335, 0.06250000000000000000 ) ;
#324 = CYLINDRICAL_SURFACE ( 'NONE', #117, 0.1250000000000000278 ) ;
#325 = CARTESIAN_POINT ( 'NONE',  ( 0.000000000000000000, 0.2500000000000000000, 0.000000000000000000 ) ) ;
#326 = ORIENTED_EDGE ( 'NONE', *, *, #274, .T. ) ;
#327 = DIRECTION ( 'NONE',  ( -2.721437331438562546E-17, 1.000000000000000000, -0.000000000000000000 ) ) ;
#328 = CARTESIAN_POINT ( 'NONE',  ( -6.123233995736766036E-17, 2.500000000000000000, 0.000000000000000000 ) ) ;
#329 = ORIENTED_EDGE ( 'NONE', *, *, #104, .F. ) ;
#330 = DIRECTION ( 'NONE',  ( -2.721437331438562546E-17, 1.000000000000000000, -0.000000000000000000 ) ) ;
#331 = EDGE_CURVE ( 'NONE', #248, #315, #123, .T. ) ;
#332 = CARTESIAN_POINT ( 'NONE',  ( -0.1250000000000001110, 2.500000000000000000, 0.000000000000000000 ) ) ;
#333 = ADVANCED_FACE ( 'NONE', ( #241 ), #293, .F. ) ;
#334 = COLOUR_RGB ( '',1.000000000000000000, 0.000000000000000000, 0.000000000000000000 ) ;
#335 = AXIS2_PLACEMENT_3D ( 'NONE', #98, #152, #201 ) ;
#336 = SURFACE_STYLE_FILL_AREA ( #230 ) ;
#337 = EDGE_CURVE ( 'NONE', #114, #136, #22, .T. ) ;
#338 = ORIENTED_EDGE ( 'NONE', *, *, #168, .F. ) ;
#339 = EDGE_LOOP ( 'NONE', ( #94, #353 ) ) ;
#340 = CIRCLE ( 'NONE', #34, 0.06250000000000000000 ) ;
#341 = SURFACE_STYLE_FILL_AREA ( #235 ) ;
#342 = CIRCLE ( 'NONE', #350, 0.06250000000000000000 ) ;
#343 = EDGE_CURVE ( 'NONE', #202, #136, #171, .T. ) ;
#344 =( CONVERSION_BASED_UNIT ( 'INCH', #18 ) LENGTH_UNIT ( ) NAMED_UNIT ( #77 ) );
#345 = CARTESIAN_POINT ( 'NONE',  ( 0.000000000000000000, 0.2500000000000000000, 0.000000000000000000 ) ) ;
#346 = CARTESIAN_POINT ( 'NONE',  ( 0.1250000000000000000, 0.4832531754730541862, 1.530808498934191509E-17 ) ) ;
#347 =( NAMED_UNIT ( * ) PLANE_ANGLE_UNIT ( ) SI_UNIT ( $, .RADIAN. ) );
#348 =( NAMED_UNIT ( * ) SI_UNIT ( $, .STERADIAN. ) SOLID_ANGLE_UNIT ( ) );
#349 = APPLICATION_PROTOCOL_DEFINITION ( 'draft international standard', 'automotive_design', 1998, #84 ) ;
#350 = AXIS2_PLACEMENT_3D ( 'NONE', #111, #212, #52 ) ;
#351 = EDGE_LOOP ( 'NONE', ( #310, #76 ) ) ;
#352 = DIRECTION ( 'NONE',  ( -1.000000000000000000, 0.000000000000000000, 0.000000000000000000 ) ) ;
#353 = ORIENTED_EDGE ( 'NONE', *, *, #331, .F. ) ;
#354 = APPLICATION_PROTOCOL_DEFINITION ( 'draft international standard', 'automotive_design', 1998, #70 ) ;
#355 = SURFACE_SIDE_STYLE ('',( #116 ) ) ;
#356 = CARTESIAN_POINT ( 'NONE',  ( 7.654042494670957545E-18, 0.000000000000000000, 0.06250000000000000000 ) ) ;
#357 = CIRCLE ( 'NONE', #145, 0.1250000000000000278 ) ;
#358 = DIRECTION ( 'NONE',  ( -2.721437331438562546E-17, 1.000000000000000000, -0.000000000000000000 ) ) ;
#359 = LENGTH_MEASURE_WITH_UNIT ( LENGTH_MEASURE( 0.02539999999999999897 ), #120 );
ENDSEC;
END-ISO-10303-21;
