ISO-10303-21;
HEADER;
FILE_DESCRIPTION (( 'STEP AP214' ),
    '1' );
FILE_NAME ('59496.STEP',
    '2023-07-24T15:48:03',
    ( '' ),
    ( '' ),
    'SwSTEP 2.0',
    'SolidWorks 2023',
    '' );
FILE_SCHEMA (( 'AUTOMOTIVE_DESIGN' ));
ENDSEC;

DATA;
#1 = DIRECTION ( 'NONE',  ( -1.000000000000000000, 0.000000000000000000, 0.000000000000000000 ) ) ;
#2 = PRODUCT_DEFINITION_FORMATION_WITH_SPECIFIED_SOURCE ( 'ANY', '', #268, .NOT_KNOWN. ) ;
#3 =( GEOMETRIC_REPRESENTATION_CONTEXT ( 3 ) GLOBAL_UNCERTAINTY_ASSIGNED_CONTEXT ( ( #45 ) ) GLOBAL_UNIT_ASSIGNED_CONTEXT ( ( #153, #244, #243 ) ) REPRESENTATION_CONTEXT ( 'NONE', 'WORKASPACE' ) );
#4 = CARTESIAN_POINT ( 'NONE',  ( 6.123233995736762930E-15, 75.00000000000000000, 0.000000000000000000 ) ) ;
#5 = EDGE_CURVE ( 'NONE', #184, #144, #99, .T. ) ;
#6 = CYLINDRICAL_SURFACE ( 'NONE', #64, 5.000000000000000000 ) ;
#7 = ORIENTED_EDGE ( 'NONE', *, *, #90, .T. ) ;
#8 = EDGE_CURVE ( 'NONE', #167, #96, #121, .T. ) ;
#9 = VERTEX_POINT ( 'NONE', #103 ) ;
#10 = CARTESIAN_POINT ( 'NONE',  ( -7.703719777548943412E-31, 25.00000000000000000, 0.000000000000000000 ) ) ;
#11 = EDGE_LOOP ( 'NONE', ( #19, #75, #7, #226 ) ) ;
#12 =( GEOMETRIC_REPRESENTATION_CONTEXT ( 3 ) GLOBAL_UNCERTAINTY_ASSIGNED_CONTEXT ( ( #105 ) ) GLOBAL_UNIT_ASSIGNED_CONTEXT ( ( #118, #210, #227 ) ) REPRESENTATION_CONTEXT ( 'NONE', 'WORKASPACE' ) );
#13 = FACE_OUTER_BOUND ( 'NONE', #17, .T. ) ;
#14 = DIRECTION ( 'NONE',  ( 0.000000000000000000, 0.000000000000000000, 1.000000000000000000 ) ) ;
#15 = ORIENTED_EDGE ( 'NONE', *, *, #288, .T. ) ;
#16 = APPLICATION_CONTEXT ( 'automotive_design' ) ;
#17 = EDGE_LOOP ( 'NONE', ( #73, #189 ) ) ;
#18 = CIRCLE ( 'NONE', #217, 4.999999999999993783 ) ;
#19 = ORIENTED_EDGE ( 'NONE', *, *, #5, .F. ) ;
#20 = PRODUCT_RELATED_PRODUCT_CATEGORY ( 'part', '', ( #268 ) ) ;
#21 = ORIENTED_EDGE ( 'NONE', *, *, #8, .T. ) ;
#22 = SURFACE_STYLE_FILL_AREA ( #266 ) ;
#23 = SURFACE_STYLE_FILL_AREA ( #152 ) ;
#24 = MECHANICAL_DESIGN_GEOMETRIC_PRESENTATION_REPRESENTATION (  '', ( #49 ), #3 ) ;
#25 = PRODUCT_DEFINITION_SHAPE ( 'NONE', 'NONE',  #69 ) ;
#26 = UNCERTAINTY_MEASURE_WITH_UNIT (LENGTH_MEASURE( 1.000000000000000082E-05 ), #42, 'distance_accuracy_value', 'NONE');
#27 = FILL_AREA_STYLE ('',( #200 ) ) ;
#28 = DIRECTION ( 'NONE',  ( -0.000000000000000000, -1.000000000000000000, -0.000000000000000000 ) ) ;
#29 = VECTOR ( 'NONE', #170, 1000.000000000000000 ) ;
#30 = ADVANCED_FACE ( 'NONE', ( #192 ), #196, .T. ) ;
#31 =( LENGTH_UNIT ( ) NAMED_UNIT ( * ) SI_UNIT ( .MILLI., .METRE. ) );
#32 =( GEOMETRIC_REPRESENTATION_CONTEXT ( 3 ) GLOBAL_UNCERTAINTY_ASSIGNED_CONTEXT ( ( #198 ) ) GLOBAL_UNIT_ASSIGNED_CONTEXT ( ( #185, #52, #269 ) ) REPRESENTATION_CONTEXT ( 'NONE', 'WORKASPACE' ) );
#33 = ORIENTED_EDGE ( 'NONE', *, *, #86, .F. ) ;
#34 = CARTESIAN_POINT ( 'NONE',  ( 6.123233995736762930E-15, 75.00000000000000000, 0.000000000000000000 ) ) ;
#35 = DIRECTION ( 'NONE',  ( -1.000000000000000000, 0.000000000000000000, 0.000000000000000000 ) ) ;
#36 = DIRECTION ( 'NONE',  ( 0.000000000000000000, 0.000000000000000000, -1.000000000000000000 ) ) ;
#37 = VERTEX_POINT ( 'NONE', #122 ) ;
#38 = PRESENTATION_STYLE_ASSIGNMENT (( #53 ) ) ;
#39 = DIRECTION ( 'NONE',  ( 0.000000000000000000, 0.000000000000000000, -1.000000000000000000 ) ) ;
#40 = MECHANICAL_DESIGN_GEOMETRIC_PRESENTATION_REPRESENTATION (  '', ( #43 ), #12 ) ;
#41 = DIRECTION ( 'NONE',  ( -0.000000000000000000, -1.000000000000000000, -0.000000000000000000 ) ) ;
#42 =( LENGTH_UNIT ( ) NAMED_UNIT ( * ) SI_UNIT ( .MILLI., .METRE. ) );
#43 = STYLED_ITEM ( 'NONE', ( #38 ), #270 ) ;
#44 = ORIENTED_EDGE ( 'NONE', *, *, #90, .F. ) ;
#45 = UNCERTAINTY_MEASURE_WITH_UNIT (LENGTH_MEASURE( 1.000000000000000082E-05 ), #153, 'distance_accuracy_value', 'NONE');
#46 = PRESENTATION_LAYER_ASSIGNMENT (  '', '', ( #231 ) ) ;
#47 = CYLINDRICAL_SURFACE ( 'NONE', #282, 4.999999999999997335 ) ;
#48 = FACE_OUTER_BOUND ( 'NONE', #72, .T. ) ;
#49 = STYLED_ITEM ( 'NONE', ( #242 ), #216 ) ;
#50 = FACE_OUTER_BOUND ( 'NONE', #11, .T. ) ;
#51 = ADVANCED_FACE ( 'NONE', ( #13 ), #238, .F. ) ;
#52 =( NAMED_UNIT ( * ) PLANE_ANGLE_UNIT ( ) SI_UNIT ( $, .RADIAN. ) );
#53 = SURFACE_STYLE_USAGE ( .BOTH. , #271 ) ;
#54 = DIRECTION ( 'NONE',  ( 0.000000000000000000, 0.000000000000000000, -1.000000000000000000 ) ) ;
#55 = VERTEX_POINT ( 'NONE', #235 ) ;
#56 = SURFACE_STYLE_FILL_AREA ( #250 ) ;
#57 = COLOUR_RGB ( '',1.000000000000000000, 0.000000000000000000, 0.000000000000000000 ) ;
#58 = STYLED_ITEM ( 'NONE', ( #71 ), #233 ) ;
#59 = DIRECTION ( 'NONE',  ( -1.224646799147352961E-16, -1.000000000000000000, 0.000000000000000000 ) ) ;
#60 = AXIS2_PLACEMENT_3D ( 'NONE', #249, #159, #272 ) ;
#61 = PRESENTATION_STYLE_ASSIGNMENT (( #265 ) ) ;
#62 = CIRCLE ( 'NONE', #126, 5.000000000000000000 ) ;
#63 = DIRECTION ( 'NONE',  ( 0.000000000000000000, 0.000000000000000000, -1.000000000000000000 ) ) ;
#64 = AXIS2_PLACEMENT_3D ( 'NONE', #82, #28, #201 ) ;
#65 = EDGE_CURVE ( 'NONE', #113, #9, #130, .T. ) ;
#66 = FACE_OUTER_BOUND ( 'NONE', #164, .T. ) ;
#67 = CARTESIAN_POINT ( 'NONE',  ( 0.000000000000000000, 25.00000000000000000, 0.000000000000000000 ) ) ;
#68 = FILL_AREA_STYLE ('',( #211 ) ) ;
#69 = PRODUCT_DEFINITION ( 'UNKNOWN', '', #2, #285 ) ;
#70 = ORIENTED_EDGE ( 'NONE', *, *, #104, .T. ) ;
#71 = PRESENTATION_STYLE_ASSIGNMENT (( #179 ) ) ;
#72 = EDGE_LOOP ( 'NONE', ( #247, #252 ) ) ;
#73 = ORIENTED_EDGE ( 'NONE', *, *, #280, .T. ) ;
#74 = MANIFOLD_SOLID_BREP ( 'Revolve - Cutting Edge', #183 ) ;
#75 = ORIENTED_EDGE ( 'NONE', *, *, #186, .T. ) ;
#76 = PRESENTATION_LAYER_ASSIGNMENT (  '', '', ( #43 ) ) ;
#77 = MECHANICAL_DESIGN_GEOMETRIC_PRESENTATION_REPRESENTATION (  '', ( #229 ), #176 ) ;
#78 = DIRECTION ( 'NONE',  ( 1.224646799147352961E-16, 1.000000000000000000, -0.000000000000000000 ) ) ;
#79 =( NAMED_UNIT ( * ) PLANE_ANGLE_UNIT ( ) SI_UNIT ( $, .RADIAN. ) );
#80 = CIRCLE ( 'NONE', #193, 4.999999999999993783 ) ;
#81 = UNCERTAINTY_MEASURE_WITH_UNIT (LENGTH_MEASURE( 1.000000000000000082E-05 ), #125, 'distance_accuracy_value', 'NONE');
#82 = CARTESIAN_POINT ( 'NONE',  ( 0.000000000000000000, 0.000000000000000000, 0.000000000000000000 ) ) ;
#83 = SURFACE_SIDE_STYLE ('',( #23 ) ) ;
#84 = SURFACE_STYLE_FILL_AREA ( #27 ) ;
#85 = AXIS2_PLACEMENT_3D ( 'NONE', #148, #151, #39 ) ;
#86 = EDGE_CURVE ( 'NONE', #55, #144, #62, .T. ) ;
#87 = CARTESIAN_POINT ( 'NONE',  ( 0.000000000000000000, 0.000000000000000000, 0.000000000000000000 ) ) ;
#88 = CARTESIAN_POINT ( 'NONE',  ( 0.000000000000000000, 25.00000000000000000, 0.000000000000000000 ) ) ;
#89 = DIRECTION ( 'NONE',  ( -0.000000000000000000, -1.000000000000000000, -0.000000000000000000 ) ) ;
#90 = EDGE_CURVE ( 'NONE', #37, #55, #115, .T. ) ;
#91 =( GEOMETRIC_REPRESENTATION_CONTEXT ( 3 ) GLOBAL_UNCERTAINTY_ASSIGNED_CONTEXT ( ( #263 ) ) GLOBAL_UNIT_ASSIGNED_CONTEXT ( ( #31, #208, #102 ) ) REPRESENTATION_CONTEXT ( 'NONE', 'WORKASPACE' ) );
#92 =( GEOMETRIC_REPRESENTATION_CONTEXT ( 3 ) GLOBAL_UNCERTAINTY_ASSIGNED_CONTEXT ( ( #81 ) ) GLOBAL_UNIT_ASSIGNED_CONTEXT ( ( #125, #107, #171 ) ) REPRESENTATION_CONTEXT ( 'NONE', 'WORKASPACE' ) );
#93 = CLOSED_SHELL ( 'NONE', ( #172, #160, #286, #51 ) ) ;
#94 = ORIENTED_EDGE ( 'NONE', *, *, #280, .F. ) ;
#95 = DIRECTION ( 'NONE',  ( 1.224646799147352961E-16, 1.000000000000000000, -0.000000000000000000 ) ) ;
#96 = VERTEX_POINT ( 'NONE', #180 ) ;
#97 = DIRECTION ( 'NONE',  ( 1.224646799147352961E-16, 1.000000000000000000, -0.000000000000000000 ) ) ;
#98 =( NAMED_UNIT ( * ) SI_UNIT ( $, .STERADIAN. ) SOLID_ANGLE_UNIT ( ) );
#99 = LINE ( 'NONE', #260, #140 ) ;
#100 = CARTESIAN_POINT ( 'NONE',  ( 5.000000000000003553, 75.00000000000000000, 6.123233995736763324E-16 ) ) ;
#101 = CIRCLE ( 'NONE', #162, 5.000000000000000000 ) ;
#102 =( NAMED_UNIT ( * ) SI_UNIT ( $, .STERADIAN. ) SOLID_ANGLE_UNIT ( ) );
#103 = CARTESIAN_POINT ( 'NONE',  ( -4.999999999999987566, 75.00000000000000000, 0.000000000000000000 ) ) ;
#104 = EDGE_CURVE ( 'NONE', #144, #55, #147, .T. ) ;
#105 = UNCERTAINTY_MEASURE_WITH_UNIT (LENGTH_MEASURE( 1.000000000000000082E-05 ), #118, 'distance_accuracy_value', 'NONE');
#106 = SURFACE_SIDE_STYLE ('',( #22 ) ) ;
#107 =( NAMED_UNIT ( * ) PLANE_ANGLE_UNIT ( ) SI_UNIT ( $, .RADIAN. ) );
#108 = FACE_OUTER_BOUND ( 'NONE', #215, .T. ) ;
#109 = EDGE_CURVE ( 'NONE', #37, #184, #173, .T. ) ;
#110 = FILL_AREA_STYLE_COLOUR ( '', #174 ) ;
#111 = CARTESIAN_POINT ( 'NONE',  ( 0.000000000000000000, 25.00000000000000000, 0.000000000000000000 ) ) ;
#112 = DIRECTION ( 'NONE',  ( -1.000000000000000000, 0.000000000000000000, 0.000000000000000000 ) ) ;
#113 = VERTEX_POINT ( 'NONE', #199 ) ;
#114 = DIRECTION ( 'NONE',  ( -1.000000000000000000, 0.000000000000000000, 0.000000000000000000 ) ) ;
#115 = LINE ( 'NONE', #135, #136 ) ;
#116 = MECHANICAL_DESIGN_GEOMETRIC_PRESENTATION_REPRESENTATION (  '', ( #119 ), #92 ) ;
#117 = CARTESIAN_POINT ( 'NONE',  ( -7.703719777548943412E-31, 25.00000000000000000, 0.000000000000000000 ) ) ;
#118 =( LENGTH_UNIT ( ) NAMED_UNIT ( * ) SI_UNIT ( .MILLI., .METRE. ) );
#119 = STYLED_ITEM ( 'NONE', ( #61 ), #166 ) ;
#120 =( NAMED_UNIT ( * ) SI_UNIT ( $, .STERADIAN. ) SOLID_ANGLE_UNIT ( ) );
#121 = LINE ( 'NONE', #100, #129 ) ;
#122 = CARTESIAN_POINT ( 'NONE',  ( 0.000000000000000000, 25.00000000000000000, -5.000000000000000000 ) ) ;
#123 = COLOUR_RGB ( '',1.000000000000000000, 0.000000000000000000, 0.000000000000000000 ) ;
#124 = EDGE_LOOP ( 'NONE', ( #277, #259, #188, #137 ) ) ;
#125 =( LENGTH_UNIT ( ) NAMED_UNIT ( * ) SI_UNIT ( .MILLI., .METRE. ) );
#126 = AXIS2_PLACEMENT_3D ( 'NONE', #222, #89, #54 ) ;
#127 = CIRCLE ( 'NONE', #228, 5.000000000000000000 ) ;
#128 = MECHANICAL_DESIGN_GEOMETRIC_PRESENTATION_REPRESENTATION (  '', ( #58 ), #273 ) ;
#129 = VECTOR ( 'NONE', #78, 1000.000000000000000 ) ;
#130 = LINE ( 'NONE', #239, #29 ) ;
#131 = FILL_AREA_STYLE_COLOUR ( '', #219 ) ;
#132 = DIRECTION ( 'NONE',  ( 1.224646799147352961E-16, 1.000000000000000000, -0.000000000000000000 ) ) ;
#133 = AXIS2_PLACEMENT_3D ( 'NONE', #67, #138, #36 ) ;
#134 = DIRECTION ( 'NONE',  ( 1.224646799147352961E-16, 1.000000000000000000, -0.000000000000000000 ) ) ;
#135 = CARTESIAN_POINT ( 'NONE',  ( 0.000000000000000000, 0.000000000000000000, -5.000000000000000000 ) ) ;
#136 = VECTOR ( 'NONE', #206, 1000.000000000000000 ) ;
#137 = ORIENTED_EDGE ( 'NONE', *, *, #224, .F. ) ;
#138 = DIRECTION ( 'NONE',  ( -0.000000000000000000, -1.000000000000000000, -0.000000000000000000 ) ) ;
#139 = PRESENTATION_LAYER_ASSIGNMENT (  '', '', ( #119 ) ) ;
#140 = VECTOR ( 'NONE', #41, 1000.000000000000000 ) ;
#141 = SURFACE_SIDE_STYLE ('',( #56 ) ) ;
#142 = APPLICATION_CONTEXT ( 'automotive_design' ) ;
#143 = AXIS2_PLACEMENT_3D ( 'NONE', #111, #221, #63 ) ;
#144 = VERTEX_POINT ( 'NONE', #169 ) ;
#145 = APPLICATION_PROTOCOL_DEFINITION ( 'draft international standard', 'automotive_design', 1998, #16 ) ;
#146 = DIRECTION ( 'NONE',  ( 1.000000000000000000, -1.224646799147352961E-16, 0.000000000000000000 ) ) ;
#147 = CIRCLE ( 'NONE', #60, 5.000000000000000000 ) ;
#148 = CARTESIAN_POINT ( 'NONE',  ( 0.000000000000000000, 0.000000000000000000, 0.000000000000000000 ) ) ;
#149 = APPLICATION_PROTOCOL_DEFINITION ( 'draft international standard', 'automotive_design', 1998, #142 ) ;
#150 = AXIS2_PLACEMENT_3D ( 'NONE', #190, #59, #146 ) ;
#151 = DIRECTION ( 'NONE',  ( 0.000000000000000000, -1.000000000000000000, -0.000000000000000000 ) ) ;
#152 = FILL_AREA_STYLE ('',( #110 ) ) ;
#153 =( LENGTH_UNIT ( ) NAMED_UNIT ( * ) SI_UNIT ( .MILLI., .METRE. ) );
#154 = AXIS2_PLACEMENT_3D ( 'NONE', #34, #95, #246 ) ;
#155 = DIRECTION ( 'NONE',  ( -0.000000000000000000, -1.000000000000000000, -0.000000000000000000 ) ) ;
#156 = DIRECTION ( 'NONE',  ( 0.000000000000000000, -0.000000000000000000, 1.000000000000000000 ) ) ;
#157 = AXIS2_PLACEMENT_3D ( 'NONE', #88, #278, #156 ) ;
#158 = EDGE_LOOP ( 'NONE', ( #194, #209 ) ) ;
#159 = DIRECTION ( 'NONE',  ( -0.000000000000000000, -1.000000000000000000, -0.000000000000000000 ) ) ;
#160 = ADVANCED_FACE ( 'NONE', ( #48 ), #202, .F. ) ;
#161 = FILL_AREA_STYLE_COLOUR ( '', #123 ) ;
#162 = AXIS2_PLACEMENT_3D ( 'NONE', #10, #165, #276 ) ;
#163 = PRESENTATION_LAYER_ASSIGNMENT (  '', '', ( #229 ) ) ;
#164 = EDGE_LOOP ( 'NONE', ( #15, #21, #94, #207 ) ) ;
#165 = DIRECTION ( 'NONE',  ( 1.224646799147352961E-16, 1.000000000000000000, -0.000000000000000000 ) ) ;
#166 = ADVANCED_FACE ( 'NONE', ( #108 ), #240, .T. ) ;
#167 = VERTEX_POINT ( 'NONE', #264 ) ;
#168 = SURFACE_STYLE_USAGE ( .BOTH. , #283 ) ;
#169 = CARTESIAN_POINT ( 'NONE',  ( 6.123233995736766282E-16, 0.000000000000000000, 5.000000000000000000 ) ) ;
#170 = DIRECTION ( 'NONE',  ( 1.224646799147352961E-16, 1.000000000000000000, -0.000000000000000000 ) ) ;
#171 =( NAMED_UNIT ( * ) SI_UNIT ( $, .STERADIAN. ) SOLID_ANGLE_UNIT ( ) );
#172 = ADVANCED_FACE ( 'NONE', ( #66 ), #47, .T. ) ;
#173 = CIRCLE ( 'NONE', #133, 5.000000000000000000 ) ;
#174 = COLOUR_RGB ( '',1.000000000000000000, 0.000000000000000000, 0.000000000000000000 ) ;
#175 = DIRECTION ( 'NONE',  ( 0.000000000000000000, 0.000000000000000000, -1.000000000000000000 ) ) ;
#176 =( GEOMETRIC_REPRESENTATION_CONTEXT ( 3 ) GLOBAL_UNCERTAINTY_ASSIGNED_CONTEXT ( ( #26 ) ) GLOBAL_UNIT_ASSIGNED_CONTEXT ( ( #42, #79, #120 ) ) REPRESENTATION_CONTEXT ( 'NONE', 'WORKASPACE' ) );
#177 = CARTESIAN_POINT ( 'NONE',  ( 3.749399456654642377E-32, 25.00000000000000000, 0.000000000000000000 ) ) ;
#178 = PRESENTATION_STYLE_ASSIGNMENT (( #262 ) ) ;
#179 = SURFACE_STYLE_USAGE ( .BOTH. , #141 ) ;
#180 = CARTESIAN_POINT ( 'NONE',  ( 5.000000000000000000, 75.00000000000000000, 6.123233995736764310E-16 ) ) ;
#181 = SURFACE_STYLE_FILL_AREA ( #68 ) ;
#182 = CIRCLE ( 'NONE', #143, 5.000000000000000000 ) ;
#183 = CLOSED_SHELL ( 'NONE', ( #166, #233, #216, #30 ) ) ;
#184 = VERTEX_POINT ( 'NONE', #241 ) ;
#185 =( LENGTH_UNIT ( ) NAMED_UNIT ( * ) SI_UNIT ( .MILLI., .METRE. ) );
#186 = EDGE_CURVE ( 'NONE', #184, #37, #182, .T. ) ;
#187 = ORIENTED_EDGE ( 'NONE', *, *, #86, .T. ) ;
#188 = ORIENTED_EDGE ( 'NONE', *, *, #65, .T. ) ;
#189 = ORIENTED_EDGE ( 'NONE', *, *, #224, .T. ) ;
#190 = CARTESIAN_POINT ( 'NONE',  ( 5.000000000000000000, 75.00000000000000000, 0.000000000000000000 ) ) ;
#191 = MECHANICAL_DESIGN_GEOMETRIC_PRESENTATION_REPRESENTATION (  '', ( #231 ), #32 ) ;
#192 = FACE_OUTER_BOUND ( 'NONE', #213, .T. ) ;
#193 = AXIS2_PLACEMENT_3D ( 'NONE', #225, #134, #35 ) ;
#194 = ORIENTED_EDGE ( 'NONE', *, *, #109, .F. ) ;
#195 = DIRECTION ( 'NONE',  ( 1.000000000000000000, 0.000000000000000000, 0.000000000000000000 ) ) ;
#196 = PLANE ( 'NONE',  #85 ) ;
#197 = SURFACE_SIDE_STYLE ('',( #84 ) ) ;
#198 = UNCERTAINTY_MEASURE_WITH_UNIT (LENGTH_MEASURE( 1.000000000000000082E-05 ), #185, 'distance_accuracy_value', 'NONE');
#199 = CARTESIAN_POINT ( 'NONE',  ( -5.000000000000000000, 25.00000000000000000, 0.000000000000000000 ) ) ;
#200 = FILL_AREA_STYLE_COLOUR ( '', #212 ) ;
#201 = DIRECTION ( 'NONE',  ( 0.000000000000000000, 0.000000000000000000, -1.000000000000000000 ) ) ;
#202 = PLANE ( 'NONE',  #234 ) ;
#203 = ORIENTED_EDGE ( 'NONE', *, *, #5, .T. ) ;
#204 = PLANE ( 'NONE',  #157 ) ;
#205 = COLOUR_RGB ( '',0.7921568627450980005, 0.8196078431372548767, 0.9333333333333333481 ) ;
#206 = DIRECTION ( 'NONE',  ( -0.000000000000000000, -1.000000000000000000, -0.000000000000000000 ) ) ;
#207 = ORIENTED_EDGE ( 'NONE', *, *, #65, .F. ) ;
#208 =( NAMED_UNIT ( * ) PLANE_ANGLE_UNIT ( ) SI_UNIT ( $, .RADIAN. ) );
#209 = ORIENTED_EDGE ( 'NONE', *, *, #186, .F. ) ;
#210 =( NAMED_UNIT ( * ) PLANE_ANGLE_UNIT ( ) SI_UNIT ( $, .RADIAN. ) );
#211 = FILL_AREA_STYLE_COLOUR ( '', #205 ) ;
#212 = COLOUR_RGB ( '',1.000000000000000000, 0.000000000000000000, 0.000000000000000000 ) ;
#213 = EDGE_LOOP ( 'NONE', ( #187, #70 ) ) ;
#214 = PRODUCT_CONTEXT ( 'NONE', #16, 'mechanical' ) ;
#215 = EDGE_LOOP ( 'NONE', ( #254, #203, #33, #44 ) ) ;
#216 = ADVANCED_FACE ( 'NONE', ( #50 ), #6, .T. ) ;
#217 = AXIS2_PLACEMENT_3D ( 'NONE', #275, #97, #112 ) ;
#218 = UNCERTAINTY_MEASURE_WITH_UNIT (LENGTH_MEASURE( 1.000000000000000082E-05 ), #253, 'distance_accuracy_value', 'NONE');
#219 = COLOUR_RGB ( '',0.7921568627450980005, 0.8196078431372548767, 0.9333333333333333481 ) ;
#220 = DIRECTION ( 'NONE',  ( 1.224646799147352961E-16, 1.000000000000000000, -0.000000000000000000 ) ) ;
#221 = DIRECTION ( 'NONE',  ( -0.000000000000000000, -1.000000000000000000, -0.000000000000000000 ) ) ;
#222 = CARTESIAN_POINT ( 'NONE',  ( 0.000000000000000000, 0.000000000000000000, 0.000000000000000000 ) ) ;
#223 = SURFACE_STYLE_USAGE ( .BOTH. , #197 ) ;
#224 = EDGE_CURVE ( 'NONE', #96, #9, #18, .T. ) ;
#225 = CARTESIAN_POINT ( 'NONE',  ( 6.123233995736762930E-15, 75.00000000000000000, 0.000000000000000000 ) ) ;
#226 = ORIENTED_EDGE ( 'NONE', *, *, #104, .F. ) ;
#227 =( NAMED_UNIT ( * ) SI_UNIT ( $, .STERADIAN. ) SOLID_ANGLE_UNIT ( ) );
#228 = AXIS2_PLACEMENT_3D ( 'NONE', #117, #132, #114 ) ;
#229 = STYLED_ITEM ( 'NONE', ( #284 ), #30 ) ;
#230 =( NAMED_UNIT ( * ) PLANE_ANGLE_UNIT ( ) SI_UNIT ( $, .RADIAN. ) );
#231 = STYLED_ITEM ( 'NONE', ( #178 ), #74 ) ;
#232 = CYLINDRICAL_SURFACE ( 'NONE', #154, 4.999999999999997335 ) ;
#233 = ADVANCED_FACE ( 'NONE', ( #274 ), #204, .T. ) ;
#234 = AXIS2_PLACEMENT_3D ( 'NONE', #177, #267, #261 ) ;
#235 = CARTESIAN_POINT ( 'NONE',  ( 0.000000000000000000, 0.000000000000000000, -5.000000000000000000 ) ) ;
#236 = EDGE_CURVE ( 'NONE', #167, #113, #101, .T. ) ;
#237 = AXIS2_PLACEMENT_3D ( 'NONE', #255, #14, #195 ) ;
#238 = PLANE ( 'NONE',  #150 ) ;
#239 = CARTESIAN_POINT ( 'NONE',  ( -4.999999999999991118, 75.00000000000000000, 0.000000000000000000 ) ) ;
#240 = CYLINDRICAL_SURFACE ( 'NONE', #287, 5.000000000000000000 ) ;
#241 = CARTESIAN_POINT ( 'NONE',  ( 6.123233995736766282E-16, 25.00000000000000000, 5.000000000000000000 ) ) ;
#242 = PRESENTATION_STYLE_ASSIGNMENT (( #223 ) ) ;
#243 =( NAMED_UNIT ( * ) SI_UNIT ( $, .STERADIAN. ) SOLID_ANGLE_UNIT ( ) );
#244 =( NAMED_UNIT ( * ) PLANE_ANGLE_UNIT ( ) SI_UNIT ( $, .RADIAN. ) );
#245 = ADVANCED_BREP_SHAPE_REPRESENTATION ( '59496', ( #74, #270, #237 ), #91 ) ;
#246 = DIRECTION ( 'NONE',  ( -1.000000000000000000, 0.000000000000000000, 0.000000000000000000 ) ) ;
#247 = ORIENTED_EDGE ( 'NONE', *, *, #288, .F. ) ;
#248 = FACE_OUTER_BOUND ( 'NONE', #124, .T. ) ;
#249 = CARTESIAN_POINT ( 'NONE',  ( 0.000000000000000000, 0.000000000000000000, 0.000000000000000000 ) ) ;
#250 = FILL_AREA_STYLE ('',( #161 ) ) ;
#251 = PRESENTATION_LAYER_ASSIGNMENT (  '', '', ( #49 ) ) ;
#252 = ORIENTED_EDGE ( 'NONE', *, *, #236, .F. ) ;
#253 =( LENGTH_UNIT ( ) NAMED_UNIT ( * ) SI_UNIT ( .MILLI., .METRE. ) );
#254 = ORIENTED_EDGE ( 'NONE', *, *, #109, .T. ) ;
#255 = CARTESIAN_POINT ( 'NONE',  ( 0.000000000000000000, 0.000000000000000000, 0.000000000000000000 ) ) ;
#256 = PRESENTATION_LAYER_ASSIGNMENT (  '', '', ( #58 ) ) ;
#257 = FILL_AREA_STYLE ('',( #281 ) ) ;
#258 = SURFACE_STYLE_FILL_AREA ( #257 ) ;
#259 = ORIENTED_EDGE ( 'NONE', *, *, #236, .T. ) ;
#260 = CARTESIAN_POINT ( 'NONE',  ( 6.123233995736766282E-16, 0.000000000000000000, 5.000000000000000000 ) ) ;
#261 = DIRECTION ( 'NONE',  ( -1.000000000000000000, 1.224646799147352961E-16, 0.000000000000000000 ) ) ;
#262 = SURFACE_STYLE_USAGE ( .BOTH. , #106 ) ;
#263 = UNCERTAINTY_MEASURE_WITH_UNIT (LENGTH_MEASURE( 1.000000000000000082E-05 ), #31, 'distance_accuracy_value', 'NONE');
#264 = CARTESIAN_POINT ( 'NONE',  ( 5.000000000000000000, 25.00000000000000000, 6.123233995736764310E-16 ) ) ;
#265 = SURFACE_STYLE_USAGE ( .BOTH. , #83 ) ;
#266 = FILL_AREA_STYLE ('',( #131 ) ) ;
#267 = DIRECTION ( 'NONE',  ( 1.224646799147352961E-16, 1.000000000000000000, -0.000000000000000000 ) ) ;
#268 = PRODUCT ( '59496', '59496', '', ( #214 ) ) ;
#269 =( NAMED_UNIT ( * ) SI_UNIT ( $, .STERADIAN. ) SOLID_ANGLE_UNIT ( ) );
#270 = MANIFOLD_SOLID_BREP ( 'Revolve - Tool Body (Straight Shanked)', #93 ) ;
#271 = SURFACE_SIDE_STYLE ('',( #181 ) ) ;
#272 = DIRECTION ( 'NONE',  ( 0.000000000000000000, 0.000000000000000000, -1.000000000000000000 ) ) ;
#273 =( GEOMETRIC_REPRESENTATION_CONTEXT ( 3 ) GLOBAL_UNCERTAINTY_ASSIGNED_CONTEXT ( ( #218 ) ) GLOBAL_UNIT_ASSIGNED_CONTEXT ( ( #253, #230, #98 ) ) REPRESENTATION_CONTEXT ( 'NONE', 'WORKASPACE' ) );
#274 = FACE_OUTER_BOUND ( 'NONE', #158, .T. ) ;
#275 = CARTESIAN_POINT ( 'NONE',  ( 6.123233995736762930E-15, 75.00000000000000000, 0.000000000000000000 ) ) ;
#276 = DIRECTION ( 'NONE',  ( -1.000000000000000000, 0.000000000000000000, 0.000000000000000000 ) ) ;
#277 = ORIENTED_EDGE ( 'NONE', *, *, #8, .F. ) ;
#278 = DIRECTION ( 'NONE',  ( 0.000000000000000000, 1.000000000000000000, 0.000000000000000000 ) ) ;
#279 = SHAPE_DEFINITION_REPRESENTATION ( #25, #245 ) ;
#280 = EDGE_CURVE ( 'NONE', #9, #96, #80, .T. ) ;
#281 = FILL_AREA_STYLE_COLOUR ( '', #57 ) ;
#282 = AXIS2_PLACEMENT_3D ( 'NONE', #4, #220, #1 ) ;
#283 = SURFACE_SIDE_STYLE ('',( #258 ) ) ;
#284 = PRESENTATION_STYLE_ASSIGNMENT (( #168 ) ) ;
#285 = PRODUCT_DEFINITION_CONTEXT ( 'detailed design', #142, 'design' ) ;
#286 = ADVANCED_FACE ( 'NONE', ( #248 ), #232, .T. ) ;
#287 = AXIS2_PLACEMENT_3D ( 'NONE', #87, #155, #175 ) ;
#288 = EDGE_CURVE ( 'NONE', #113, #167, #127, .T. ) ;
ENDSEC;
END-ISO-10303-21;
