ISO-10303-21;
HEADER;
FILE_DESCRIPTION (( 'STEP AP214' ),
    '1' );
FILE_NAME ('Micro_GEC-062-3-005X.STEP',
    '2021-09-03T17:02:50',
    ( '' ),
    ( '' ),
    'SwSTEP 2.0',
    'SolidWorks 2020',
    '' );
FILE_SCHEMA (( 'AUTOMOTIVE_DESIGN' ));
ENDSEC;

DATA;
#1 = TOROIDAL_SURFACE ( 'NONE', #322, 0.02621875000000000941, 0.005000000000000000104 ) ;
#2 = DIRECTION ( 'NONE',  ( 0.0000000000000000000, 0.0000000000000000000, -1.000000000000000000 ) ) ;
#3 = CARTESIAN_POINT ( 'NONE',  ( 0.03121875000000002773, 0.0000000000000000000, 0.1880000000000000282 ) ) ;
#4 = DIRECTION ( 'NONE',  ( -0.0000000000000000000, -0.0000000000000000000, -1.000000000000000000 ) ) ;
#5 = CLOSED_SHELL ( 'NONE', ( #192, #179, #142, #97, #15, #182, #130, #188, #63, #241, #46, #218 ) ) ;
#6 = AXIS2_PLACEMENT_3D ( 'NONE', #100, #133, #292 ) ;
#7 = CARTESIAN_POINT ( 'NONE',  ( 6.123233995736768848E-19, 0.0000000000000000000, 0.005000000000000000104 ) ) ;
#8 = EDGE_LOOP ( 'NONE', ( #314, #203, #148, #76 ) ) ;
#9 = DIRECTION ( 'NONE',  ( 0.0000000000000000000, 0.0000000000000000000, 1.000000000000000000 ) ) ;
#10 = VECTOR ( 'NONE', #35, 39.37007874015748143 ) ;
#11 = FACE_OUTER_BOUND ( 'NONE', #8, .T. ) ;
#12 = PRODUCT ( 'Micro_GEC-062-3-005X', 'Micro_GEC-062-3-005X', '', ( #125 ) ) ;
#13 = LINE ( 'NONE', #68, #163 ) ;
#14 = ORIENTED_EDGE ( 'NONE', *, *, #227, .F. ) ;
#15 = ADVANCED_FACE ( 'NONE', ( #23 ), #318, .T. ) ;
#16 =( LENGTH_UNIT ( ) NAMED_UNIT ( * ) SI_UNIT ( $, .METRE. ) );
#17 = EDGE_LOOP ( 'NONE', ( #329, #216, #320, #129 ) ) ;
#18 = FILL_AREA_STYLE_COLOUR ( '', #134 ) ;
#19 = CIRCLE ( 'NONE', #132, 0.06250000000000002776 ) ;
#20 = EDGE_LOOP ( 'NONE', ( #214, #116, #180, #334 ) ) ;
#21 = MANIFOLD_SOLID_BREP ( 'Fillet1', #5 ) ;
#22 =( NAMED_UNIT ( * ) SI_UNIT ( $, .STERADIAN. ) SOLID_ANGLE_UNIT ( ) );
#23 = FACE_OUTER_BOUND ( 'NONE', #38, .T. ) ;
#24 = FILL_AREA_STYLE ('',( #18 ) ) ;
#25 = DIRECTION ( 'NONE',  ( -0.0000000000000000000, -0.0000000000000000000, -1.000000000000000000 ) ) ;
#26 = CIRCLE ( 'NONE', #296, 0.005000000000000000104 ) ;
#27 = CARTESIAN_POINT ( 'NONE',  ( 0.03121875000000000691, 3.823194226088144458E-18, 0.005000000000000000971 ) ) ;
#28 = CARTESIAN_POINT ( 'NONE',  ( -0.03121874999999998609, 3.823194226088144458E-18, 0.1880000000000000282 ) ) ;
#29 = DIRECTION ( 'NONE',  ( 1.000000000000000000, 0.0000000000000000000, 0.0000000000000000000 ) ) ;
#30 = CIRCLE ( 'NONE', #75, 0.03121875000000000691 ) ;
#31 = DIRECTION ( 'NONE',  ( 0.0000000000000000000, 0.0000000000000000000, 1.000000000000000000 ) ) ;
#32 = CARTESIAN_POINT ( 'NONE',  ( 0.0000000000000000000, 0.0000000000000000000, 1.485000000000000764 ) ) ;
#33 = DIRECTION ( 'NONE',  ( -0.7071067811865462405, 0.0000000000000000000, -0.7071067811865486830 ) ) ;
#34 = EDGE_CURVE ( 'NONE', #282, #157, #304, .T. ) ;
#35 = DIRECTION ( 'NONE',  ( -0.0000000000000000000, -0.0000000000000000000, -1.000000000000000000 ) ) ;
#36 = DIRECTION ( 'NONE',  ( 0.0000000000000000000, 0.0000000000000000000, 1.000000000000000000 ) ) ;
#37 = DIRECTION ( 'NONE',  ( -1.224646799147353700E-16, -0.0000000000000000000, -1.000000000000000000 ) ) ;
#38 = EDGE_LOOP ( 'NONE', ( #45, #98, #280, #232 ) ) ;
#39 = AXIS2_PLACEMENT_3D ( 'NONE', #150, #283, #233 ) ;
#40 = DIRECTION ( 'NONE',  ( 0.0000000000000000000, 0.0000000000000000000, 1.000000000000000000 ) ) ;
#41 = ORIENTED_EDGE ( 'NONE', *, *, #66, .F. ) ;
#42 =( NAMED_UNIT ( * ) PLANE_ANGLE_UNIT ( ) SI_UNIT ( $, .RADIAN. ) );
#43 =( NAMED_UNIT ( * ) SI_UNIT ( $, .STERADIAN. ) SOLID_ANGLE_UNIT ( ) );
#44 = VECTOR ( 'NONE', #33, 39.37007874015748854 ) ;
#45 = ORIENTED_EDGE ( 'NONE', *, *, #165, .T. ) ;
#46 = ADVANCED_FACE ( 'NONE', ( #159 ), #221, .F. ) ;
#47 = LENGTH_MEASURE_WITH_UNIT ( LENGTH_MEASURE( 0.02539999999999999897 ), #104 );
#48 = CIRCLE ( 'NONE', #81, 0.004999999999999997502 ) ;
#49 = CARTESIAN_POINT ( 'NONE',  ( 0.03121875000000000691, 3.823194226088144458E-18, -3.823194226088145998E-18 ) ) ;
#50 = DIRECTION ( 'NONE',  ( 1.224646799147353207E-16, 1.000000000000000000, -0.0000000000000000000 ) ) ;
#51 = DIRECTION ( 'NONE',  ( 1.000000000000000000, 0.0000000000000000000, 0.0000000000000000000 ) ) ;
#52 = AXIS2_PLACEMENT_3D ( 'NONE', #237, #231, #95 ) ;
#53 = MECHANICAL_DESIGN_GEOMETRIC_PRESENTATION_REPRESENTATION (  '', ( #178 ), #172 ) ;
#54 = CARTESIAN_POINT ( 'NONE',  ( 2.302335982397025094E-17, 0.0000000000000000000, 0.1880000000000000282 ) ) ;
#55 = DIMENSIONAL_EXPONENTS ( 1.000000000000000000, 0.0000000000000000000, 0.0000000000000000000, 0.0000000000000000000, 0.0000000000000000000, 0.0000000000000000000, 0.0000000000000000000 ) ;
#56 = CARTESIAN_POINT ( 'NONE',  ( 0.0000000000000000000, 0.0000000000000000000, 0.0000000000000000000 ) ) ;
#57 = CARTESIAN_POINT ( 'NONE',  ( 0.06250000000000002776, 7.654042494670959086E-18, 1.500000000000000222 ) ) ;
#58 = EDGE_CURVE ( 'NONE', #119, #94, #220, .T. ) ;
#59 = AXIS2_PLACEMENT_3D ( 'NONE', #269, #25, #212 ) ;
#60 = AXIS2_PLACEMENT_3D ( 'NONE', #250, #170, #85 ) ;
#61 = LINE ( 'NONE', #57, #10 ) ;
#62 = CARTESIAN_POINT ( 'NONE',  ( -0.06250000000000002776, 0.0000000000000000000, 1.485000000000000764 ) ) ;
#63 = ADVANCED_FACE ( 'NONE', ( #222 ), #240, .T. ) ;
#64 = CARTESIAN_POINT ( 'NONE',  ( 0.06250000000000006939, 7.654042494670963708E-18, 0.3654047844199155848 ) ) ;
#65 = ORIENTED_EDGE ( 'NONE', *, *, #197, .F. ) ;
#66 = EDGE_CURVE ( 'NONE', #337, #282, #48, .T. ) ;
#67 = CIRCLE ( 'NONE', #310, 0.06250000000000002776 ) ;
#68 = CARTESIAN_POINT ( 'NONE',  ( -0.03121875000000000691, 0.0000000000000000000, 3.823194226088145998E-18 ) ) ;
#69 = ORIENTED_EDGE ( 'NONE', *, *, #136, .T. ) ;
#70 =( CONVERSION_BASED_UNIT ( 'INCH', #342 ) LENGTH_UNIT ( ) NAMED_UNIT ( #249 ) );
#71 = SURFACE_STYLE_USAGE ( .BOTH. , #312 ) ;
#72 = APPLICATION_PROTOCOL_DEFINITION ( 'draft international standard', 'automotive_design', 1998, #92 ) ;
#73 = ORIENTED_EDGE ( 'NONE', *, *, #127, .T. ) ;
#74 = APPLICATION_CONTEXT ( 'automotive_design' ) ;
#75 = AXIS2_PLACEMENT_3D ( 'NONE', #284, #40, #115 ) ;
#76 = ORIENTED_EDGE ( 'NONE', *, *, #34, .T. ) ;
#77 = DIRECTION ( 'NONE',  ( 1.000000000000000000, 0.0000000000000000000, 0.0000000000000000000 ) ) ;
#78 = ORIENTED_EDGE ( 'NONE', *, *, #158, .T. ) ;
#79 = ORIENTED_EDGE ( 'NONE', *, *, #136, .F. ) ;
#80 = DIRECTION ( 'NONE',  ( -1.000000000000000000, 1.224646799147353947E-16, 0.0000000000000000000 ) ) ;
#81 = AXIS2_PLACEMENT_3D ( 'NONE', #327, #50, #80 ) ;
#82 = DIRECTION ( 'NONE',  ( -1.000000000000000000, 0.0000000000000000000, 0.0000000000000000000 ) ) ;
#83 = CARTESIAN_POINT ( 'NONE',  ( 2.302335982397025094E-17, 0.0000000000000000000, 0.1880000000000000282 ) ) ;
#84 = MECHANICAL_DESIGN_GEOMETRIC_PRESENTATION_REPRESENTATION (  '', ( #107 ), #101 ) ;
#85 = DIRECTION ( 'NONE',  ( -1.000000000000000000, 0.0000000000000000000, 0.0000000000000000000 ) ) ;
#86 = PRODUCT_DEFINITION_CONTEXT ( 'detailed design', #92, 'design' ) ;
#87 = DIRECTION ( 'NONE',  ( -1.000000000000000000, 0.0000000000000000000, 0.0000000000000000000 ) ) ;
#88 = CARTESIAN_POINT ( 'NONE',  ( 4.474917996329784544E-17, 0.0000000000000000000, 0.3654047844199155848 ) ) ;
#89 = ORIENTED_EDGE ( 'NONE', *, *, #66, .T. ) ;
#90 = CIRCLE ( 'NONE', #270, 0.06250000000000002776 ) ;
#91 = DIRECTION ( 'NONE',  ( -1.224646799147353700E-16, -0.0000000000000000000, -1.000000000000000000 ) ) ;
#92 = APPLICATION_CONTEXT ( 'automotive_design' ) ;
#93 = DIRECTION ( 'NONE',  ( 1.000000000000000000, 0.0000000000000000000, 0.0000000000000000000 ) ) ;
#94 = VERTEX_POINT ( 'NONE', #300 ) ;
#95 = DIRECTION ( 'NONE',  ( 1.000000000000000000, 0.0000000000000000000, 0.0000000000000000000 ) ) ;
#96 = COLOUR_RGB ( '',0.7921568627450980005, 0.8196078431372548767, 0.9333333333333333481 ) ;
#97 = ADVANCED_FACE ( 'NONE', ( #194 ), #139, .T. ) ;
#98 = ORIENTED_EDGE ( 'NONE', *, *, #338, .T. ) ;
#99 = SURFACE_STYLE_FILL_AREA ( #24 ) ;
#100 = CARTESIAN_POINT ( 'NONE',  ( 6.123233995736769811E-19, 0.0000000000000000000, 0.005000000000000000971 ) ) ;
#101 =( GEOMETRIC_REPRESENTATION_CONTEXT ( 3 ) GLOBAL_UNCERTAINTY_ASSIGNED_CONTEXT ( ( #162 ) ) GLOBAL_UNIT_ASSIGNED_CONTEXT ( ( #185, #271, #154 ) ) REPRESENTATION_CONTEXT ( 'NONE', 'WORKASPACE' ) );
#102 = VERTEX_POINT ( 'NONE', #324 ) ;
#103 = EDGE_CURVE ( 'NONE', #119, #157, #350, .T. ) ;
#104 =( LENGTH_UNIT ( ) NAMED_UNIT ( * ) SI_UNIT ( $, .METRE. ) );
#105 = DIRECTION ( 'NONE',  ( 1.000000000000000000, 0.0000000000000000000, 0.0000000000000000000 ) ) ;
#106 = EDGE_CURVE ( 'NONE', #94, #119, #164, .T. ) ;
#107 = STYLED_ITEM ( 'NONE', ( #248 ), #21 ) ;
#108 = DIRECTION ( 'NONE',  ( 0.0000000000000000000, -1.000000000000000000, 0.0000000000000000000 ) ) ;
#109 = EDGE_CURVE ( 'NONE', #288, #229, #67, .T. ) ;
#110 = DIRECTION ( 'NONE',  ( -1.224646799147353700E-16, -0.0000000000000000000, -1.000000000000000000 ) ) ;
#111 = DIRECTION ( 'NONE',  ( 0.0000000000000000000, 0.0000000000000000000, -1.000000000000000000 ) ) ;
#112 = CYLINDRICAL_SURFACE ( 'NONE', #199, 0.03121875000000000691 ) ;
#113 = EDGE_CURVE ( 'NONE', #124, #151, #311, .T. ) ;
#114 = VECTOR ( 'NONE', #207, 39.37007874015748854 ) ;
#115 = DIRECTION ( 'NONE',  ( 1.000000000000000000, 0.0000000000000000000, 0.0000000000000000000 ) ) ;
#116 = ORIENTED_EDGE ( 'NONE', *, *, #103, .T. ) ;
#117 = EDGE_CURVE ( 'NONE', #151, #124, #128, .T. ) ;
#118 = CARTESIAN_POINT ( 'NONE',  ( -0.04750000000000064587, 0.0000000000000000000, 1.500000000000000222 ) ) ;
#119 = VERTEX_POINT ( 'NONE', #3 ) ;
#120 = AXIS2_PLACEMENT_3D ( 'NONE', #277, #228, #202 ) ;
#121 =( GEOMETRIC_REPRESENTATION_CONTEXT ( 3 ) GLOBAL_UNCERTAINTY_ASSIGNED_CONTEXT ( ( #217 ) ) GLOBAL_UNIT_ASSIGNED_CONTEXT ( ( #70, #42, #43 ) ) REPRESENTATION_CONTEXT ( 'NONE', 'WORKASPACE' ) );
#122 = CARTESIAN_POINT ( 'NONE',  ( 0.04750000000000064587, 5.817072295950006528E-18, 1.500000000000000222 ) ) ;
#123 = DIRECTION ( 'NONE',  ( -1.224646799147353700E-16, -0.0000000000000000000, -1.000000000000000000 ) ) ;
#124 = VERTEX_POINT ( 'NONE', #224 ) ;
#125 = PRODUCT_CONTEXT ( 'NONE', #74, 'mechanical' ) ;
#126 = SURFACE_STYLE_FILL_AREA ( #295 ) ;
#127 = EDGE_CURVE ( 'NONE', #94, #308, #168, .T. ) ;
#128 = CIRCLE ( 'NONE', #291, 0.04750000000000064587 ) ;
#129 = ORIENTED_EDGE ( 'NONE', *, *, #227, .T. ) ;
#130 = ADVANCED_FACE ( 'NONE', ( #325 ), #251, .T. ) ;
#131 = ORIENTED_EDGE ( 'NONE', *, *, #338, .F. ) ;
#132 = AXIS2_PLACEMENT_3D ( 'NONE', #88, #144, #336 ) ;
#133 = DIRECTION ( 'NONE',  ( 0.0000000000000000000, 0.0000000000000000000, 1.000000000000000000 ) ) ;
#134 = COLOUR_RGB ( '',0.7921568627450980005, 0.8196078431372548767, 0.9333333333333333481 ) ;
#135 = DIRECTION ( 'NONE',  ( 1.000000000000000000, 0.0000000000000000000, 0.0000000000000000000 ) ) ;
#136 = EDGE_CURVE ( 'NONE', #102, #157, #26, .T. ) ;
#137 = CARTESIAN_POINT ( 'NONE',  ( 0.0000000000000000000, 0.0000000000000000000, 1.500000000000000222 ) ) ;
#138 = FACE_OUTER_BOUND ( 'NONE', #20, .T. ) ;
#139 = CONICAL_SURFACE ( 'NONE', #210, 0.04750000000000064587, 0.7853981633974466137 ) ;
#140 = DIRECTION ( 'NONE',  ( 1.224646799147353700E-16, 0.0000000000000000000, 1.000000000000000000 ) ) ;
#141 = DIRECTION ( 'NONE',  ( 0.0000000000000000000, 0.0000000000000000000, -1.000000000000000000 ) ) ;
#142 = ADVANCED_FACE ( 'NONE', ( #298 ), #177, .T. ) ;
#143 = CYLINDRICAL_SURFACE ( 'NONE', #235, 0.03121875000000000691 ) ;
#144 = DIRECTION ( 'NONE',  ( -1.224646799147353700E-16, -0.0000000000000000000, -1.000000000000000000 ) ) ;
#145 = CARTESIAN_POINT ( 'NONE',  ( 0.0000000000000000000, 0.0000000000000000000, 1.500000000000000222 ) ) ;
#146 = EDGE_LOOP ( 'NONE', ( #303, #189 ) ) ;
#147 = DIRECTION ( 'NONE',  ( -1.000000000000000000, 0.0000000000000000000, 1.224646799147353700E-16 ) ) ;
#148 = ORIENTED_EDGE ( 'NONE', *, *, #315, .T. ) ;
#149 = VECTOR ( 'NONE', #4, 39.37007874015748143 ) ;
#150 = CARTESIAN_POINT ( 'NONE',  ( 0.0000000000000000000, 0.0000000000000000000, 1.500000000000000222 ) ) ;
#151 = VERTEX_POINT ( 'NONE', #276 ) ;
#152 = ORIENTED_EDGE ( 'NONE', *, *, #289, .F. ) ;
#153 = DIRECTION ( 'NONE',  ( 0.0000000000000000000, 0.0000000000000000000, 1.000000000000000000 ) ) ;
#154 =( NAMED_UNIT ( * ) SI_UNIT ( $, .STERADIAN. ) SOLID_ANGLE_UNIT ( ) );
#155 = PRESENTATION_LAYER_ASSIGNMENT (  '', '', ( #107 ) ) ;
#156 = AXIS2_PLACEMENT_3D ( 'NONE', #145, #281, #87 ) ;
#157 = VERTEX_POINT ( 'NONE', #27 ) ;
#158 = EDGE_CURVE ( 'NONE', #229, #308, #223, .T. ) ;
#159 = FACE_OUTER_BOUND ( 'NONE', #146, .T. ) ;
#160 = SURFACE_SIDE_STYLE ('',( #99 ) ) ;
#161 = EDGE_LOOP ( 'NONE', ( #131, #234, #78, #14 ) ) ;
#162 = UNCERTAINTY_MEASURE_WITH_UNIT (LENGTH_MEASURE( 1.000000000000000082E-05 ), #185, 'distance_accuracy_value', 'NONE');
#163 = VECTOR ( 'NONE', #123, 39.37007874015748143 ) ;
#164 = CIRCLE ( 'NONE', #60, 0.03121875000000000691 ) ;
#165 = EDGE_CURVE ( 'NONE', #229, #288, #346, .T. ) ;
#166 = CARTESIAN_POINT ( 'NONE',  ( 0.0000000000000000000, 0.0000000000000000000, 1.500000000000000222 ) ) ;
#167 = DIRECTION ( 'NONE',  ( 1.224646799147353700E-16, 0.0000000000000000000, 1.000000000000000000 ) ) ;
#168 = LINE ( 'NONE', #28, #316 ) ;
#169 = CARTESIAN_POINT ( 'NONE',  ( 2.302335982397025094E-17, 0.0000000000000000000, 0.1880000000000000282 ) ) ;
#170 = DIRECTION ( 'NONE',  ( -1.224646799147353700E-16, -0.0000000000000000000, -1.000000000000000000 ) ) ;
#171 = DIRECTION ( 'NONE',  ( -1.000000000000000000, 0.0000000000000000000, 1.224646799147353700E-16 ) ) ;
#172 =( GEOMETRIC_REPRESENTATION_CONTEXT ( 3 ) GLOBAL_UNCERTAINTY_ASSIGNED_CONTEXT ( ( #226 ) ) GLOBAL_UNIT_ASSIGNED_CONTEXT ( ( #247, #213, #22 ) ) REPRESENTATION_CONTEXT ( 'NONE', 'WORKASPACE' ) );
#173 = FACE_OUTER_BOUND ( 'NONE', #332, .T. ) ;
#174 = ORIENTED_EDGE ( 'NONE', *, *, #165, .F. ) ;
#175 = CARTESIAN_POINT ( 'NONE',  ( 0.0000000000000000000, 0.0000000000000000000, 0.0000000000000000000 ) ) ;
#176 = CARTESIAN_POINT ( 'NONE',  ( 0.06250000000000002776, 7.654042494670959086E-18, 1.485000000000000764 ) ) ;
#177 = CONICAL_SURFACE ( 'NONE', #278, 0.03121875000000000691, 0.1745329251994338915 ) ;
#178 = STYLED_ITEM ( 'NONE', ( #244 ), #348 ) ;
#179 = ADVANCED_FACE ( 'NONE', ( #138 ), #112, .T. ) ;
#180 = ORIENTED_EDGE ( 'NONE', *, *, #289, .T. ) ;
#181 =( LENGTH_UNIT ( ) NAMED_UNIT ( * ) SI_UNIT ( $, .METRE. ) );
#182 = ADVANCED_FACE ( 'NONE', ( #306 ), #302, .T. ) ;
#183 = ORIENTED_EDGE ( 'NONE', *, *, #330, .F. ) ;
#184 = LENGTH_MEASURE_WITH_UNIT ( LENGTH_MEASURE( 0.02539999999999999897 ), #181 );
#185 =( CONVERSION_BASED_UNIT ( 'INCH', #47 ) LENGTH_UNIT ( ) NAMED_UNIT ( #55 ) );
#186 = PRESENTATION_LAYER_ASSIGNMENT (  '', '', ( #178 ) ) ;
#187 = ORIENTED_EDGE ( 'NONE', *, *, #343, .F. ) ;
#188 = ADVANCED_FACE ( 'NONE', ( #173 ), #246, .T. ) ;
#189 = ORIENTED_EDGE ( 'NONE', *, *, #330, .T. ) ;
#190 = VECTOR ( 'NONE', #253, 39.37007874015748143 ) ;
#191 = DIMENSIONAL_EXPONENTS ( 1.000000000000000000, 0.0000000000000000000, 0.0000000000000000000, 0.0000000000000000000, 0.0000000000000000000, 0.0000000000000000000, 0.0000000000000000000 ) ;
#192 = ADVANCED_FACE ( 'NONE', ( #331 ), #1, .T. ) ;
#193 = AXIS2_PLACEMENT_3D ( 'NONE', #319, #153, #77 ) ;
#194 = FACE_OUTER_BOUND ( 'NONE', #265, .T. ) ;
#195 = CARTESIAN_POINT ( 'NONE',  ( 0.0000000000000000000, 0.0000000000000000000, 1.500000000000000222 ) ) ;
#196 = DIRECTION ( 'NONE',  ( 1.000000000000000000, 0.0000000000000000000, 0.0000000000000000000 ) ) ;
#197 = EDGE_CURVE ( 'NONE', #151, #229, #335, .T. ) ;
#198 = DIRECTION ( 'NONE',  ( -1.000000000000000000, 0.0000000000000000000, 0.0000000000000000000 ) ) ;
#199 = AXIS2_PLACEMENT_3D ( 'NONE', #301, #258, #171 ) ;
#200 = EDGE_CURVE ( 'NONE', #308, #268, #19, .T. ) ;
#201 = CARTESIAN_POINT ( 'NONE',  ( 0.02621875000000000941, 0.0000000000000000000, 0.005000000000000000104 ) ) ;
#202 = DIRECTION ( 'NONE',  ( 1.000000000000000000, 0.0000000000000000000, 0.0000000000000000000 ) ) ;
#203 = ORIENTED_EDGE ( 'NONE', *, *, #58, .T. ) ;
#204 = CARTESIAN_POINT ( 'NONE',  ( 4.474917996329784544E-17, 0.0000000000000000000, 0.3654047844199155848 ) ) ;
#205 = TOROIDAL_SURFACE ( 'NONE', #326, 0.02621875000000000941, 0.005000000000000000104 ) ;
#206 = EDGE_LOOP ( 'NONE', ( #183, #89, #152, #79 ) ) ;
#207 = DIRECTION ( 'NONE',  ( 0.7071067811865462405, 8.659560562354916834E-17, -0.7071067811865486830 ) ) ;
#208 = ORIENTED_EDGE ( 'NONE', *, *, #117, .T. ) ;
#209 = LINE ( 'NONE', #309, #259 ) ;
#210 = AXIS2_PLACEMENT_3D ( 'NONE', #166, #2, #82 ) ;
#211 = SURFACE_STYLE_USAGE ( .BOTH. , #160 ) ;
#212 = DIRECTION ( 'NONE',  ( -1.000000000000000000, 0.0000000000000000000, 0.0000000000000000000 ) ) ;
#213 =( NAMED_UNIT ( * ) PLANE_ANGLE_UNIT ( ) SI_UNIT ( $, .RADIAN. ) );
#214 = ORIENTED_EDGE ( 'NONE', *, *, #106, .T. ) ;
#215 = CIRCLE ( 'NONE', #52, 0.02621875000000000941 ) ;
#216 = ORIENTED_EDGE ( 'NONE', *, *, #58, .F. ) ;
#217 = UNCERTAINTY_MEASURE_WITH_UNIT (LENGTH_MEASURE( 1.000000000000000082E-05 ), #70, 'distance_accuracy_value', 'NONE');
#218 = ADVANCED_FACE ( 'NONE', ( #263 ), #205, .T. ) ;
#219 = CARTESIAN_POINT ( 'NONE',  ( 0.0000000000000000000, 0.0000000000000000000, 1.485000000000000764 ) ) ;
#220 = CIRCLE ( 'NONE', #339, 0.03121875000000000691 ) ;
#221 = PLANE ( 'NONE',  #225 ) ;
#222 = FACE_OUTER_BOUND ( 'NONE', #17, .T. ) ;
#223 = LINE ( 'NONE', #256, #149 ) ;
#224 = CARTESIAN_POINT ( 'NONE',  ( 0.04750000000000064587, 6.735557395310483192E-18, 1.500000000000000222 ) ) ;
#225 = AXIS2_PLACEMENT_3D ( 'NONE', #56, #323, #297 ) ;
#226 = UNCERTAINTY_MEASURE_WITH_UNIT (LENGTH_MEASURE( 1.000000000000000082E-05 ), #247, 'distance_accuracy_value', 'NONE');
#227 = EDGE_CURVE ( 'NONE', #268, #308, #90, .T. ) ;
#228 = DIRECTION ( 'NONE',  ( -0.0000000000000000000, -0.0000000000000000000, -1.000000000000000000 ) ) ;
#229 = VERTEX_POINT ( 'NONE', #62 ) ;
#230 = PRODUCT_DEFINITION ( 'UNKNOWN', '', #317, #86 ) ;
#231 = DIRECTION ( 'NONE',  ( -0.0000000000000000000, -0.0000000000000000000, -1.000000000000000000 ) ) ;
#232 = ORIENTED_EDGE ( 'NONE', *, *, #158, .F. ) ;
#233 = DIRECTION ( 'NONE',  ( -1.000000000000000000, 0.0000000000000000000, 0.0000000000000000000 ) ) ;
#234 = ORIENTED_EDGE ( 'NONE', *, *, #109, .T. ) ;
#235 = AXIS2_PLACEMENT_3D ( 'NONE', #175, #37, #147 ) ;
#236 = EDGE_LOOP ( 'NONE', ( #208, #245 ) ) ;
#237 = CARTESIAN_POINT ( 'NONE',  ( 6.123233995736768848E-19, 0.0000000000000000000, 0.0000000000000000000 ) ) ;
#238 = ORIENTED_EDGE ( 'NONE', *, *, #34, .F. ) ;
#239 = ORIENTED_EDGE ( 'NONE', *, *, #197, .T. ) ;
#240 = CONICAL_SURFACE ( 'NONE', #252, 0.03121875000000000691, 0.1745329251994338915 ) ;
#241 = ADVANCED_FACE ( 'NONE', ( #11 ), #143, .T. ) ;
#242 = ORIENTED_EDGE ( 'NONE', *, *, #200, .T. ) ;
#243 = APPLICATION_PROTOCOL_DEFINITION ( 'draft international standard', 'automotive_design', 1998, #74 ) ;
#244 = PRESENTATION_STYLE_ASSIGNMENT (( #211 ) ) ;
#245 = ORIENTED_EDGE ( 'NONE', *, *, #113, .T. ) ;
#246 = CONICAL_SURFACE ( 'NONE', #156, 0.04750000000000064587, 0.7853981633974466137 ) ;
#247 =( CONVERSION_BASED_UNIT ( 'INCH', #184 ) LENGTH_UNIT ( ) NAMED_UNIT ( #191 ) );
#248 = PRESENTATION_STYLE_ASSIGNMENT (( #71 ) ) ;
#249 = DIMENSIONAL_EXPONENTS ( 1.000000000000000000, 0.0000000000000000000, 0.0000000000000000000, 0.0000000000000000000, 0.0000000000000000000, 0.0000000000000000000, 0.0000000000000000000 ) ;
#250 = CARTESIAN_POINT ( 'NONE',  ( 2.302335982397025094E-17, 0.0000000000000000000, 0.1880000000000000282 ) ) ;
#251 = PLANE ( 'NONE',  #257 ) ;
#252 = AXIS2_PLACEMENT_3D ( 'NONE', #169, #140, #135 ) ;
#253 = DIRECTION ( 'NONE',  ( -1.224646799147353700E-16, -0.0000000000000000000, -1.000000000000000000 ) ) ;
#254 = DIRECTION ( 'NONE',  ( 0.0000000000000000000, 0.0000000000000000000, -1.000000000000000000 ) ) ;
#255 = PRODUCT_DEFINITION_SHAPE ( 'NONE', 'NONE',  #230 ) ;
#256 = CARTESIAN_POINT ( 'NONE',  ( -0.06250000000000002776, 0.0000000000000000000, 1.500000000000000222 ) ) ;
#257 = AXIS2_PLACEMENT_3D ( 'NONE', #275, #31, #351 ) ;
#258 = DIRECTION ( 'NONE',  ( -1.224646799147353700E-16, -0.0000000000000000000, -1.000000000000000000 ) ) ;
#259 = VECTOR ( 'NONE', #286, 39.37007874015748143 ) ;
#260 = EDGE_CURVE ( 'NONE', #124, #288, #279, .T. ) ;
#261 = CARTESIAN_POINT ( 'NONE',  ( -0.02621875000000000941, 3.517032526301306063E-18, 0.0000000000000000000 ) ) ;
#262 = ORIENTED_EDGE ( 'NONE', *, *, #109, .F. ) ;
#263 = FACE_OUTER_BOUND ( 'NONE', #266, .T. ) ;
#264 = CARTESIAN_POINT ( 'NONE',  ( -0.06249999999999997918, 0.0000000000000000000, 0.3654047844199155848 ) ) ;
#265 = EDGE_LOOP ( 'NONE', ( #345, #287, #174, #65 ) ) ;
#266 = EDGE_LOOP ( 'NONE', ( #41, #187, #69, #238 ) ) ;
#267 = AXIS2_PLACEMENT_3D ( 'NONE', #195, #272, #196 ) ;
#268 = VERTEX_POINT ( 'NONE', #64 ) ;
#269 = CARTESIAN_POINT ( 'NONE',  ( 0.0000000000000000000, 0.0000000000000000000, 1.500000000000000222 ) ) ;
#270 = AXIS2_PLACEMENT_3D ( 'NONE', #204, #91, #305 ) ;
#271 =( NAMED_UNIT ( * ) PLANE_ANGLE_UNIT ( ) SI_UNIT ( $, .RADIAN. ) );
#272 = DIRECTION ( 'NONE',  ( 0.0000000000000000000, 0.0000000000000000000, 1.000000000000000000 ) ) ;
#273 = DIRECTION ( 'NONE',  ( 1.000000000000000000, 0.0000000000000000000, 0.0000000000000000000 ) ) ;
#274 = CIRCLE ( 'NONE', #120, 0.02621875000000000941 ) ;
#275 = CARTESIAN_POINT ( 'NONE',  ( 0.0000000000000000000, 0.0000000000000000000, 1.500000000000000222 ) ) ;
#276 = CARTESIAN_POINT ( 'NONE',  ( -0.04750000000000064587, 0.0000000000000000000, 1.500000000000000222 ) ) ;
#277 = CARTESIAN_POINT ( 'NONE',  ( 6.123233995736768848E-19, 0.0000000000000000000, 0.0000000000000000000 ) ) ;
#278 = AXIS2_PLACEMENT_3D ( 'NONE', #54, #167, #273 ) ;
#279 = LINE ( 'NONE', #122, #114 ) ;
#280 = ORIENTED_EDGE ( 'NONE', *, *, #200, .F. ) ;
#281 = DIRECTION ( 'NONE',  ( 0.0000000000000000000, 0.0000000000000000000, -1.000000000000000000 ) ) ;
#282 = VERTEX_POINT ( 'NONE', #328 ) ;
#283 = DIRECTION ( 'NONE',  ( -0.0000000000000000000, -0.0000000000000000000, -1.000000000000000000 ) ) ;
#284 = CARTESIAN_POINT ( 'NONE',  ( 6.123233995736769811E-19, 0.0000000000000000000, 0.005000000000000000971 ) ) ;
#285 = AXIS2_PLACEMENT_3D ( 'NONE', #32, #141, #29 ) ;
#286 = DIRECTION ( 'NONE',  ( 0.1736481776669313859, 0.0000000000000000000, 0.9848077530122077983 ) ) ;
#287 = ORIENTED_EDGE ( 'NONE', *, *, #260, .T. ) ;
#288 = VERTEX_POINT ( 'NONE', #176 ) ;
#289 = EDGE_CURVE ( 'NONE', #157, #282, #30, .T. ) ;
#290 = EDGE_LOOP ( 'NONE', ( #340, #73, #242, #293 ) ) ;
#291 = AXIS2_PLACEMENT_3D ( 'NONE', #137, #299, #51 ) ;
#292 = DIRECTION ( 'NONE',  ( 1.000000000000000000, 0.0000000000000000000, 0.0000000000000000000 ) ) ;
#293 = ORIENTED_EDGE ( 'NONE', *, *, #349, .F. ) ;
#294 = PRODUCT_RELATED_PRODUCT_CATEGORY ( 'part', '', ( #12 ) ) ;
#295 = FILL_AREA_STYLE ('',( #341 ) ) ;
#296 = AXIS2_PLACEMENT_3D ( 'NONE', #201, #108, #111 ) ;
#297 = DIRECTION ( 'NONE',  ( 1.000000000000000000, 0.0000000000000000000, -0.0000000000000000000 ) ) ;
#298 = FACE_OUTER_BOUND ( 'NONE', #290, .T. ) ;
#299 = DIRECTION ( 'NONE',  ( 0.0000000000000000000, 0.0000000000000000000, 1.000000000000000000 ) ) ;
#300 = CARTESIAN_POINT ( 'NONE',  ( -0.03121874999999998609, 5.738618360379552157E-18, 0.1880000000000000282 ) ) ;
#301 = CARTESIAN_POINT ( 'NONE',  ( 0.0000000000000000000, 0.0000000000000000000, 0.0000000000000000000 ) ) ;
#302 = CYLINDRICAL_SURFACE ( 'NONE', #39, 0.06250000000000002776 ) ;
#303 = ORIENTED_EDGE ( 'NONE', *, *, #343, .T. ) ;
#304 = CIRCLE ( 'NONE', #6, 0.03121875000000000691 ) ;
#305 = DIRECTION ( 'NONE',  ( 1.000000000000000000, 0.0000000000000000000, 0.0000000000000000000 ) ) ;
#306 = FACE_OUTER_BOUND ( 'NONE', #161, .T. ) ;
#307 = DIRECTION ( 'NONE',  ( 1.000000000000000000, 0.0000000000000000000, 0.0000000000000000000 ) ) ;
#308 = VERTEX_POINT ( 'NONE', #264 ) ;
#309 = CARTESIAN_POINT ( 'NONE',  ( 0.03121875000000002773, 0.0000000000000000000, 0.1880000000000000282 ) ) ;
#310 = AXIS2_PLACEMENT_3D ( 'NONE', #219, #254, #105 ) ;
#311 = CIRCLE ( 'NONE', #267, 0.04750000000000064587 ) ;
#312 = SURFACE_SIDE_STYLE ('',( #126 ) ) ;
#313 = SHAPE_DEFINITION_REPRESENTATION ( #255, #348 ) ;
#314 = ORIENTED_EDGE ( 'NONE', *, *, #103, .F. ) ;
#315 = EDGE_CURVE ( 'NONE', #94, #282, #13, .T. ) ;
#316 = VECTOR ( 'NONE', #321, 39.37007874015747433 ) ;
#317 = PRODUCT_DEFINITION_FORMATION_WITH_SPECIFIED_SOURCE ( 'ANY', '', #12, .NOT_KNOWN. ) ;
#318 = CYLINDRICAL_SURFACE ( 'NONE', #59, 0.06250000000000002776 ) ;
#319 = CARTESIAN_POINT ( 'NONE',  ( 0.0000000000000000000, 0.0000000000000000000, 0.0000000000000000000 ) ) ;
#320 = ORIENTED_EDGE ( 'NONE', *, *, #349, .T. ) ;
#321 = DIRECTION ( 'NONE',  ( -0.1736481776669311916, 2.126576849575783316E-17, 0.9848077530122080203 ) ) ;
#322 = AXIS2_PLACEMENT_3D ( 'NONE', #333, #9, #93 ) ;
#323 = DIRECTION ( 'NONE',  ( 0.0000000000000000000, 0.0000000000000000000, 1.000000000000000000 ) ) ;
#324 = CARTESIAN_POINT ( 'NONE',  ( 0.02621875000000000941, 0.0000000000000000000, 0.0000000000000000000 ) ) ;
#325 = FACE_OUTER_BOUND ( 'NONE', #236, .T. ) ;
#326 = AXIS2_PLACEMENT_3D ( 'NONE', #7, #36, #307 ) ;
#327 = CARTESIAN_POINT ( 'NONE',  ( -0.02621875000000000941, 3.210870826514467669E-18, 0.005000000000000000104 ) ) ;
#328 = CARTESIAN_POINT ( 'NONE',  ( -0.03121875000000000691, 0.0000000000000000000, 0.005000000000000000971 ) ) ;
#329 = ORIENTED_EDGE ( 'NONE', *, *, #127, .F. ) ;
#330 = EDGE_CURVE ( 'NONE', #337, #102, #274, .T. ) ;
#331 = FACE_OUTER_BOUND ( 'NONE', #206, .T. ) ;
#332 = EDGE_LOOP ( 'NONE', ( #344, #347, #239, #262 ) ) ;
#333 = CARTESIAN_POINT ( 'NONE',  ( 6.123233995736768848E-19, 0.0000000000000000000, 0.005000000000000000104 ) ) ;
#334 = ORIENTED_EDGE ( 'NONE', *, *, #315, .F. ) ;
#335 = LINE ( 'NONE', #118, #44 ) ;
#336 = DIRECTION ( 'NONE',  ( 1.000000000000000000, 0.0000000000000000000, 0.0000000000000000000 ) ) ;
#337 = VERTEX_POINT ( 'NONE', #261 ) ;
#338 = EDGE_CURVE ( 'NONE', #288, #268, #61, .T. ) ;
#339 = AXIS2_PLACEMENT_3D ( 'NONE', #83, #110, #198 ) ;
#340 = ORIENTED_EDGE ( 'NONE', *, *, #106, .F. ) ;
#341 = FILL_AREA_STYLE_COLOUR ( '', #96 ) ;
#342 = LENGTH_MEASURE_WITH_UNIT ( LENGTH_MEASURE( 0.02539999999999999897 ), #16 );
#343 = EDGE_CURVE ( 'NONE', #102, #337, #215, .T. ) ;
#344 = ORIENTED_EDGE ( 'NONE', *, *, #260, .F. ) ;
#345 = ORIENTED_EDGE ( 'NONE', *, *, #113, .F. ) ;
#346 = CIRCLE ( 'NONE', #285, 0.06250000000000002776 ) ;
#347 = ORIENTED_EDGE ( 'NONE', *, *, #117, .F. ) ;
#348 = ADVANCED_BREP_SHAPE_REPRESENTATION ( 'Micro_GEC-062-3-005X', ( #21, #193 ), #121 ) ;
#349 = EDGE_CURVE ( 'NONE', #119, #268, #209, .T. ) ;
#350 = LINE ( 'NONE', #49, #190 ) ;
#351 = DIRECTION ( 'NONE',  ( 1.000000000000000000, 0.0000000000000000000, -0.0000000000000000000 ) ) ;
ENDSEC;
END-ISO-10303-21;
