ISO-10303-21;
HEADER;
FILE_DESCRIPTION (( 'STEP AP214' ),
    '1' );
FILE_NAME ('00495.STEP',
    '2023-06-22T14:09:34',
    ( '' ),
    ( '' ),
    'SwSTEP 2.0',
    'SolidWorks 2023',
    '' );
FILE_SCHEMA (( 'AUTOMOTIVE_DESIGN' ));
ENDSEC;

DATA;
#1 = AXIS2_PLACEMENT_3D ( 'NONE', #220, #149, #268 ) ;
#2 = CARTESIAN_POINT ( 'NONE',  ( -1.224646799147352714E-16, 4.000000000000000000, 0.000000000000000000 ) ) ;
#3 = SURFACE_STYLE_FILL_AREA ( #294 ) ;
#4 = ORIENTED_EDGE ( 'NONE', *, *, #41, .T. ) ;
#5 = PRESENTATION_LAYER_ASSIGNMENT (  '', '', ( #279 ) ) ;
#6 = EDGE_LOOP ( 'NONE', ( #79, #232, #175, #52 ) ) ;
#7 = VERTEX_POINT ( 'NONE', #197 ) ;
#8 = EDGE_CURVE ( 'NONE', #222, #99, #273, .T. ) ;
#9 = PRESENTATION_STYLE_ASSIGNMENT (( #65 ) ) ;
#10 = EDGE_LOOP ( 'NONE', ( #56, #93, #168, #295 ) ) ;
#11 = DIRECTION ( 'NONE',  ( -0.000000000000000000, -1.000000000000000000, -0.000000000000000000 ) ) ;
#12 = CLOSED_SHELL ( 'NONE', ( #154, #44, #84, #305 ) ) ;
#13 = SURFACE_STYLE_USAGE ( .BOTH. , #179 ) ;
#14 = PRESENTATION_LAYER_ASSIGNMENT (  '', '', ( #74 ) ) ;
#15 =( CONVERSION_BASED_UNIT ( 'INCH', #60 ) LENGTH_UNIT ( ) NAMED_UNIT ( #57 ) );
#16 = DIRECTION ( 'NONE',  ( 0.000000000000000000, 0.000000000000000000, -1.000000000000000000 ) ) ;
#17 =( GEOMETRIC_REPRESENTATION_CONTEXT ( 3 ) GLOBAL_UNCERTAINTY_ASSIGNED_CONTEXT ( ( #286 ) ) GLOBAL_UNIT_ASSIGNED_CONTEXT ( ( #254, #119, #27 ) ) REPRESENTATION_CONTEXT ( 'NONE', 'WORKASPACE' ) );
#18 = CARTESIAN_POINT ( 'NONE',  ( 0.000000000000000000, 0.000000000000000000, 0.000000000000000000 ) ) ;
#19 =( CONVERSION_BASED_UNIT ( 'INCH', #237 ) LENGTH_UNIT ( ) NAMED_UNIT ( #208 ) );
#20 = PRESENTATION_LAYER_ASSIGNMENT (  '', '', ( #128 ) ) ;
#21 = PRODUCT_DEFINITION_CONTEXT ( 'detailed design', #282, 'design' ) ;
#22 = PRODUCT ( '00495', '00495', '', ( #283 ) ) ;
#23 = CIRCLE ( 'NONE', #234, 0.2500000000000000000 ) ;
#24 = EDGE_LOOP ( 'NONE', ( #199, #77 ) ) ;
#25 = CYLINDRICAL_SURFACE ( 'NONE', #81, 0.2500000000000000555 ) ;
#26 = CARTESIAN_POINT ( 'NONE',  ( -0.2500000000000002776, 4.000000000000000000, 0.000000000000000000 ) ) ;
#27 =( NAMED_UNIT ( * ) SI_UNIT ( $, .STERADIAN. ) SOLID_ANGLE_UNIT ( ) );
#28 = ORIENTED_EDGE ( 'NONE', *, *, #263, .T. ) ;
#29 = FILL_AREA_STYLE_COLOUR ( '', #227 ) ;
#30 = MECHANICAL_DESIGN_GEOMETRIC_PRESENTATION_REPRESENTATION (  '', ( #266 ), #17 ) ;
#31 = VERTEX_POINT ( 'NONE', #26 ) ;
#32 = CARTESIAN_POINT ( 'NONE',  ( 0.000000000000000000, 0.000000000000000000, 0.000000000000000000 ) ) ;
#33 = FACE_OUTER_BOUND ( 'NONE', #297, .T. ) ;
#34 = SURFACE_SIDE_STYLE ('',( #281 ) ) ;
#35 =( NAMED_UNIT ( * ) SI_UNIT ( $, .STERADIAN. ) SOLID_ANGLE_UNIT ( ) );
#36 = DIRECTION ( 'NONE',  ( -6.123233995736763571E-17, 1.000000000000000000, -0.000000000000000000 ) ) ;
#37 = FACE_OUTER_BOUND ( 'NONE', #6, .T. ) ;
#38 = CARTESIAN_POINT ( 'NONE',  ( 3.061616997868383018E-17, 0.000000000000000000, 0.2500000000000000000 ) ) ;
#39 = AXIS2_PLACEMENT_3D ( 'NONE', #131, #166, #148 ) ;
#40 = COLOUR_RGB ( '',0.7921568627450980005, 0.8196078431372548767, 0.9333333333333333481 ) ;
#41 = EDGE_CURVE ( 'NONE', #251, #31, #156, .T. ) ;
#42 = DIRECTION ( 'NONE',  ( 6.123233995736763571E-17, -1.000000000000000000, 0.000000000000000000 ) ) ;
#43 =( NAMED_UNIT ( * ) PLANE_ANGLE_UNIT ( ) SI_UNIT ( $, .RADIAN. ) );
#44 = ADVANCED_FACE ( 'NONE', ( #292 ), #129, .F. ) ;
#45 =( NAMED_UNIT ( * ) PLANE_ANGLE_UNIT ( ) SI_UNIT ( $, .RADIAN. ) );
#46 = DIRECTION ( 'NONE',  ( -6.123233995736763571E-17, 1.000000000000000000, -0.000000000000000000 ) ) ;
#47 = UNCERTAINTY_MEASURE_WITH_UNIT (LENGTH_MEASURE( 1.000000000000000082E-05 ), #278, 'distance_accuracy_value', 'NONE');
#48 = STYLED_ITEM ( 'NONE', ( #181 ), #103 ) ;
#49 =( GEOMETRIC_REPRESENTATION_CONTEXT ( 3 ) GLOBAL_UNCERTAINTY_ASSIGNED_CONTEXT ( ( #309 ) ) GLOBAL_UNIT_ASSIGNED_CONTEXT ( ( #15, #261, #35 ) ) REPRESENTATION_CONTEXT ( 'NONE', 'WORKASPACE' ) );
#50 = EDGE_LOOP ( 'NONE', ( #73, #146 ) ) ;
#51 = PRESENTATION_STYLE_ASSIGNMENT (( #296 ) ) ;
#52 = ORIENTED_EDGE ( 'NONE', *, *, #116, .F. ) ;
#53 =( NAMED_UNIT ( * ) SI_UNIT ( $, .STERADIAN. ) SOLID_ANGLE_UNIT ( ) );
#54 = VERTEX_POINT ( 'NONE', #255 ) ;
#55 = PRESENTATION_LAYER_ASSIGNMENT (  '', '', ( #291 ) ) ;
#56 = ORIENTED_EDGE ( 'NONE', *, *, #89, .T. ) ;
#57 = DIMENSIONAL_EXPONENTS ( 1.000000000000000000, 0.000000000000000000, 0.000000000000000000, 0.000000000000000000, 0.000000000000000000, 0.000000000000000000, 0.000000000000000000 ) ;
#58 = FILL_AREA_STYLE ('',( #180 ) ) ;
#59 = SURFACE_SIDE_STYLE ('',( #275 ) ) ;
#60 = LENGTH_MEASURE_WITH_UNIT ( LENGTH_MEASURE( 0.02539999999999999897 ), #256 );
#61 = CARTESIAN_POINT ( 'NONE',  ( -1.224646799147352714E-16, 4.000000000000000000, 0.000000000000000000 ) ) ;
#62 = CARTESIAN_POINT ( 'NONE',  ( 0.2500000000000000555, 4.000000000000000000, 3.061616997868384251E-17 ) ) ;
#63 = AXIS2_PLACEMENT_3D ( 'NONE', #32, #142, #204 ) ;
#64 = DIMENSIONAL_EXPONENTS ( 1.000000000000000000, 0.000000000000000000, 0.000000000000000000, 0.000000000000000000, 0.000000000000000000, 0.000000000000000000, 0.000000000000000000 ) ;
#65 = SURFACE_STYLE_USAGE ( .BOTH. , #260 ) ;
#66 =( CONVERSION_BASED_UNIT ( 'INCH', #107 ) LENGTH_UNIT ( ) NAMED_UNIT ( #182 ) );
#67 = SHAPE_DEFINITION_REPRESENTATION ( #158, #216 ) ;
#68 = MECHANICAL_DESIGN_GEOMETRIC_PRESENTATION_REPRESENTATION (  '', ( #128 ), #106 ) ;
#69 = MECHANICAL_DESIGN_GEOMETRIC_PRESENTATION_REPRESENTATION (  '', ( #279 ), #207 ) ;
#70 =( GEOMETRIC_REPRESENTATION_CONTEXT ( 3 ) GLOBAL_UNCERTAINTY_ASSIGNED_CONTEXT ( ( #190 ) ) GLOBAL_UNIT_ASSIGNED_CONTEXT ( ( #19, #303, #217 ) ) REPRESENTATION_CONTEXT ( 'NONE', 'WORKASPACE' ) );
#71 = FACE_OUTER_BOUND ( 'NONE', #10, .T. ) ;
#72 = DIRECTION ( 'NONE',  ( -6.123233995736763571E-17, 1.000000000000000000, 0.000000000000000000 ) ) ;
#73 = ORIENTED_EDGE ( 'NONE', *, *, #307, .T. ) ;
#74 = STYLED_ITEM ( 'NONE', ( #9 ), #258 ) ;
#75 = CARTESIAN_POINT ( 'NONE',  ( 4.686749320818301603E-34, 2.000000000000000000, 0.000000000000000000 ) ) ;
#76 = CARTESIAN_POINT ( 'NONE',  ( 3.061616997868383018E-17, 0.000000000000000000, 0.2500000000000000000 ) ) ;
#77 = ORIENTED_EDGE ( 'NONE', *, *, #195, .F. ) ;
#78 =( LENGTH_UNIT ( ) NAMED_UNIT ( * ) SI_UNIT ( $, .METRE. ) );
#79 = ORIENTED_EDGE ( 'NONE', *, *, #252, .F. ) ;
#80 = DIRECTION ( 'NONE',  ( -0.000000000000000000, -1.000000000000000000, -0.000000000000000000 ) ) ;
#81 = AXIS2_PLACEMENT_3D ( 'NONE', #2, #165, #264 ) ;
#82 = FILL_AREA_STYLE ('',( #299 ) ) ;
#83 = FACE_OUTER_BOUND ( 'NONE', #50, .T. ) ;
#84 = ADVANCED_FACE ( 'NONE', ( #33 ), #170, .T. ) ;
#85 = DIRECTION ( 'NONE',  ( -0.000000000000000000, -1.000000000000000000, -0.000000000000000000 ) ) ;
#86 = PLANE ( 'NONE',  #218 ) ;
#87 = UNCERTAINTY_MEASURE_WITH_UNIT (LENGTH_MEASURE( 1.000000000000000082E-05 ), #66, 'distance_accuracy_value', 'NONE');
#88 = FILL_AREA_STYLE ('',( #236 ) ) ;
#89 = EDGE_CURVE ( 'NONE', #7, #201, #221, .T. ) ;
#90 = SURFACE_STYLE_FILL_AREA ( #114 ) ;
#91 = APPLICATION_PROTOCOL_DEFINITION ( 'draft international standard', 'automotive_design', 1998, #183 ) ;
#92 =( LENGTH_UNIT ( ) NAMED_UNIT ( * ) SI_UNIT ( $, .METRE. ) );
#93 = ORIENTED_EDGE ( 'NONE', *, *, #159, .T. ) ;
#94 = AXIS2_PLACEMENT_3D ( 'NONE', #202, #85, #16 ) ;
#95 = LENGTH_MEASURE_WITH_UNIT ( LENGTH_MEASURE( 0.02539999999999999897 ), #163 );
#96 = COLOUR_RGB ( '',1.000000000000000000, 0.000000000000000000, 0.000000000000000000 ) ;
#97 = DIRECTION ( 'NONE',  ( -0.000000000000000000, -1.000000000000000000, -0.000000000000000000 ) ) ;
#98 = SURFACE_SIDE_STYLE ('',( #3 ) ) ;
#99 = VERTEX_POINT ( 'NONE', #127 ) ;
#100 = VECTOR ( 'NONE', #132, 39.37007874015748143 ) ;
#101 = FILL_AREA_STYLE_COLOUR ( '', #40 ) ;
#102 = CYLINDRICAL_SURFACE ( 'NONE', #121, 0.2500000000000000000 ) ;
#103 = ADVANCED_FACE ( 'NONE', ( #226 ), #102, .T. ) ;
#104 = EDGE_LOOP ( 'NONE', ( #271, #105, #288, #172 ) ) ;
#105 = ORIENTED_EDGE ( 'NONE', *, *, #252, .T. ) ;
#106 =( GEOMETRIC_REPRESENTATION_CONTEXT ( 3 ) GLOBAL_UNCERTAINTY_ASSIGNED_CONTEXT ( ( #87 ) ) GLOBAL_UNIT_ASSIGNED_CONTEXT ( ( #66, #306, #231 ) ) REPRESENTATION_CONTEXT ( 'NONE', 'WORKASPACE' ) );
#107 = LENGTH_MEASURE_WITH_UNIT ( LENGTH_MEASURE( 0.02539999999999999897 ), #130 );
#108 = SURFACE_STYLE_USAGE ( .BOTH. , #59 ) ;
#109 = PRESENTATION_STYLE_ASSIGNMENT (( #108 ) ) ;
#110 = CARTESIAN_POINT ( 'NONE',  ( 0.000000000000000000, 0.000000000000000000, 0.000000000000000000 ) ) ;
#111 = DIRECTION ( 'NONE',  ( -0.000000000000000000, -1.000000000000000000, -0.000000000000000000 ) ) ;
#112 = CYLINDRICAL_SURFACE ( 'NONE', #63, 0.2500000000000000000 ) ;
#113 = CARTESIAN_POINT ( 'NONE',  ( 0.000000000000000000, 2.000000000000000000, 0.000000000000000000 ) ) ;
#114 = FILL_AREA_STYLE ('',( #160 ) ) ;
#115 = DIRECTION ( 'NONE',  ( 0.000000000000000000, 0.000000000000000000, -1.000000000000000000 ) ) ;
#116 = EDGE_CURVE ( 'NONE', #267, #99, #157, .T. ) ;
#117 = AXIS2_PLACEMENT_3D ( 'NONE', #61, #36, #173 ) ;
#118 = UNCERTAINTY_MEASURE_WITH_UNIT (LENGTH_MEASURE( 1.000000000000000082E-05 ), #122, 'distance_accuracy_value', 'NONE');
#119 =( NAMED_UNIT ( * ) PLANE_ANGLE_UNIT ( ) SI_UNIT ( $, .RADIAN. ) );
#120 = AXIS2_PLACEMENT_3D ( 'NONE', #125, #203, #224 ) ;
#121 = AXIS2_PLACEMENT_3D ( 'NONE', #198, #290, #169 ) ;
#122 =( CONVERSION_BASED_UNIT ( 'INCH', #287 ) LENGTH_UNIT ( ) NAMED_UNIT ( #134 ) );
#123 = ORIENTED_EDGE ( 'NONE', *, *, #219, .F. ) ;
#124 = CARTESIAN_POINT ( 'NONE',  ( 1.516480271171051896E-32, 2.000000000000000000, 0.000000000000000000 ) ) ;
#125 = CARTESIAN_POINT ( 'NONE',  ( -1.224646799147352714E-16, 4.000000000000000000, 0.000000000000000000 ) ) ;
#126 = CARTESIAN_POINT ( 'NONE',  ( 0.2499999999999999167, 4.000000000000000000, 3.061616997868383634E-17 ) ) ;
#127 = CARTESIAN_POINT ( 'NONE',  ( 0.000000000000000000, 0.000000000000000000, -0.2500000000000000000 ) ) ;
#128 = STYLED_ITEM ( 'NONE', ( #178 ), #243 ) ;
#129 = PLANE ( 'NONE',  #176 ) ;
#130 =( LENGTH_UNIT ( ) NAMED_UNIT ( * ) SI_UNIT ( $, .METRE. ) );
#131 = CARTESIAN_POINT ( 'NONE',  ( -1.224646799147352714E-16, 4.000000000000000000, 0.000000000000000000 ) ) ;
#132 = DIRECTION ( 'NONE',  ( -6.123233995736763571E-17, 1.000000000000000000, -0.000000000000000000 ) ) ;
#133 = DIRECTION ( 'NONE',  ( 1.000000000000000000, 6.123233995736763571E-17, 0.000000000000000000 ) ) ;
#134 = DIMENSIONAL_EXPONENTS ( 1.000000000000000000, 0.000000000000000000, 0.000000000000000000, 0.000000000000000000, 0.000000000000000000, 0.000000000000000000, 0.000000000000000000 ) ;
#135 = CARTESIAN_POINT ( 'NONE',  ( 0.000000000000000000, 2.000000000000000000, 0.000000000000000000 ) ) ;
#136 = DIRECTION ( 'NONE',  ( 1.000000000000000000, 0.000000000000000000, 0.000000000000000000 ) ) ;
#137 = DIRECTION ( 'NONE',  ( 0.000000000000000000, 1.000000000000000000, 0.000000000000000000 ) ) ;
#138 = PRESENTATION_LAYER_ASSIGNMENT (  '', '', ( #48 ) ) ;
#139 =( NAMED_UNIT ( * ) SI_UNIT ( $, .STERADIAN. ) SOLID_ANGLE_UNIT ( ) );
#140 = CARTESIAN_POINT ( 'NONE',  ( 0.2500000000000000000, 4.000000000000000000, 0.000000000000000000 ) ) ;
#141 = MECHANICAL_DESIGN_GEOMETRIC_PRESENTATION_REPRESENTATION (  '', ( #291 ), #177 ) ;
#142 = DIRECTION ( 'NONE',  ( -0.000000000000000000, -1.000000000000000000, -0.000000000000000000 ) ) ;
#143 = LINE ( 'NONE', #126, #300 ) ;
#144 = EDGE_LOOP ( 'NONE', ( #150, #4 ) ) ;
#145 = VECTOR ( 'NONE', #11, 39.37007874015748143 ) ;
#146 = ORIENTED_EDGE ( 'NONE', *, *, #116, .T. ) ;
#147 = SURFACE_STYLE_FILL_AREA ( #167 ) ;
#148 = DIRECTION ( 'NONE',  ( -1.000000000000000000, 0.000000000000000000, 0.000000000000000000 ) ) ;
#149 = DIRECTION ( 'NONE',  ( -0.000000000000000000, -1.000000000000000000, -0.000000000000000000 ) ) ;
#150 = ORIENTED_EDGE ( 'NONE', *, *, #262, .T. ) ;
#151 = MANIFOLD_SOLID_BREP ( 'Revolve - Tool Body (Straight Shanked)', #12 ) ;
#152 = MANIFOLD_SOLID_BREP ( 'Revolve - Cutting Edge', #210 ) ;
#153 = DIRECTION ( 'NONE',  ( -1.000000000000000000, -6.123233995736763571E-17, 0.000000000000000000 ) ) ;
#154 = ADVANCED_FACE ( 'NONE', ( #71 ), #25, .T. ) ;
#155 = SURFACE_STYLE_USAGE ( .BOTH. , #34 ) ;
#156 = CIRCLE ( 'NONE', #120, 0.2500000000000001110 ) ;
#157 = CIRCLE ( 'NONE', #1, 0.2500000000000000000 ) ;
#158 = PRODUCT_DEFINITION_SHAPE ( 'NONE', 'NONE',  #298 ) ;
#159 = EDGE_CURVE ( 'NONE', #201, #251, #143, .T. ) ;
#160 = FILL_AREA_STYLE_COLOUR ( '', #188 ) ;
#161 = DIRECTION ( 'NONE',  ( 0.000000000000000000, 0.000000000000000000, 1.000000000000000000 ) ) ;
#162 = DIRECTION ( 'NONE',  ( 0.000000000000000000, 0.000000000000000000, -1.000000000000000000 ) ) ;
#163 =( LENGTH_UNIT ( ) NAMED_UNIT ( * ) SI_UNIT ( $, .METRE. ) );
#164 = AXIS2_PLACEMENT_3D ( 'NONE', #135, #80, #212 ) ;
#165 = DIRECTION ( 'NONE',  ( -6.123233995736763571E-17, 1.000000000000000000, -0.000000000000000000 ) ) ;
#166 = DIRECTION ( 'NONE',  ( -6.123233995736763571E-17, 1.000000000000000000, -0.000000000000000000 ) ) ;
#167 = FILL_AREA_STYLE ('',( #101 ) ) ;
#168 = ORIENTED_EDGE ( 'NONE', *, *, #262, .F. ) ;
#169 = DIRECTION ( 'NONE',  ( 0.000000000000000000, 0.000000000000000000, -1.000000000000000000 ) ) ;
#170 = CYLINDRICAL_SURFACE ( 'NONE', #39, 0.2500000000000000555 ) ;
#171 = LENGTH_MEASURE_WITH_UNIT ( LENGTH_MEASURE( 0.02539999999999999897 ), #225 );
#172 = ORIENTED_EDGE ( 'NONE', *, *, #8, .F. ) ;
#173 = DIRECTION ( 'NONE',  ( -1.000000000000000000, 0.000000000000000000, 0.000000000000000000 ) ) ;
#174 =( NAMED_UNIT ( * ) PLANE_ANGLE_UNIT ( ) SI_UNIT ( $, .RADIAN. ) );
#175 = ORIENTED_EDGE ( 'NONE', *, *, #8, .T. ) ;
#176 = AXIS2_PLACEMENT_3D ( 'NONE', #75, #72, #153 ) ;
#177 =( GEOMETRIC_REPRESENTATION_CONTEXT ( 3 ) GLOBAL_UNCERTAINTY_ASSIGNED_CONTEXT ( ( #118 ) ) GLOBAL_UNIT_ASSIGNED_CONTEXT ( ( #122, #174, #53 ) ) REPRESENTATION_CONTEXT ( 'NONE', 'WORKASPACE' ) );
#178 = PRESENTATION_STYLE_ASSIGNMENT (( #155 ) ) ;
#179 = SURFACE_SIDE_STYLE ('',( #90 ) ) ;
#180 = FILL_AREA_STYLE_COLOUR ( '', #304 ) ;
#181 = PRESENTATION_STYLE_ASSIGNMENT (( #13 ) ) ;
#182 = DIMENSIONAL_EXPONENTS ( 1.000000000000000000, 0.000000000000000000, 0.000000000000000000, 0.000000000000000000, 0.000000000000000000, 0.000000000000000000, 0.000000000000000000 ) ;
#183 = APPLICATION_CONTEXT ( 'automotive_design' ) ;
#184 = LENGTH_MEASURE_WITH_UNIT ( LENGTH_MEASURE( 0.02539999999999999897 ), #277 );
#185 = UNCERTAINTY_MEASURE_WITH_UNIT (LENGTH_MEASURE( 1.000000000000000082E-05 ), #242, 'distance_accuracy_value', 'NONE');
#186 = DIRECTION ( 'NONE',  ( 0.000000000000000000, -1.000000000000000000, -0.000000000000000000 ) ) ;
#187 = CARTESIAN_POINT ( 'NONE',  ( 0.000000000000000000, 0.000000000000000000, 0.000000000000000000 ) ) ;
#188 = COLOUR_RGB ( '',1.000000000000000000, 0.000000000000000000, 0.000000000000000000 ) ;
#189 = ORIENTED_EDGE ( 'NONE', *, *, #41, .F. ) ;
#190 = UNCERTAINTY_MEASURE_WITH_UNIT (LENGTH_MEASURE( 1.000000000000000082E-05 ), #19, 'distance_accuracy_value', 'NONE');
#191 = CIRCLE ( 'NONE', #164, 0.2500000000000000000 ) ;
#192 = AXIS2_PLACEMENT_3D ( 'NONE', #140, #42, #133 ) ;
#193 = DIRECTION ( 'NONE',  ( -6.123233995736763571E-17, 1.000000000000000000, -0.000000000000000000 ) ) ;
#194 = CARTESIAN_POINT ( 'NONE',  ( 0.000000000000000000, 0.000000000000000000, -0.2500000000000000000 ) ) ;
#195 = EDGE_CURVE ( 'NONE', #201, #7, #245, .T. ) ;
#196 = DIRECTION ( 'NONE',  ( -6.123233995736763571E-17, 1.000000000000000000, -0.000000000000000000 ) ) ;
#197 = CARTESIAN_POINT ( 'NONE',  ( -0.2500000000000000000, 2.000000000000000000, 0.000000000000000000 ) ) ;
#198 = CARTESIAN_POINT ( 'NONE',  ( 0.000000000000000000, 0.000000000000000000, 0.000000000000000000 ) ) ;
#199 = ORIENTED_EDGE ( 'NONE', *, *, #89, .F. ) ;
#200 = EDGE_CURVE ( 'NONE', #54, #222, #253, .T. ) ;
#201 = VERTEX_POINT ( 'NONE', #302 ) ;
#202 = CARTESIAN_POINT ( 'NONE',  ( 0.000000000000000000, 2.000000000000000000, 0.000000000000000000 ) ) ;
#203 = DIRECTION ( 'NONE',  ( -6.123233995736763571E-17, 1.000000000000000000, -0.000000000000000000 ) ) ;
#204 = DIRECTION ( 'NONE',  ( 0.000000000000000000, 0.000000000000000000, -1.000000000000000000 ) ) ;
#205 = AXIS2_PLACEMENT_3D ( 'NONE', #249, #46, #246 ) ;
#206 = AXIS2_PLACEMENT_3D ( 'NONE', #124, #196, #223 ) ;
#207 =( GEOMETRIC_REPRESENTATION_CONTEXT ( 3 ) GLOBAL_UNCERTAINTY_ASSIGNED_CONTEXT ( ( #47 ) ) GLOBAL_UNIT_ASSIGNED_CONTEXT ( ( #278, #43, #139 ) ) REPRESENTATION_CONTEXT ( 'NONE', 'WORKASPACE' ) );
#208 = DIMENSIONAL_EXPONENTS ( 1.000000000000000000, 0.000000000000000000, 0.000000000000000000, 0.000000000000000000, 0.000000000000000000, 0.000000000000000000, 0.000000000000000000 ) ;
#209 = APPLICATION_PROTOCOL_DEFINITION ( 'draft international standard', 'automotive_design', 1998, #282 ) ;
#210 = CLOSED_SHELL ( 'NONE', ( #103, #293, #258, #243 ) ) ;
#211 = COLOUR_RGB ( '',1.000000000000000000, 0.000000000000000000, 0.000000000000000000 ) ;
#212 = DIRECTION ( 'NONE',  ( 0.000000000000000000, 0.000000000000000000, -1.000000000000000000 ) ) ;
#213 = AXIS2_PLACEMENT_3D ( 'NONE', #187, #161, #136 ) ;
#214 = FACE_OUTER_BOUND ( 'NONE', #144, .T. ) ;
#215 =( NAMED_UNIT ( * ) SI_UNIT ( $, .STERADIAN. ) SOLID_ANGLE_UNIT ( ) );
#216 = ADVANCED_BREP_SHAPE_REPRESENTATION ( '00495', ( #152, #151, #213 ), #70 ) ;
#217 =( NAMED_UNIT ( * ) SI_UNIT ( $, .STERADIAN. ) SOLID_ANGLE_UNIT ( ) );
#218 = AXIS2_PLACEMENT_3D ( 'NONE', #110, #186, #162 ) ;
#219 = EDGE_CURVE ( 'NONE', #222, #54, #191, .T. ) ;
#220 = CARTESIAN_POINT ( 'NONE',  ( 0.000000000000000000, 0.000000000000000000, 0.000000000000000000 ) ) ;
#221 = CIRCLE ( 'NONE', #205, 0.2500000000000000000 ) ;
#222 = VERTEX_POINT ( 'NONE', #235 ) ;
#223 = DIRECTION ( 'NONE',  ( -1.000000000000000000, 0.000000000000000000, 0.000000000000000000 ) ) ;
#224 = DIRECTION ( 'NONE',  ( -1.000000000000000000, 0.000000000000000000, 0.000000000000000000 ) ) ;
#225 =( LENGTH_UNIT ( ) NAMED_UNIT ( * ) SI_UNIT ( $, .METRE. ) );
#226 = FACE_OUTER_BOUND ( 'NONE', #104, .T. ) ;
#227 = COLOUR_RGB ( '',0.7921568627450980005, 0.8196078431372548767, 0.9333333333333333481 ) ;
#228 = PRODUCT_RELATED_PRODUCT_CATEGORY ( 'part', '', ( #22 ) ) ;
#229 = ORIENTED_EDGE ( 'NONE', *, *, #200, .F. ) ;
#230 = CARTESIAN_POINT ( 'NONE',  ( -0.2500000000000002220, 4.000000000000000000, 0.000000000000000000 ) ) ;
#231 =( NAMED_UNIT ( * ) SI_UNIT ( $, .STERADIAN. ) SOLID_ANGLE_UNIT ( ) );
#232 = ORIENTED_EDGE ( 'NONE', *, *, #200, .T. ) ;
#233 = LINE ( 'NONE', #38, #145 ) ;
#234 = AXIS2_PLACEMENT_3D ( 'NONE', #18, #111, #115 ) ;
#235 = CARTESIAN_POINT ( 'NONE',  ( 0.000000000000000000, 2.000000000000000000, -0.2500000000000000000 ) ) ;
#236 = FILL_AREA_STYLE_COLOUR ( '', #96 ) ;
#237 = LENGTH_MEASURE_WITH_UNIT ( LENGTH_MEASURE( 0.02539999999999999897 ), #92 );
#238 = SURFACE_STYLE_FILL_AREA ( #58 ) ;
#239 = PRESENTATION_LAYER_ASSIGNMENT (  '', '', ( #266 ) ) ;
#240 = PLANE ( 'NONE',  #192 ) ;
#241 = CIRCLE ( 'NONE', #117, 0.2500000000000001110 ) ;
#242 =( CONVERSION_BASED_UNIT ( 'INCH', #95 ) LENGTH_UNIT ( ) NAMED_UNIT ( #280 ) );
#243 = ADVANCED_FACE ( 'NONE', ( #83 ), #86, .T. ) ;
#244 = SURFACE_STYLE_USAGE ( .BOTH. , #250 ) ;
#245 = CIRCLE ( 'NONE', #206, 0.2500000000000000000 ) ;
#246 = DIRECTION ( 'NONE',  ( -1.000000000000000000, 0.000000000000000000, 0.000000000000000000 ) ) ;
#247 = PRESENTATION_STYLE_ASSIGNMENT (( #244 ) ) ;
#248 = EDGE_LOOP ( 'NONE', ( #123, #229 ) ) ;
#249 = CARTESIAN_POINT ( 'NONE',  ( 1.516480271171051896E-32, 2.000000000000000000, 0.000000000000000000 ) ) ;
#250 = SURFACE_SIDE_STYLE ('',( #147 ) ) ;
#251 = VERTEX_POINT ( 'NONE', #62 ) ;
#252 = EDGE_CURVE ( 'NONE', #54, #267, #233, .T. ) ;
#253 = CIRCLE ( 'NONE', #94, 0.2500000000000000000 ) ;
#254 =( CONVERSION_BASED_UNIT ( 'INCH', #171 ) LENGTH_UNIT ( ) NAMED_UNIT ( #276 ) );
#255 = CARTESIAN_POINT ( 'NONE',  ( 3.061616997868383018E-17, 2.000000000000000000, 0.2500000000000000000 ) ) ;
#256 =( LENGTH_UNIT ( ) NAMED_UNIT ( * ) SI_UNIT ( $, .METRE. ) );
#257 = LINE ( 'NONE', #230, #100 ) ;
#258 = ADVANCED_FACE ( 'NONE', ( #37 ), #112, .T. ) ;
#259 = MECHANICAL_DESIGN_GEOMETRIC_PRESENTATION_REPRESENTATION (  '', ( #74 ), #49 ) ;
#260 = SURFACE_SIDE_STYLE ('',( #238 ) ) ;
#261 =( NAMED_UNIT ( * ) PLANE_ANGLE_UNIT ( ) SI_UNIT ( $, .RADIAN. ) );
#262 = EDGE_CURVE ( 'NONE', #31, #251, #241, .T. ) ;
#263 = EDGE_CURVE ( 'NONE', #7, #31, #257, .T. ) ;
#264 = DIRECTION ( 'NONE',  ( -1.000000000000000000, 0.000000000000000000, 0.000000000000000000 ) ) ;
#265 = ORIENTED_EDGE ( 'NONE', *, *, #195, .T. ) ;
#266 = STYLED_ITEM ( 'NONE', ( #247 ), #152 ) ;
#267 = VERTEX_POINT ( 'NONE', #76 ) ;
#268 = DIRECTION ( 'NONE',  ( 0.000000000000000000, 0.000000000000000000, -1.000000000000000000 ) ) ;
#269 = ORIENTED_EDGE ( 'NONE', *, *, #159, .F. ) ;
#270 = FACE_OUTER_BOUND ( 'NONE', #248, .T. ) ;
#271 = ORIENTED_EDGE ( 'NONE', *, *, #219, .T. ) ;
#272 = PLANE ( 'NONE',  #301 ) ;
#273 = LINE ( 'NONE', #194, #289 ) ;
#274 = PRODUCT_DEFINITION_FORMATION_WITH_SPECIFIED_SOURCE ( 'ANY', '', #22, .NOT_KNOWN. ) ;
#275 = SURFACE_STYLE_FILL_AREA ( #82 ) ;
#276 = DIMENSIONAL_EXPONENTS ( 1.000000000000000000, 0.000000000000000000, 0.000000000000000000, 0.000000000000000000, 0.000000000000000000, 0.000000000000000000, 0.000000000000000000 ) ;
#277 =( LENGTH_UNIT ( ) NAMED_UNIT ( * ) SI_UNIT ( $, .METRE. ) );
#278 =( CONVERSION_BASED_UNIT ( 'INCH', #184 ) LENGTH_UNIT ( ) NAMED_UNIT ( #64 ) );
#279 = STYLED_ITEM ( 'NONE', ( #109 ), #293 ) ;
#280 = DIMENSIONAL_EXPONENTS ( 1.000000000000000000, 0.000000000000000000, 0.000000000000000000, 0.000000000000000000, 0.000000000000000000, 0.000000000000000000, 0.000000000000000000 ) ;
#281 = SURFACE_STYLE_FILL_AREA ( #88 ) ;
#282 = APPLICATION_CONTEXT ( 'automotive_design' ) ;
#283 = PRODUCT_CONTEXT ( 'NONE', #183, 'mechanical' ) ;
#284 =( GEOMETRIC_REPRESENTATION_CONTEXT ( 3 ) GLOBAL_UNCERTAINTY_ASSIGNED_CONTEXT ( ( #185 ) ) GLOBAL_UNIT_ASSIGNED_CONTEXT ( ( #242, #45, #215 ) ) REPRESENTATION_CONTEXT ( 'NONE', 'WORKASPACE' ) );
#285 = DIRECTION ( 'NONE',  ( 0.000000000000000000, -0.000000000000000000, 1.000000000000000000 ) ) ;
#286 = UNCERTAINTY_MEASURE_WITH_UNIT (LENGTH_MEASURE( 1.000000000000000082E-05 ), #254, 'distance_accuracy_value', 'NONE');
#287 = LENGTH_MEASURE_WITH_UNIT ( LENGTH_MEASURE( 0.02539999999999999897 ), #78 );
#288 = ORIENTED_EDGE ( 'NONE', *, *, #307, .F. ) ;
#289 = VECTOR ( 'NONE', #97, 39.37007874015748143 ) ;
#290 = DIRECTION ( 'NONE',  ( -0.000000000000000000, -1.000000000000000000, -0.000000000000000000 ) ) ;
#291 = STYLED_ITEM ( 'NONE', ( #51 ), #151 ) ;
#292 = FACE_OUTER_BOUND ( 'NONE', #24, .T. ) ;
#293 = ADVANCED_FACE ( 'NONE', ( #270 ), #272, .T. ) ;
#294 = FILL_AREA_STYLE ('',( #29 ) ) ;
#295 = ORIENTED_EDGE ( 'NONE', *, *, #263, .F. ) ;
#296 = SURFACE_STYLE_USAGE ( .BOTH. , #98 ) ;
#297 = EDGE_LOOP ( 'NONE', ( #269, #265, #28, #189 ) ) ;
#298 = PRODUCT_DEFINITION ( 'UNKNOWN', '', #274, #21 ) ;
#299 = FILL_AREA_STYLE_COLOUR ( '', #211 ) ;
#300 = VECTOR ( 'NONE', #193, 39.37007874015748143 ) ;
#301 = AXIS2_PLACEMENT_3D ( 'NONE', #113, #137, #285 ) ;
#302 = CARTESIAN_POINT ( 'NONE',  ( 0.2500000000000000555, 2.000000000000000000, 3.061616997868384251E-17 ) ) ;
#303 =( NAMED_UNIT ( * ) PLANE_ANGLE_UNIT ( ) SI_UNIT ( $, .RADIAN. ) );
#304 = COLOUR_RGB ( '',1.000000000000000000, 0.000000000000000000, 0.000000000000000000 ) ;
#305 = ADVANCED_FACE ( 'NONE', ( #214 ), #240, .F. ) ;
#306 =( NAMED_UNIT ( * ) PLANE_ANGLE_UNIT ( ) SI_UNIT ( $, .RADIAN. ) );
#307 = EDGE_CURVE ( 'NONE', #99, #267, #23, .T. ) ;
#308 = MECHANICAL_DESIGN_GEOMETRIC_PRESENTATION_REPRESENTATION (  '', ( #48 ), #284 ) ;
#309 = UNCERTAINTY_MEASURE_WITH_UNIT (LENGTH_MEASURE( 1.000000000000000082E-05 ), #15, 'distance_accuracy_value', 'NONE');
ENDSEC;
END-ISO-10303-21;
