ISO-10303-21;
HEADER;
FILE_DESCRIPTION (( 'STEP AP214' ),
    '1' );
FILE_NAME ('Micro_GEC-093-3-010X.STEP',
    '2021-09-03T17:05:38',
    ( '' ),
    ( '' ),
    'SwSTEP 2.0',
    'SolidWorks 2020',
    '' );
FILE_SCHEMA (( 'AUTOMOTIVE_DESIGN' ));
ENDSEC;

DATA;
#1 = ORIENTED_EDGE ( 'NONE', *, *, #144, .F. ) ;
#2 = DIRECTION ( 'NONE',  ( 1.000000000000000000, 0.0000000000000000000, 0.0000000000000000000 ) ) ;
#3 = UNCERTAINTY_MEASURE_WITH_UNIT (LENGTH_MEASURE( 1.000000000000000082E-05 ), #222, 'distance_accuracy_value', 'NONE');
#4 = ORIENTED_EDGE ( 'NONE', *, *, #69, .F. ) ;
#5 =( NAMED_UNIT ( * ) SI_UNIT ( $, .STERADIAN. ) SOLID_ANGLE_UNIT ( ) );
#6 = VECTOR ( 'NONE', #275, 39.37007874015747433 ) ;
#7 = APPLICATION_PROTOCOL_DEFINITION ( 'draft international standard', 'automotive_design', 1998, #230 ) ;
#8 = CIRCLE ( 'NONE', #253, 0.04750000000000064587 ) ;
#9 = EDGE_CURVE ( 'NONE', #328, #319, #179, .T. ) ;
#10 = ORIENTED_EDGE ( 'NONE', *, *, #335, .T. ) ;
#11 =( LENGTH_UNIT ( ) NAMED_UNIT ( * ) SI_UNIT ( $, .METRE. ) );
#12 = AXIS2_PLACEMENT_3D ( 'NONE', #323, #320, #251 ) ;
#13 = DIRECTION ( 'NONE',  ( 1.000000000000000000, 0.0000000000000000000, 0.0000000000000000000 ) ) ;
#14 = DIMENSIONAL_EXPONENTS ( 1.000000000000000000, 0.0000000000000000000, 0.0000000000000000000, 0.0000000000000000000, 0.0000000000000000000, 0.0000000000000000000, 0.0000000000000000000 ) ;
#15 = CARTESIAN_POINT ( 'NONE',  ( -0.06249999999999996531, 0.0000000000000000000, 0.4637379795033760299 ) ) ;
#16 = LINE ( 'NONE', #227, #143 ) ;
#17 = AXIS2_PLACEMENT_3D ( 'NONE', #336, #131, #123 ) ;
#18 = AXIS2_PLACEMENT_3D ( 'NONE', #29, #333, #309 ) ;
#19 = ORIENTED_EDGE ( 'NONE', *, *, #274, .T. ) ;
#20 = DIRECTION ( 'NONE',  ( 0.0000000000000000000, 0.0000000000000000000, 1.000000000000000000 ) ) ;
#21 = ORIENTED_EDGE ( 'NONE', *, *, #57, .F. ) ;
#22 = DIMENSIONAL_EXPONENTS ( 1.000000000000000000, 0.0000000000000000000, 0.0000000000000000000, 0.0000000000000000000, 0.0000000000000000000, 0.0000000000000000000, 0.0000000000000000000 ) ;
#23 = DIRECTION ( 'NONE',  ( -0.0000000000000000000, -0.0000000000000000000, -1.000000000000000000 ) ) ;
#24 = ADVANCED_FACE ( 'NONE', ( #124 ), #62, .F. ) ;
#25 = CARTESIAN_POINT ( 'NONE',  ( -0.04685309999999996700, 6.695946194592023262E-18, 0.3750000000000000555 ) ) ;
#26 = ORIENTED_EDGE ( 'NONE', *, *, #329, .T. ) ;
#27 = ORIENTED_EDGE ( 'NONE', *, *, #264, .F. ) ;
#28 = PRODUCT_DEFINITION_FORMATION_WITH_SPECIFIED_SOURCE ( 'ANY', '', #281, .NOT_KNOWN. ) ;
#29 = CARTESIAN_POINT ( 'NONE',  ( 0.0000000000000000000, 0.0000000000000000000, 1.500000000000000222 ) ) ;
#30 = ADVANCED_FACE ( 'NONE', ( #56 ), #205, .T. ) ;
#31 = EDGE_LOOP ( 'NONE', ( #250, #4, #100, #10 ) ) ;
#32 = CARTESIAN_POINT ( 'NONE',  ( -0.04685310000000000169, 0.0000000000000000000, 0.01000000000000000194 ) ) ;
#33 = CYLINDRICAL_SURFACE ( 'NONE', #134, 0.06250000000000002776 ) ;
#34 = CIRCLE ( 'NONE', #260, 0.01000000000000000021 ) ;
#35 = ORIENTED_EDGE ( 'NONE', *, *, #116, .F. ) ;
#36 = SHAPE_DEFINITION_REPRESENTATION ( #263, #268 ) ;
#37 = SURFACE_STYLE_USAGE ( .BOTH. , #216 ) ;
#38 =( NAMED_UNIT ( * ) SI_UNIT ( $, .STERADIAN. ) SOLID_ANGLE_UNIT ( ) );
#39 = VECTOR ( 'NONE', #44, 39.37007874015748143 ) ;
#40 = AXIS2_PLACEMENT_3D ( 'NONE', #99, #249, #219 ) ;
#41 = CARTESIAN_POINT ( 'NONE',  ( 0.04685310000000005026, 0.0000000000000000000, 0.3750000000000000555 ) ) ;
#42 = MECHANICAL_DESIGN_GEOMETRIC_PRESENTATION_REPRESENTATION (  '', ( #50 ), #234 ) ;
#43 = EDGE_CURVE ( 'NONE', #154, #276, #187, .T. ) ;
#44 = DIRECTION ( 'NONE',  ( -1.224646799147353700E-16, -0.0000000000000000000, -1.000000000000000000 ) ) ;
#45 = PRESENTATION_STYLE_ASSIGNMENT (( #37 ) ) ;
#46 = FACE_OUTER_BOUND ( 'NONE', #74, .T. ) ;
#47 = VERTEX_POINT ( 'NONE', #167 ) ;
#48 = CIRCLE ( 'NONE', #163, 0.04685310000000000863 ) ;
#49 = LINE ( 'NONE', #190, #142 ) ;
#50 = STYLED_ITEM ( 'NONE', ( #239 ), #268 ) ;
#51 = DIRECTION ( 'NONE',  ( 1.000000000000000000, 0.0000000000000000000, 0.0000000000000000000 ) ) ;
#52 = DIRECTION ( 'NONE',  ( 1.000000000000000000, 0.0000000000000000000, 0.0000000000000000000 ) ) ;
#53 = EDGE_LOOP ( 'NONE', ( #181, #191, #300, #343 ) ) ;
#54 = CARTESIAN_POINT ( 'NONE',  ( 0.06250000000000008327, 7.654042494670966789E-18, 0.4637379795033760299 ) ) ;
#55 = ORIENTED_EDGE ( 'NONE', *, *, #262, .F. ) ;
#56 = FACE_OUTER_BOUND ( 'NONE', #349, .T. ) ;
#57 = EDGE_CURVE ( 'NONE', #255, #103, #49, .T. ) ;
#58 = CIRCLE ( 'NONE', #180, 0.03685309999999999975 ) ;
#59 = ORIENTED_EDGE ( 'NONE', *, *, #116, .T. ) ;
#60 = DIRECTION ( 'NONE',  ( 0.0000000000000000000, 0.0000000000000000000, 1.000000000000000000 ) ) ;
#61 = CARTESIAN_POINT ( 'NONE',  ( 0.0000000000000000000, 0.0000000000000000000, 1.500000000000000222 ) ) ;
#62 = PLANE ( 'NONE',  #17 ) ;
#63 = SURFACE_STYLE_USAGE ( .BOTH. , #64 ) ;
#64 = SURFACE_SIDE_STYLE ('',( #326 ) ) ;
#65 = LENGTH_MEASURE_WITH_UNIT ( LENGTH_MEASURE( 0.02539999999999999897 ), #287 );
#66 = AXIS2_PLACEMENT_3D ( 'NONE', #169, #235, #81 ) ;
#67 = ORIENTED_EDGE ( 'NONE', *, *, #95, .T. ) ;
#68 = EDGE_CURVE ( 'NONE', #47, #276, #334, .T. ) ;
#69 = EDGE_CURVE ( 'NONE', #172, #154, #48, .T. ) ;
#70 = DIRECTION ( 'NONE',  ( 1.224646799147353207E-16, 1.000000000000000000, -0.0000000000000000000 ) ) ;
#71 = CIRCLE ( 'NONE', #284, 0.06250000000000002776 ) ;
#72 = FACE_OUTER_BOUND ( 'NONE', #138, .T. ) ;
#73 = CARTESIAN_POINT ( 'NONE',  ( -0.04685310000000000169, 0.0000000000000000000, 5.737849894513087439E-18 ) ) ;
#74 = EDGE_LOOP ( 'NONE', ( #168, #273 ) ) ;
#75 = FACE_OUTER_BOUND ( 'NONE', #188, .T. ) ;
#76 = DIRECTION ( 'NONE',  ( 0.0000000000000000000, 0.0000000000000000000, 1.000000000000000000 ) ) ;
#77 = CARTESIAN_POINT ( 'NONE',  ( -0.04750000000000064587, 0.0000000000000000000, 1.500000000000000222 ) ) ;
#78 = CARTESIAN_POINT ( 'NONE',  ( -0.03685309999999999975, 4.513203095365732321E-18, 0.01000000000000000021 ) ) ;
#79 = AXIS2_PLACEMENT_3D ( 'NONE', #286, #277, #312 ) ;
#80 = ORIENTED_EDGE ( 'NONE', *, *, #68, .F. ) ;
#81 = DIRECTION ( 'NONE',  ( -1.000000000000000000, 0.0000000000000000000, 1.224646799147353700E-16 ) ) ;
#82 = CARTESIAN_POINT ( 'NONE',  ( 0.06250000000000002776, 7.654042494670959086E-18, 1.485000000000000764 ) ) ;
#83 = ORIENTED_EDGE ( 'NONE', *, *, #185, .T. ) ;
#84 = FACE_OUTER_BOUND ( 'NONE', #345, .T. ) ;
#85 = LINE ( 'NONE', #91, #267 ) ;
#86 = ORIENTED_EDGE ( 'NONE', *, *, #335, .F. ) ;
#87 = DIRECTION ( 'NONE',  ( -1.224646799147353700E-16, -0.0000000000000000000, -1.000000000000000000 ) ) ;
#88 = CONICAL_SURFACE ( 'NONE', #40, 0.04685310000000000863, 0.1745329251994338637 ) ;
#89 = AXIS2_PLACEMENT_3D ( 'NONE', #307, #170, #121 ) ;
#90 =( CONVERSION_BASED_UNIT ( 'INCH', #65 ) LENGTH_UNIT ( ) NAMED_UNIT ( #22 ) );
#91 = CARTESIAN_POINT ( 'NONE',  ( 0.06250000000000002776, 7.654042494670959086E-18, 1.500000000000000222 ) ) ;
#92 = DIRECTION ( 'NONE',  ( 1.000000000000000000, 0.0000000000000000000, 0.0000000000000000000 ) ) ;
#93 = VECTOR ( 'NONE', #198, 39.37007874015748143 ) ;
#94 = UNCERTAINTY_MEASURE_WITH_UNIT (LENGTH_MEASURE( 1.000000000000000082E-05 ), #183, 'distance_accuracy_value', 'NONE');
#95 = EDGE_CURVE ( 'NONE', #154, #103, #224, .T. ) ;
#96 = PLANE ( 'NONE',  #12 ) ;
#97 = CIRCLE ( 'NONE', #294, 0.01000000000000000021 ) ;
#98 = DIRECTION ( 'NONE',  ( 1.000000000000000000, 0.0000000000000000000, 0.0000000000000000000 ) ) ;
#99 = CARTESIAN_POINT ( 'NONE',  ( 4.592425496802576684E-17, 0.0000000000000000000, 0.3750000000000000555 ) ) ;
#100 = ORIENTED_EDGE ( 'NONE', *, *, #262, .T. ) ;
#101 = FILL_AREA_STYLE ('',( #338 ) ) ;
#102 = DIRECTION ( 'NONE',  ( 0.0000000000000000000, 0.0000000000000000000, 1.000000000000000000 ) ) ;
#103 = VERTEX_POINT ( 'NONE', #15 ) ;
#104 = FILL_AREA_STYLE ('',( #346 ) ) ;
#105 = CLOSED_SHELL ( 'NONE', ( #30, #182, #120, #174, #155, #254, #150, #289, #204, #314, #24, #177 ) ) ;
#106 = CARTESIAN_POINT ( 'NONE',  ( 1.224646799147353962E-18, 0.0000000000000000000, 0.01000000000000000194 ) ) ;
#107 = COLOUR_RGB ( '',0.7921568627450980005, 0.8196078431372548767, 0.9333333333333333481 ) ;
#108 = VERTEX_POINT ( 'NONE', #135 ) ;
#109 = DIRECTION ( 'NONE',  ( -0.0000000000000000000, -0.0000000000000000000, -1.000000000000000000 ) ) ;
#110 = DIRECTION ( 'NONE',  ( -0.7071067811865462405, 0.0000000000000000000, -0.7071067811865486830 ) ) ;
#111 = ORIENTED_EDGE ( 'NONE', *, *, #217, .F. ) ;
#112 = EDGE_CURVE ( 'NONE', #276, #47, #210, .T. ) ;
#113 = FACE_OUTER_BOUND ( 'NONE', #199, .T. ) ;
#114 = EDGE_LOOP ( 'NONE', ( #279, #257, #331, #21 ) ) ;
#115 = LINE ( 'NONE', #330, #93 ) ;
#116 = EDGE_CURVE ( 'NONE', #154, #172, #341, .T. ) ;
#117 = UNCERTAINTY_MEASURE_WITH_UNIT (LENGTH_MEASURE( 1.000000000000000082E-05 ), #90, 'distance_accuracy_value', 'NONE');
#118 = AXIS2_PLACEMENT_3D ( 'NONE', #106, #299, #159 ) ;
#119 = CONICAL_SURFACE ( 'NONE', #18, 0.04750000000000064587, 0.7853981633974466137 ) ;
#120 = ADVANCED_FACE ( 'NONE', ( #75 ), #88, .T. ) ;
#121 = DIRECTION ( 'NONE',  ( -1.000000000000000000, 0.0000000000000000000, 1.224646799147353700E-16 ) ) ;
#122 = PRODUCT_CONTEXT ( 'NONE', #230, 'mechanical' ) ;
#123 = DIRECTION ( 'NONE',  ( 1.000000000000000000, 0.0000000000000000000, -0.0000000000000000000 ) ) ;
#124 = FACE_OUTER_BOUND ( 'NONE', #221, .T. ) ;
#125 = AXIS2_PLACEMENT_3D ( 'NONE', #302, #192, #2 ) ;
#126 = DIRECTION ( 'NONE',  ( 0.0000000000000000000, 0.0000000000000000000, 1.000000000000000000 ) ) ;
#127 = AXIS2_PLACEMENT_3D ( 'NONE', #236, #126, #92 ) ;
#128 = ORIENTED_EDGE ( 'NONE', *, *, #207, .F. ) ;
#129 = DIRECTION ( 'NONE',  ( -0.0000000000000000000, -0.0000000000000000000, -1.000000000000000000 ) ) ;
#130 = AXIS2_PLACEMENT_3D ( 'NONE', #296, #60, #229 ) ;
#131 = DIRECTION ( 'NONE',  ( 0.0000000000000000000, 0.0000000000000000000, 1.000000000000000000 ) ) ;
#132 = FACE_OUTER_BOUND ( 'NONE', #114, .T. ) ;
#133 = CARTESIAN_POINT ( 'NONE',  ( 1.224646799147353962E-18, 0.0000000000000000000, 0.01000000000000000194 ) ) ;
#134 = AXIS2_PLACEMENT_3D ( 'NONE', #61, #23, #332 ) ;
#135 = CARTESIAN_POINT ( 'NONE',  ( -0.03685309999999999975, 5.125526494939408339E-18, 0.0000000000000000000 ) ) ;
#136 = ORIENTED_EDGE ( 'NONE', *, *, #274, .F. ) ;
#137 = CARTESIAN_POINT ( 'NONE',  ( 4.592425496802576684E-17, 0.0000000000000000000, 0.3750000000000000555 ) ) ;
#138 = EDGE_LOOP ( 'NONE', ( #59, #324, #140, #248 ) ) ;
#139 = CARTESIAN_POINT ( 'NONE',  ( 0.03685309999999999975, 0.0000000000000000000, 0.01000000000000000021 ) ) ;
#140 = ORIENTED_EDGE ( 'NONE', *, *, #68, .T. ) ;
#141 = LINE ( 'NONE', #283, #291 ) ;
#142 = VECTOR ( 'NONE', #297, 39.37007874015748143 ) ;
#143 = VECTOR ( 'NONE', #202, 39.37007874015748854 ) ;
#144 = EDGE_CURVE ( 'NONE', #319, #328, #8, .T. ) ;
#145 = ORIENTED_EDGE ( 'NONE', *, *, #197, .T. ) ;
#146 = CARTESIAN_POINT ( 'NONE',  ( -0.04750000000000064587, 0.0000000000000000000, 1.500000000000000222 ) ) ;
#147 = ORIENTED_EDGE ( 'NONE', *, *, #264, .T. ) ;
#148 = CARTESIAN_POINT ( 'NONE',  ( 5.679152322418704750E-17, 0.0000000000000000000, 0.4637379795033760299 ) ) ;
#149 = CYLINDRICAL_SURFACE ( 'NONE', #89, 0.04685310000000000169 ) ;
#150 = ADVANCED_FACE ( 'NONE', ( #46 ), #96, .T. ) ;
#151 = CIRCLE ( 'NONE', #350, 0.06250000000000002776 ) ;
#152 = EDGE_CURVE ( 'NONE', #108, #276, #34, .T. ) ;
#153 = TOROIDAL_SURFACE ( 'NONE', #130, 0.03685309999999999975, 0.01000000000000000021 ) ;
#154 = VERTEX_POINT ( 'NONE', #25 ) ;
#155 = ADVANCED_FACE ( 'NONE', ( #132 ), #194, .T. ) ;
#156 = CARTESIAN_POINT ( 'NONE',  ( 0.0000000000000000000, 0.0000000000000000000, 1.485000000000000764 ) ) ;
#157 =( GEOMETRIC_REPRESENTATION_CONTEXT ( 3 ) GLOBAL_UNCERTAINTY_ASSIGNED_CONTEXT ( ( #94 ) ) GLOBAL_UNIT_ASSIGNED_CONTEXT ( ( #183, #160, #38 ) ) REPRESENTATION_CONTEXT ( 'NONE', 'WORKASPACE' ) );
#158 = FACE_OUTER_BOUND ( 'NONE', #162, .T. ) ;
#159 = DIRECTION ( 'NONE',  ( 1.000000000000000000, 0.0000000000000000000, 0.0000000000000000000 ) ) ;
#160 =( NAMED_UNIT ( * ) PLANE_ANGLE_UNIT ( ) SI_UNIT ( $, .RADIAN. ) );
#161 = DIRECTION ( 'NONE',  ( 1.000000000000000000, 0.0000000000000000000, 0.0000000000000000000 ) ) ;
#162 = EDGE_LOOP ( 'NONE', ( #1, #321, #111, #228 ) ) ;
#163 = AXIS2_PLACEMENT_3D ( 'NONE', #164, #271, #278 ) ;
#164 = CARTESIAN_POINT ( 'NONE',  ( 4.592425496802576684E-17, 0.0000000000000000000, 0.3750000000000000555 ) ) ;
#165 = EDGE_CURVE ( 'NONE', #195, #47, #97, .T. ) ;
#166 = LENGTH_MEASURE_WITH_UNIT ( LENGTH_MEASURE( 0.02539999999999999897 ), #175 );
#167 = CARTESIAN_POINT ( 'NONE',  ( 0.04685310000000000169, 5.737849894513085128E-18, 0.01000000000000000194 ) ) ;
#168 = ORIENTED_EDGE ( 'NONE', *, *, #9, .T. ) ;
#169 = CARTESIAN_POINT ( 'NONE',  ( 0.0000000000000000000, 0.0000000000000000000, 0.0000000000000000000 ) ) ;
#170 = DIRECTION ( 'NONE',  ( -1.224646799147353700E-16, -0.0000000000000000000, -1.000000000000000000 ) ) ;
#171 =( GEOMETRIC_REPRESENTATION_CONTEXT ( 3 ) GLOBAL_UNCERTAINTY_ASSIGNED_CONTEXT ( ( #3 ) ) GLOBAL_UNIT_ASSIGNED_CONTEXT ( ( #222, #256, #5 ) ) REPRESENTATION_CONTEXT ( 'NONE', 'WORKASPACE' ) );
#172 = VERTEX_POINT ( 'NONE', #41 ) ;
#173 = CYLINDRICAL_SURFACE ( 'NONE', #66, 0.04685310000000000169 ) ;
#174 = ADVANCED_FACE ( 'NONE', ( #158 ), #193, .T. ) ;
#175 =( LENGTH_UNIT ( ) NAMED_UNIT ( * ) SI_UNIT ( $, .METRE. ) );
#176 = AXIS2_PLACEMENT_3D ( 'NONE', #133, #20, #98 ) ;
#177 = ADVANCED_FACE ( 'NONE', ( #212 ), #153, .T. ) ;
#178 =( NAMED_UNIT ( * ) SI_UNIT ( $, .STERADIAN. ) SOLID_ANGLE_UNIT ( ) );
#179 = CIRCLE ( 'NONE', #272, 0.04750000000000064587 ) ;
#180 = AXIS2_PLACEMENT_3D ( 'NONE', #258, #109, #52 ) ;
#181 = ORIENTED_EDGE ( 'NONE', *, *, #152, .F. ) ;
#182 = ADVANCED_FACE ( 'NONE', ( #72 ), #149, .T. ) ;
#183 =( CONVERSION_BASED_UNIT ( 'INCH', #295 ) LENGTH_UNIT ( ) NAMED_UNIT ( #14 ) );
#184 = DIRECTION ( 'NONE',  ( 0.0000000000000000000, -1.000000000000000000, 0.0000000000000000000 ) ) ;
#185 = EDGE_CURVE ( 'NONE', #328, #255, #261, .T. ) ;
#186 = DIRECTION ( 'NONE',  ( -1.224646799147353700E-16, -0.0000000000000000000, -1.000000000000000000 ) ) ;
#187 = LINE ( 'NONE', #73, #39 ) ;
#188 = EDGE_LOOP ( 'NONE', ( #35, #67, #26, #55 ) ) ;
#189 = DIRECTION ( 'NONE',  ( -0.0000000000000000000, -0.0000000000000000000, -1.000000000000000000 ) ) ;
#190 = CARTESIAN_POINT ( 'NONE',  ( -0.06250000000000002776, 0.0000000000000000000, 1.500000000000000222 ) ) ;
#191 = ORIENTED_EDGE ( 'NONE', *, *, #197, .F. ) ;
#192 = DIRECTION ( 'NONE',  ( -1.224646799147353700E-16, -0.0000000000000000000, -1.000000000000000000 ) ) ;
#193 = CONICAL_SURFACE ( 'NONE', #288, 0.04750000000000064587, 0.7853981633974466137 ) ;
#194 = CYLINDRICAL_SURFACE ( 'NONE', #310, 0.06250000000000002776 ) ;
#195 = VERTEX_POINT ( 'NONE', #233 ) ;
#196 = DIMENSIONAL_EXPONENTS ( 1.000000000000000000, 0.0000000000000000000, 0.0000000000000000000, 0.0000000000000000000, 0.0000000000000000000, 0.0000000000000000000, 0.0000000000000000000 ) ;
#197 = EDGE_CURVE ( 'NONE', #195, #108, #325, .T. ) ;
#198 = DIRECTION ( 'NONE',  ( -1.224646799147353700E-16, -0.0000000000000000000, -1.000000000000000000 ) ) ;
#199 = EDGE_LOOP ( 'NONE', ( #290, #240, #305, #252 ) ) ;
#200 = DIRECTION ( 'NONE',  ( 1.000000000000000000, 0.0000000000000000000, 0.0000000000000000000 ) ) ;
#201 = ORIENTED_EDGE ( 'NONE', *, *, #209, .F. ) ;
#202 = DIRECTION ( 'NONE',  ( 0.7071067811865462405, 8.659560562354916834E-17, -0.7071067811865486830 ) ) ;
#203 = VECTOR ( 'NONE', #110, 39.37007874015748854 ) ;
#204 = ADVANCED_FACE ( 'NONE', ( #242 ), #213, .T. ) ;
#205 = TOROIDAL_SURFACE ( 'NONE', #315, 0.03685309999999999975, 0.01000000000000000021 ) ;
#206 = CIRCLE ( 'NONE', #79, 0.06250000000000002776 ) ;
#207 = EDGE_CURVE ( 'NONE', #319, #208, #16, .T. ) ;
#208 = VERTEX_POINT ( 'NONE', #82 ) ;
#209 = EDGE_CURVE ( 'NONE', #208, #285, #85, .T. ) ;
#210 = CIRCLE ( 'NONE', #176, 0.04685310000000000169 ) ;
#211 = COLOUR_RGB ( '',0.7921568627450980005, 0.8196078431372548767, 0.9333333333333333481 ) ;
#212 = FACE_OUTER_BOUND ( 'NONE', #53, .T. ) ;
#213 = CONICAL_SURFACE ( 'NONE', #301, 0.04685310000000000863, 0.1745329251994338637 ) ;
#214 = MANIFOLD_SOLID_BREP ( 'Fillet1', #105 ) ;
#215 = DIRECTION ( 'NONE',  ( -0.0000000000000000000, -0.0000000000000000000, -1.000000000000000000 ) ) ;
#216 = SURFACE_SIDE_STYLE ('',( #322 ) ) ;
#217 = EDGE_CURVE ( 'NONE', #255, #208, #151, .T. ) ;
#218 = CARTESIAN_POINT ( 'NONE',  ( 0.0000000000000000000, 0.0000000000000000000, 1.500000000000000222 ) ) ;
#219 = DIRECTION ( 'NONE',  ( 1.000000000000000000, 0.0000000000000000000, 0.0000000000000000000 ) ) ;
#220 = EDGE_CURVE ( 'NONE', #172, #47, #115, .T. ) ;
#221 = EDGE_LOOP ( 'NONE', ( #145, #147 ) ) ;
#222 =( CONVERSION_BASED_UNIT ( 'INCH', #166 ) LENGTH_UNIT ( ) NAMED_UNIT ( #196 ) );
#223 = AXIS2_PLACEMENT_3D ( 'NONE', #137, #186, #244 ) ;
#224 = LINE ( 'NONE', #318, #6 ) ;
#225 = ORIENTED_EDGE ( 'NONE', *, *, #165, .F. ) ;
#226 = FACE_OUTER_BOUND ( 'NONE', #308, .T. ) ;
#227 = CARTESIAN_POINT ( 'NONE',  ( 0.04750000000000064587, 5.817072295950006528E-18, 1.500000000000000222 ) ) ;
#228 = ORIENTED_EDGE ( 'NONE', *, *, #185, .F. ) ;
#229 = DIRECTION ( 'NONE',  ( 1.000000000000000000, 0.0000000000000000000, 0.0000000000000000000 ) ) ;
#230 = APPLICATION_CONTEXT ( 'automotive_design' ) ;
#231 = CARTESIAN_POINT ( 'NONE',  ( 0.04750000000000064587, 6.735557395310483192E-18, 1.500000000000000222 ) ) ;
#232 = CIRCLE ( 'NONE', #125, 0.06250000000000002776 ) ;
#233 = CARTESIAN_POINT ( 'NONE',  ( 0.03685309999999999975, 0.0000000000000000000, 0.0000000000000000000 ) ) ;
#234 =( GEOMETRIC_REPRESENTATION_CONTEXT ( 3 ) GLOBAL_UNCERTAINTY_ASSIGNED_CONTEXT ( ( #117 ) ) GLOBAL_UNIT_ASSIGNED_CONTEXT ( ( #90, #265, #178 ) ) REPRESENTATION_CONTEXT ( 'NONE', 'WORKASPACE' ) );
#235 = DIRECTION ( 'NONE',  ( -1.224646799147353700E-16, -0.0000000000000000000, -1.000000000000000000 ) ) ;
#236 = CARTESIAN_POINT ( 'NONE',  ( 0.0000000000000000000, 0.0000000000000000000, 0.0000000000000000000 ) ) ;
#237 = PRESENTATION_LAYER_ASSIGNMENT (  '', '', ( #313 ) ) ;
#238 = APPLICATION_PROTOCOL_DEFINITION ( 'draft international standard', 'automotive_design', 1998, #245 ) ;
#239 = PRESENTATION_STYLE_ASSIGNMENT (( #63 ) ) ;
#240 = ORIENTED_EDGE ( 'NONE', *, *, #69, .T. ) ;
#241 = AXIS2_PLACEMENT_3D ( 'NONE', #266, #189, #317 ) ;
#242 = FACE_OUTER_BOUND ( 'NONE', #31, .T. ) ;
#243 = DIRECTION ( 'NONE',  ( 0.0000000000000000000, 0.0000000000000000000, -1.000000000000000000 ) ) ;
#244 = DIRECTION ( 'NONE',  ( -1.000000000000000000, 0.0000000000000000000, 0.0000000000000000000 ) ) ;
#245 = APPLICATION_CONTEXT ( 'automotive_design' ) ;
#246 = MECHANICAL_DESIGN_GEOMETRIC_PRESENTATION_REPRESENTATION (  '', ( #313 ), #157 ) ;
#247 = CARTESIAN_POINT ( 'NONE',  ( 0.0000000000000000000, 0.0000000000000000000, 1.500000000000000222 ) ) ;
#248 = ORIENTED_EDGE ( 'NONE', *, *, #43, .F. ) ;
#249 = DIRECTION ( 'NONE',  ( 1.224646799147353700E-16, 0.0000000000000000000, 1.000000000000000000 ) ) ;
#250 = ORIENTED_EDGE ( 'NONE', *, *, #95, .F. ) ;
#251 = DIRECTION ( 'NONE',  ( 1.000000000000000000, 0.0000000000000000000, -0.0000000000000000000 ) ) ;
#252 = ORIENTED_EDGE ( 'NONE', *, *, #112, .T. ) ;
#253 = AXIS2_PLACEMENT_3D ( 'NONE', #247, #344, #13 ) ;
#254 = ADVANCED_FACE ( 'NONE', ( #84 ), #33, .T. ) ;
#255 = VERTEX_POINT ( 'NONE', #280 ) ;
#256 =( NAMED_UNIT ( * ) PLANE_ANGLE_UNIT ( ) SI_UNIT ( $, .RADIAN. ) );
#257 = ORIENTED_EDGE ( 'NONE', *, *, #209, .T. ) ;
#258 = CARTESIAN_POINT ( 'NONE',  ( 1.224646799147353770E-18, 0.0000000000000000000, 0.0000000000000000000 ) ) ;
#259 = DIRECTION ( 'NONE',  ( 1.000000000000000000, 0.0000000000000000000, 0.0000000000000000000 ) ) ;
#260 = AXIS2_PLACEMENT_3D ( 'NONE', #78, #70, #340 ) ;
#261 = LINE ( 'NONE', #146, #203 ) ;
#262 = EDGE_CURVE ( 'NONE', #172, #285, #141, .T. ) ;
#263 = PRODUCT_DEFINITION_SHAPE ( 'NONE', 'NONE',  #306 ) ;
#264 = EDGE_CURVE ( 'NONE', #108, #195, #58, .T. ) ;
#265 =( NAMED_UNIT ( * ) PLANE_ANGLE_UNIT ( ) SI_UNIT ( $, .RADIAN. ) );
#266 = CARTESIAN_POINT ( 'NONE',  ( 1.224646799147353770E-18, 0.0000000000000000000, 0.0000000000000000000 ) ) ;
#267 = VECTOR ( 'NONE', #129, 39.37007874015748143 ) ;
#268 = ADVANCED_BREP_SHAPE_REPRESENTATION ( 'Micro_GEC-093-3-010X', ( #214, #127 ), #171 ) ;
#269 = CARTESIAN_POINT ( 'NONE',  ( 0.0000000000000000000, 0.0000000000000000000, 1.500000000000000222 ) ) ;
#270 = DIRECTION ( 'NONE',  ( 0.0000000000000000000, 0.0000000000000000000, -1.000000000000000000 ) ) ;
#271 = DIRECTION ( 'NONE',  ( -1.224646799147353700E-16, -0.0000000000000000000, -1.000000000000000000 ) ) ;
#272 = AXIS2_PLACEMENT_3D ( 'NONE', #218, #76, #51 ) ;
#273 = ORIENTED_EDGE ( 'NONE', *, *, #144, .T. ) ;
#274 = EDGE_CURVE ( 'NONE', #208, #255, #206, .T. ) ;
#275 = DIRECTION ( 'NONE',  ( -0.1736481776669311639, 2.126576849575783008E-17, 0.9848077530122080203 ) ) ;
#276 = VERTEX_POINT ( 'NONE', #32 ) ;
#277 = DIRECTION ( 'NONE',  ( 0.0000000000000000000, 0.0000000000000000000, -1.000000000000000000 ) ) ;
#278 = DIRECTION ( 'NONE',  ( -1.000000000000000000, 0.0000000000000000000, 0.0000000000000000000 ) ) ;
#279 = ORIENTED_EDGE ( 'NONE', *, *, #217, .T. ) ;
#280 = CARTESIAN_POINT ( 'NONE',  ( -0.06250000000000002776, 0.0000000000000000000, 1.485000000000000764 ) ) ;
#281 = PRODUCT ( 'Micro_GEC-093-3-010X', 'Micro_GEC-093-3-010X', '', ( #122 ) ) ;
#282 = ORIENTED_EDGE ( 'NONE', *, *, #57, .T. ) ;
#283 = CARTESIAN_POINT ( 'NONE',  ( 0.04685310000000005026, 0.0000000000000000000, 0.3750000000000000555 ) ) ;
#284 = AXIS2_PLACEMENT_3D ( 'NONE', #148, #87, #200 ) ;
#285 = VERTEX_POINT ( 'NONE', #54 ) ;
#286 = CARTESIAN_POINT ( 'NONE',  ( 0.0000000000000000000, 0.0000000000000000000, 1.485000000000000764 ) ) ;
#287 =( LENGTH_UNIT ( ) NAMED_UNIT ( * ) SI_UNIT ( $, .METRE. ) );
#288 = AXIS2_PLACEMENT_3D ( 'NONE', #269, #243, #339 ) ;
#289 = ADVANCED_FACE ( 'NONE', ( #226 ), #119, .T. ) ;
#290 = ORIENTED_EDGE ( 'NONE', *, *, #220, .F. ) ;
#291 = VECTOR ( 'NONE', #351, 39.37007874015748143 ) ;
#292 = DIRECTION ( 'NONE',  ( 1.000000000000000000, 0.0000000000000000000, 0.0000000000000000000 ) ) ;
#293 = DIRECTION ( 'NONE',  ( 0.0000000000000000000, 0.0000000000000000000, -1.000000000000000000 ) ) ;
#294 = AXIS2_PLACEMENT_3D ( 'NONE', #139, #184, #293 ) ;
#295 = LENGTH_MEASURE_WITH_UNIT ( LENGTH_MEASURE( 0.02539999999999999897 ), #11 );
#296 = CARTESIAN_POINT ( 'NONE',  ( 1.224646799147353770E-18, 0.0000000000000000000, 0.01000000000000000021 ) ) ;
#297 = DIRECTION ( 'NONE',  ( -0.0000000000000000000, -0.0000000000000000000, -1.000000000000000000 ) ) ;
#298 = ORIENTED_EDGE ( 'NONE', *, *, #9, .F. ) ;
#299 = DIRECTION ( 'NONE',  ( 0.0000000000000000000, 0.0000000000000000000, 1.000000000000000000 ) ) ;
#300 = ORIENTED_EDGE ( 'NONE', *, *, #165, .T. ) ;
#301 = AXIS2_PLACEMENT_3D ( 'NONE', #337, #316, #292 ) ;
#302 = CARTESIAN_POINT ( 'NONE',  ( 5.679152322418704750E-17, 0.0000000000000000000, 0.4637379795033760299 ) ) ;
#303 = CARTESIAN_POINT ( 'NONE',  ( 0.0000000000000000000, 0.0000000000000000000, 1.500000000000000222 ) ) ;
#304 = ORIENTED_EDGE ( 'NONE', *, *, #152, .T. ) ;
#305 = ORIENTED_EDGE ( 'NONE', *, *, #43, .T. ) ;
#306 = PRODUCT_DEFINITION ( 'UNKNOWN', '', #28, #311 ) ;
#307 = CARTESIAN_POINT ( 'NONE',  ( 0.0000000000000000000, 0.0000000000000000000, 0.0000000000000000000 ) ) ;
#308 = EDGE_LOOP ( 'NONE', ( #128, #298, #83, #136 ) ) ;
#309 = DIRECTION ( 'NONE',  ( -1.000000000000000000, 0.0000000000000000000, 0.0000000000000000000 ) ) ;
#310 = AXIS2_PLACEMENT_3D ( 'NONE', #303, #215, #347 ) ;
#311 = PRODUCT_DEFINITION_CONTEXT ( 'detailed design', #245, 'design' ) ;
#312 = DIRECTION ( 'NONE',  ( 1.000000000000000000, 0.0000000000000000000, 0.0000000000000000000 ) ) ;
#313 = STYLED_ITEM ( 'NONE', ( #45 ), #214 ) ;
#314 = ADVANCED_FACE ( 'NONE', ( #113 ), #173, .T. ) ;
#315 = AXIS2_PLACEMENT_3D ( 'NONE', #342, #102, #161 ) ;
#316 = DIRECTION ( 'NONE',  ( 1.224646799147353700E-16, 0.0000000000000000000, 1.000000000000000000 ) ) ;
#317 = DIRECTION ( 'NONE',  ( 1.000000000000000000, 0.0000000000000000000, 0.0000000000000000000 ) ) ;
#318 = CARTESIAN_POINT ( 'NONE',  ( -0.04685309999999996700, 5.737849894513086668E-18, 0.3750000000000000555 ) ) ;
#319 = VERTEX_POINT ( 'NONE', #231 ) ;
#320 = DIRECTION ( 'NONE',  ( 0.0000000000000000000, 0.0000000000000000000, 1.000000000000000000 ) ) ;
#321 = ORIENTED_EDGE ( 'NONE', *, *, #207, .T. ) ;
#322 = SURFACE_STYLE_FILL_AREA ( #101 ) ;
#323 = CARTESIAN_POINT ( 'NONE',  ( 0.0000000000000000000, 0.0000000000000000000, 1.500000000000000222 ) ) ;
#324 = ORIENTED_EDGE ( 'NONE', *, *, #220, .T. ) ;
#325 = CIRCLE ( 'NONE', #241, 0.03685309999999999975 ) ;
#326 = SURFACE_STYLE_FILL_AREA ( #104 ) ;
#327 = PRESENTATION_LAYER_ASSIGNMENT (  '', '', ( #50 ) ) ;
#328 = VERTEX_POINT ( 'NONE', #77 ) ;
#329 = EDGE_CURVE ( 'NONE', #103, #285, #232, .T. ) ;
#330 = CARTESIAN_POINT ( 'NONE',  ( 0.04685310000000000169, 5.737849894513085128E-18, -5.737849894513087439E-18 ) ) ;
#331 = ORIENTED_EDGE ( 'NONE', *, *, #329, .F. ) ;
#332 = DIRECTION ( 'NONE',  ( -1.000000000000000000, 0.0000000000000000000, 0.0000000000000000000 ) ) ;
#333 = DIRECTION ( 'NONE',  ( 0.0000000000000000000, 0.0000000000000000000, -1.000000000000000000 ) ) ;
#334 = CIRCLE ( 'NONE', #118, 0.04685310000000000169 ) ;
#335 = EDGE_CURVE ( 'NONE', #285, #103, #71, .T. ) ;
#336 = CARTESIAN_POINT ( 'NONE',  ( 0.0000000000000000000, 0.0000000000000000000, 0.0000000000000000000 ) ) ;
#337 = CARTESIAN_POINT ( 'NONE',  ( 4.592425496802576684E-17, 0.0000000000000000000, 0.3750000000000000555 ) ) ;
#338 = FILL_AREA_STYLE_COLOUR ( '', #107 ) ;
#339 = DIRECTION ( 'NONE',  ( -1.000000000000000000, 0.0000000000000000000, 0.0000000000000000000 ) ) ;
#340 = DIRECTION ( 'NONE',  ( -1.000000000000000000, 1.224646799147353454E-16, 0.0000000000000000000 ) ) ;
#341 = CIRCLE ( 'NONE', #223, 0.04685310000000000863 ) ;
#342 = CARTESIAN_POINT ( 'NONE',  ( 1.224646799147353770E-18, 0.0000000000000000000, 0.01000000000000000021 ) ) ;
#343 = ORIENTED_EDGE ( 'NONE', *, *, #112, .F. ) ;
#344 = DIRECTION ( 'NONE',  ( 0.0000000000000000000, 0.0000000000000000000, 1.000000000000000000 ) ) ;
#345 = EDGE_LOOP ( 'NONE', ( #201, #19, #282, #86 ) ) ;
#346 = FILL_AREA_STYLE_COLOUR ( '', #211 ) ;
#347 = DIRECTION ( 'NONE',  ( -1.000000000000000000, 0.0000000000000000000, 0.0000000000000000000 ) ) ;
#348 = PRODUCT_RELATED_PRODUCT_CATEGORY ( 'part', '', ( #281 ) ) ;
#349 = EDGE_LOOP ( 'NONE', ( #27, #304, #80, #225 ) ) ;
#350 = AXIS2_PLACEMENT_3D ( 'NONE', #156, #270, #259 ) ;
#351 = DIRECTION ( 'NONE',  ( 0.1736481776669313581, 0.0000000000000000000, 0.9848077530122077983 ) ) ;
ENDSEC;
END-ISO-10303-21;
