ISO-10303-21;
HEADER;
FILE_DESCRIPTION (( 'STEP AP214' ),
    '1' );
FILE_NAME ('Micro_RME-024-2X.STEP',
    '2021-09-01T22:57:11',
    ( '' ),
    ( '' ),
    'SwSTEP 2.0',
    'SolidWorks 2020',
    '' );
FILE_SCHEMA (( 'AUTOMOTIVE_DESIGN' ));
ENDSEC;

DATA;
#1 = DIRECTION ( 'NONE',  ( -0.0000000000000000000, -0.0000000000000000000, -1.000000000000000000 ) ) ;
#2 = CYLINDRICAL_SURFACE ( 'NONE', #178, 0.06250000000000002776 ) ;
#3 = LINE ( 'NONE', #93, #131 ) ;
#4 = FACE_OUTER_BOUND ( 'NONE', #209, .T. ) ;
#5 = ORIENTED_EDGE ( 'NONE', *, *, #196, .F. ) ;
#6 = ADVANCED_BREP_SHAPE_REPRESENTATION ( 'Micro_RME-024-2X', ( #223, #200 ), #167 ) ;
#7 = DIRECTION ( 'NONE',  ( 1.000000000000000000, 0.0000000000000000000, -0.0000000000000000000 ) ) ;
#8 = SURFACE_STYLE_FILL_AREA ( #78 ) ;
#9 = VERTEX_POINT ( 'NONE', #297 ) ;
#10 = EDGE_LOOP ( 'NONE', ( #293, #233 ) ) ;
#11 = CIRCLE ( 'NONE', #195, 0.06250000000000002776 ) ;
#12 = ORIENTED_EDGE ( 'NONE', *, *, #139, .T. ) ;
#13 = DIRECTION ( 'NONE',  ( -0.7071067811865462405, 0.0000000000000000000, -0.7071067811865486830 ) ) ;
#14 = APPLICATION_PROTOCOL_DEFINITION ( 'draft international standard', 'automotive_design', 1998, #199 ) ;
#15 = ORIENTED_EDGE ( 'NONE', *, *, #66, .T. ) ;
#16 = SURFACE_STYLE_USAGE ( .BOTH. , #37 ) ;
#17 = LINE ( 'NONE', #20, #234 ) ;
#18 = AXIS2_PLACEMENT_3D ( 'NONE', #140, #71, #72 ) ;
#19 = ORIENTED_EDGE ( 'NONE', *, *, #139, .F. ) ;
#20 = CARTESIAN_POINT ( 'NONE',  ( -0.01198799999999999866, 0.0000000000000000000, 1.468106582817847053E-18 ) ) ;
#21 = DIRECTION ( 'NONE',  ( -1.224646799147353454E-16, -0.0000000000000000000, -1.000000000000000000 ) ) ;
#22 = UNCERTAINTY_MEASURE_WITH_UNIT (LENGTH_MEASURE( 1.000000000000000082E-05 ), #95, 'distance_accuracy_value', 'NONE');
#23 = DIRECTION ( 'NONE',  ( -1.224646799147353454E-16, -0.0000000000000000000, -1.000000000000000000 ) ) ;
#24 = AXIS2_PLACEMENT_3D ( 'NONE', #190, #147, #192 ) ;
#25 = EDGE_CURVE ( 'NONE', #30, #96, #156, .T. ) ;
#26 = DIRECTION ( 'NONE',  ( -1.000000000000000000, 0.0000000000000000000, 0.0000000000000000000 ) ) ;
#27 = SURFACE_STYLE_FILL_AREA ( #278 ) ;
#28 = CARTESIAN_POINT ( 'NONE',  ( 0.06250000000000002776, 7.654042494670959086E-18, 1.500000000000000222 ) ) ;
#29 = EDGE_CURVE ( 'NONE', #77, #32, #292, .T. ) ;
#30 = VERTEX_POINT ( 'NONE', #189 ) ;
#31 = STYLED_ITEM ( 'NONE', ( #239 ), #6 ) ;
#32 = VERTEX_POINT ( 'NONE', #170 ) ;
#33 =( NAMED_UNIT ( * ) SI_UNIT ( $, .STERADIAN. ) SOLID_ANGLE_UNIT ( ) );
#34 = ORIENTED_EDGE ( 'NONE', *, *, #279, .F. ) ;
#35 = ADVANCED_FACE ( 'NONE', ( #295 ), #84, .T. ) ;
#36 = FILL_AREA_STYLE_COLOUR ( '', #182 ) ;
#37 = SURFACE_SIDE_STYLE ('',( #8 ) ) ;
#38 = CYLINDRICAL_SURFACE ( 'NONE', #249, 0.01198799999999999866 ) ;
#39 = FACE_OUTER_BOUND ( 'NONE', #241, .T. ) ;
#40 = AXIS2_PLACEMENT_3D ( 'NONE', #67, #254, #152 ) ;
#41 = CARTESIAN_POINT ( 'NONE',  ( -0.04750000000000064587, 0.0000000000000000000, 1.500000000000000222 ) ) ;
#42 = AXIS2_PLACEMENT_3D ( 'NONE', #291, #86, #176 ) ;
#43 = DIRECTION ( 'NONE',  ( 1.000000000000000000, 0.0000000000000000000, 0.0000000000000000000 ) ) ;
#44 = DIRECTION ( 'NONE',  ( 0.0000000000000000000, 0.0000000000000000000, 1.000000000000000000 ) ) ;
#45 = FACE_OUTER_BOUND ( 'NONE', #73, .T. ) ;
#46 =( NAMED_UNIT ( * ) SI_UNIT ( $, .STERADIAN. ) SOLID_ANGLE_UNIT ( ) );
#47 = CARTESIAN_POINT ( 'NONE',  ( 0.0000000000000000000, 0.0000000000000000000, 1.500000000000000222 ) ) ;
#48 = EDGE_LOOP ( 'NONE', ( #284, #244, #100, #34 ) ) ;
#49 = CIRCLE ( 'NONE', #177, 0.01198799999999999866 ) ;
#50 = ORIENTED_EDGE ( 'NONE', *, *, #76, .T. ) ;
#51 = ADVANCED_FACE ( 'NONE', ( #58 ), #130, .T. ) ;
#52 = DIRECTION ( 'NONE',  ( 1.000000000000000000, 0.0000000000000000000, 0.0000000000000000000 ) ) ;
#53 = ORIENTED_EDGE ( 'NONE', *, *, #224, .F. ) ;
#54 = DIRECTION ( 'NONE',  ( -1.000000000000000000, 0.0000000000000000000, 0.0000000000000000000 ) ) ;
#55 = ORIENTED_EDGE ( 'NONE', *, *, #29, .F. ) ;
#56 = AXIS2_PLACEMENT_3D ( 'NONE', #172, #179, #59 ) ;
#57 = CONICAL_SURFACE ( 'NONE', #276, 0.04750000000000064587, 0.7853981633974466137 ) ;
#58 = FACE_OUTER_BOUND ( 'NONE', #288, .T. ) ;
#59 = DIRECTION ( 'NONE',  ( 1.000000000000000000, 0.0000000000000000000, -0.0000000000000000000 ) ) ;
#60 = CARTESIAN_POINT ( 'NONE',  ( -0.06250000000000002776, 0.0000000000000000000, 1.485000000000000764 ) ) ;
#61 = AXIS2_PLACEMENT_3D ( 'NONE', #153, #277, #248 ) ;
#62 = VECTOR ( 'NONE', #13, 39.37007874015748854 ) ;
#63 = PRODUCT_RELATED_PRODUCT_CATEGORY ( 'part', '', ( #211 ) ) ;
#64 = VECTOR ( 'NONE', #274, 39.37007874015747433 ) ;
#65 = DIRECTION ( 'NONE',  ( 0.7071067811865462405, 8.659560562354916834E-17, -0.7071067811865486830 ) ) ;
#66 = EDGE_CURVE ( 'NONE', #102, #186, #229, .T. ) ;
#67 = CARTESIAN_POINT ( 'NONE',  ( 4.389964282807362285E-17, 0.0000000000000000000, 0.3584677872725283154 ) ) ;
#68 = DIRECTION ( 'NONE',  ( 0.0000000000000000000, 0.0000000000000000000, -1.000000000000000000 ) ) ;
#69 = FILL_AREA_STYLE_COLOUR ( '', #264 ) ;
#70 = PRODUCT_DEFINITION_FORMATION_WITH_SPECIFIED_SOURCE ( 'ANY', '', #211, .NOT_KNOWN. ) ;
#71 = DIRECTION ( 'NONE',  ( 1.224646799147353454E-16, 0.0000000000000000000, 1.000000000000000000 ) ) ;
#72 = DIRECTION ( 'NONE',  ( 1.000000000000000000, 0.0000000000000000000, 0.0000000000000000000 ) ) ;
#73 = EDGE_LOOP ( 'NONE', ( #19, #263, #119, #270 ) ) ;
#74 = DIRECTION ( 'NONE',  ( 1.000000000000000000, 0.0000000000000000000, 0.0000000000000000000 ) ) ;
#75 =( LENGTH_UNIT ( ) NAMED_UNIT ( * ) SI_UNIT ( $, .METRE. ) );
#76 = EDGE_CURVE ( 'NONE', #213, #186, #99, .T. ) ;
#77 = VERTEX_POINT ( 'NONE', #60 ) ;
#78 = FILL_AREA_STYLE ('',( #36 ) ) ;
#79 = ORIENTED_EDGE ( 'NONE', *, *, #76, .F. ) ;
#80 =( NAMED_UNIT ( * ) SI_UNIT ( $, .STERADIAN. ) SOLID_ANGLE_UNIT ( ) );
#81 = DIRECTION ( 'NONE',  ( -1.224646799147353454E-16, -0.0000000000000000000, -1.000000000000000000 ) ) ;
#82 = MECHANICAL_DESIGN_GEOMETRIC_PRESENTATION_REPRESENTATION (  '', ( #171 ), #271 ) ;
#83 = DIRECTION ( 'NONE',  ( 1.224646799147353454E-16, 0.0000000000000000000, 1.000000000000000000 ) ) ;
#84 = CYLINDRICAL_SURFACE ( 'NONE', #166, 0.01198799999999999866 ) ;
#85 = EDGE_CURVE ( 'NONE', #9, #102, #49, .T. ) ;
#86 = DIRECTION ( 'NONE',  ( -1.224646799147353454E-16, -0.0000000000000000000, -1.000000000000000000 ) ) ;
#87 = CARTESIAN_POINT ( 'NONE',  ( 8.817456953860943597E-18, 0.0000000000000000000, 0.07199999999999999456 ) ) ;
#88 = AXIS2_PLACEMENT_3D ( 'NONE', #120, #68, #204 ) ;
#89 = DIRECTION ( 'NONE',  ( -0.0000000000000000000, -0.0000000000000000000, -1.000000000000000000 ) ) ;
#90 = DIRECTION ( 'NONE',  ( -1.000000000000000000, 0.0000000000000000000, 0.0000000000000000000 ) ) ;
#91 = ADVANCED_FACE ( 'NONE', ( #251 ), #38, .T. ) ;
#92 = PRODUCT_DEFINITION_CONTEXT ( 'detailed design', #199, 'design' ) ;
#93 = CARTESIAN_POINT ( 'NONE',  ( 0.01198799999999999866, 1.468106582817846860E-18, -1.468106582817847053E-18 ) ) ;
#94 = VECTOR ( 'NONE', #280, 39.37007874015748143 ) ;
#95 =( CONVERSION_BASED_UNIT ( 'INCH', #205 ) LENGTH_UNIT ( ) NAMED_UNIT ( #228 ) );
#96 = VERTEX_POINT ( 'NONE', #41 ) ;
#97 = DIRECTION ( 'NONE',  ( 0.0000000000000000000, 0.0000000000000000000, -1.000000000000000000 ) ) ;
#98 = ORIENTED_EDGE ( 'NONE', *, *, #85, .F. ) ;
#99 = CIRCLE ( 'NONE', #40, 0.06250000000000002776 ) ;
#100 = ORIENTED_EDGE ( 'NONE', *, *, #154, .F. ) ;
#101 = ORIENTED_EDGE ( 'NONE', *, *, #154, .T. ) ;
#102 = VERTEX_POINT ( 'NONE', #272 ) ;
#103 = CARTESIAN_POINT ( 'NONE',  ( 4.389964282807362285E-17, 0.0000000000000000000, 0.3584677872725283154 ) ) ;
#104 = AXIS2_PLACEMENT_3D ( 'NONE', #193, #135, #191 ) ;
#105 = PRESENTATION_LAYER_ASSIGNMENT (  '', '', ( #171 ) ) ;
#106 = ORIENTED_EDGE ( 'NONE', *, *, #252, .T. ) ;
#107 = ADVANCED_FACE ( 'NONE', ( #132 ), #198, .F. ) ;
#108 = ORIENTED_EDGE ( 'NONE', *, *, #25, .F. ) ;
#109 = CARTESIAN_POINT ( 'NONE',  ( 8.817456953860943597E-18, 0.0000000000000000000, 0.07199999999999999456 ) ) ;
#110 = DIRECTION ( 'NONE',  ( -1.000000000000000000, 0.0000000000000000000, 0.0000000000000000000 ) ) ;
#111 = EDGE_CURVE ( 'NONE', #102, #240, #17, .T. ) ;
#112 = UNCERTAINTY_MEASURE_WITH_UNIT (LENGTH_MEASURE( 1.000000000000000082E-05 ), #115, 'distance_accuracy_value', 'NONE');
#113 = LINE ( 'NONE', #160, #94 ) ;
#114 = EDGE_CURVE ( 'NONE', #96, #30, #287, .T. ) ;
#115 =( CONVERSION_BASED_UNIT ( 'INCH', #134 ) LENGTH_UNIT ( ) NAMED_UNIT ( #235 ) );
#116 = DIRECTION ( 'NONE',  ( -0.0000000000000000000, -0.0000000000000000000, -1.000000000000000000 ) ) ;
#117 = CONICAL_SURFACE ( 'NONE', #18, 0.01198799999999999866, 0.1745329251994338915 ) ;
#118 = AXIS2_PLACEMENT_3D ( 'NONE', #289, #268, #54 ) ;
#119 = ORIENTED_EDGE ( 'NONE', *, *, #296, .T. ) ;
#120 = CARTESIAN_POINT ( 'NONE',  ( 0.0000000000000000000, 0.0000000000000000000, 1.500000000000000222 ) ) ;
#121 = EDGE_LOOP ( 'NONE', ( #188, #150, #261, #144 ) ) ;
#122 = ORIENTED_EDGE ( 'NONE', *, *, #279, .T. ) ;
#123 = AXIS2_PLACEMENT_3D ( 'NONE', #221, #236, #26 ) ;
#124 = EDGE_LOOP ( 'NONE', ( #53, #159, #127, #266 ) ) ;
#125 = EDGE_CURVE ( 'NONE', #240, #146, #258, .T. ) ;
#126 = LENGTH_MEASURE_WITH_UNIT ( LENGTH_MEASURE( 0.02539999999999999897 ), #75 );
#127 = ORIENTED_EDGE ( 'NONE', *, *, #111, .T. ) ;
#128 = DIRECTION ( 'NONE',  ( -1.000000000000000000, 0.0000000000000000000, 0.0000000000000000000 ) ) ;
#129 = CYLINDRICAL_SURFACE ( 'NONE', #123, 0.06250000000000002776 ) ;
#130 = CONICAL_SURFACE ( 'NONE', #225, 0.01198799999999999866, 0.1745329251994338915 ) ;
#131 = VECTOR ( 'NONE', #283, 39.37007874015748143 ) ;
#132 = FACE_OUTER_BOUND ( 'NONE', #10, .T. ) ;
#133 =( GEOMETRIC_REPRESENTATION_CONTEXT ( 3 ) GLOBAL_UNCERTAINTY_ASSIGNED_CONTEXT ( ( #201 ) ) GLOBAL_UNIT_ASSIGNED_CONTEXT ( ( #246, #269, #33 ) ) REPRESENTATION_CONTEXT ( 'NONE', 'WORKASPACE' ) );
#134 = LENGTH_MEASURE_WITH_UNIT ( LENGTH_MEASURE( 0.02539999999999999897 ), #169 );
#135 = DIRECTION ( 'NONE',  ( 0.0000000000000000000, 0.0000000000000000000, -1.000000000000000000 ) ) ;
#136 = DIRECTION ( 'NONE',  ( -1.000000000000000000, 0.0000000000000000000, 1.224646799147353454E-16 ) ) ;
#137 =( NAMED_UNIT ( * ) PLANE_ANGLE_UNIT ( ) SI_UNIT ( $, .RADIAN. ) );
#138 = CONICAL_SURFACE ( 'NONE', #88, 0.04750000000000064587, 0.7853981633974466137 ) ;
#139 = EDGE_CURVE ( 'NONE', #30, #32, #298, .T. ) ;
#140 = CARTESIAN_POINT ( 'NONE',  ( 8.817456953860943597E-18, 0.0000000000000000000, 0.07199999999999999456 ) ) ;
#141 = DIRECTION ( 'NONE',  ( 0.0000000000000000000, 0.0000000000000000000, 1.000000000000000000 ) ) ;
#142 = CARTESIAN_POINT ( 'NONE',  ( -0.01198799999999999866, 0.0000000000000000000, 2.936213165635694105E-18 ) ) ;
#143 = CIRCLE ( 'NONE', #24, 0.01198799999999999866 ) ;
#144 = ORIENTED_EDGE ( 'NONE', *, *, #111, .F. ) ;
#145 = LINE ( 'NONE', #238, #220 ) ;
#146 = VERTEX_POINT ( 'NONE', #255 ) ;
#147 = DIRECTION ( 'NONE',  ( -1.224646799147353454E-16, -0.0000000000000000000, -1.000000000000000000 ) ) ;
#148 = CARTESIAN_POINT ( 'NONE',  ( 0.0000000000000000000, 0.0000000000000000000, 0.0000000000000000000 ) ) ;
#149 = DIRECTION ( 'NONE',  ( 0.0000000000000000000, 0.0000000000000000000, 1.000000000000000000 ) ) ;
#150 = ORIENTED_EDGE ( 'NONE', *, *, #224, .T. ) ;
#151 = PRESENTATION_LAYER_ASSIGNMENT (  '', '', ( #31 ) ) ;
#152 = DIRECTION ( 'NONE',  ( 1.000000000000000000, 0.0000000000000000000, 0.0000000000000000000 ) ) ;
#153 = CARTESIAN_POINT ( 'NONE',  ( 0.0000000000000000000, 0.0000000000000000000, 1.500000000000000222 ) ) ;
#154 = EDGE_CURVE ( 'NONE', #186, #213, #253, .T. ) ;
#155 = DIRECTION ( 'NONE',  ( -1.000000000000000000, 0.0000000000000000000, 1.224646799147353454E-16 ) ) ;
#156 = CIRCLE ( 'NONE', #230, 0.04750000000000064587 ) ;
#157 = ADVANCED_FACE ( 'NONE', ( #39 ), #129, .T. ) ;
#158 = DIRECTION ( 'NONE',  ( 1.000000000000000000, 0.0000000000000000000, 0.0000000000000000000 ) ) ;
#159 = ORIENTED_EDGE ( 'NONE', *, *, #85, .T. ) ;
#160 = CARTESIAN_POINT ( 'NONE',  ( 0.01198800000000000733, 0.0000000000000000000, 0.07199999999999999456 ) ) ;
#161 = PRESENTATION_STYLE_ASSIGNMENT (( #256 ) ) ;
#162 = ORIENTED_EDGE ( 'NONE', *, *, #294, .F. ) ;
#163 = FACE_OUTER_BOUND ( 'NONE', #216, .T. ) ;
#164 = EDGE_LOOP ( 'NONE', ( #290, #98, #168, #50 ) ) ;
#165 = CARTESIAN_POINT ( 'NONE',  ( 0.06250000000000006939, 7.654042494670963708E-18, 0.3584677872725283154 ) ) ;
#166 = AXIS2_PLACEMENT_3D ( 'NONE', #273, #222, #155 ) ;
#167 =( GEOMETRIC_REPRESENTATION_CONTEXT ( 3 ) GLOBAL_UNCERTAINTY_ASSIGNED_CONTEXT ( ( #112 ) ) GLOBAL_UNIT_ASSIGNED_CONTEXT ( ( #115, #243, #80 ) ) REPRESENTATION_CONTEXT ( 'NONE', 'WORKASPACE' ) );
#168 = ORIENTED_EDGE ( 'NONE', *, *, #196, .T. ) ;
#169 =( LENGTH_UNIT ( ) NAMED_UNIT ( * ) SI_UNIT ( $, .METRE. ) );
#170 = CARTESIAN_POINT ( 'NONE',  ( 0.06250000000000002776, 7.654042494670959086E-18, 1.485000000000000764 ) ) ;
#171 = STYLED_ITEM ( 'NONE', ( #161 ), #223 ) ;
#172 = CARTESIAN_POINT ( 'NONE',  ( 0.0000000000000000000, 0.0000000000000000000, 0.0000000000000000000 ) ) ;
#173 = APPLICATION_CONTEXT ( 'automotive_design' ) ;
#174 = DIRECTION ( 'NONE',  ( 1.000000000000000000, 0.0000000000000000000, 0.0000000000000000000 ) ) ;
#175 = ADVANCED_FACE ( 'NONE', ( #285 ), #117, .T. ) ;
#176 = DIRECTION ( 'NONE',  ( -1.000000000000000000, 0.0000000000000000000, 1.224646799147353454E-16 ) ) ;
#177 = AXIS2_PLACEMENT_3D ( 'NONE', #109, #247, #128 ) ;
#178 = AXIS2_PLACEMENT_3D ( 'NONE', #180, #1, #90 ) ;
#179 = DIRECTION ( 'NONE',  ( 0.0000000000000000000, 0.0000000000000000000, 1.000000000000000000 ) ) ;
#180 = CARTESIAN_POINT ( 'NONE',  ( 0.0000000000000000000, 0.0000000000000000000, 1.500000000000000222 ) ) ;
#181 = CARTESIAN_POINT ( 'NONE',  ( 0.0000000000000000000, 0.0000000000000000000, 1.500000000000000222 ) ) ;
#182 = COLOUR_RGB ( '',0.7921568627450980005, 0.8196078431372548767, 0.9333333333333333481 ) ;
#183 = LINE ( 'NONE', #28, #299 ) ;
#184 = ORIENTED_EDGE ( 'NONE', *, *, #25, .T. ) ;
#185 = ADVANCED_FACE ( 'NONE', ( #45 ), #57, .T. ) ;
#186 = VERTEX_POINT ( 'NONE', #286 ) ;
#187 = ADVANCED_FACE ( 'NONE', ( #163 ), #138, .T. ) ;
#188 = ORIENTED_EDGE ( 'NONE', *, *, #294, .T. ) ;
#189 = CARTESIAN_POINT ( 'NONE',  ( 0.04750000000000064587, 6.735557395310483192E-18, 1.500000000000000222 ) ) ;
#190 = CARTESIAN_POINT ( 'NONE',  ( 1.797912027455035388E-34, 0.0000000000000000000, 1.468106582817847053E-18 ) ) ;
#191 = DIRECTION ( 'NONE',  ( 1.000000000000000000, 0.0000000000000000000, 0.0000000000000000000 ) ) ;
#192 = DIRECTION ( 'NONE',  ( -1.000000000000000000, 0.0000000000000000000, 1.224646799147353454E-16 ) ) ;
#193 = CARTESIAN_POINT ( 'NONE',  ( 0.0000000000000000000, 0.0000000000000000000, 1.485000000000000764 ) ) ;
#194 = ADVANCED_FACE ( 'NONE', ( #202 ), #2, .T. ) ;
#195 = AXIS2_PLACEMENT_3D ( 'NONE', #232, #97, #74 ) ;
#196 = EDGE_CURVE ( 'NONE', #9, #213, #113, .T. ) ;
#197 = CARTESIAN_POINT ( 'NONE',  ( 0.0000000000000000000, 0.0000000000000000000, 1.500000000000000222 ) ) ;
#198 = PLANE ( 'NONE',  #56 ) ;
#199 = APPLICATION_CONTEXT ( 'automotive_design' ) ;
#200 = AXIS2_PLACEMENT_3D ( 'NONE', #148, #149, #52 ) ;
#201 = UNCERTAINTY_MEASURE_WITH_UNIT (LENGTH_MEASURE( 1.000000000000000082E-05 ), #246, 'distance_accuracy_value', 'NONE');
#202 = FACE_OUTER_BOUND ( 'NONE', #48, .T. ) ;
#203 = CLOSED_SHELL ( 'NONE', ( #91, #51, #187, #194, #157, #245, #185, #175, #35, #107 ) ) ;
#204 = DIRECTION ( 'NONE',  ( -1.000000000000000000, 0.0000000000000000000, 0.0000000000000000000 ) ) ;
#205 = LENGTH_MEASURE_WITH_UNIT ( LENGTH_MEASURE( 0.02539999999999999897 ), #262 );
#206 = VECTOR ( 'NONE', #65, 39.37007874015748854 ) ;
#207 = DIRECTION ( 'NONE',  ( 0.0000000000000000000, 0.0000000000000000000, -1.000000000000000000 ) ) ;
#208 = PRODUCT_DEFINITION_SHAPE ( 'NONE', 'NONE',  #217 ) ;
#209 = EDGE_LOOP ( 'NONE', ( #210, #184 ) ) ;
#210 = ORIENTED_EDGE ( 'NONE', *, *, #114, .T. ) ;
#211 = PRODUCT ( 'Micro_RME-024-2X', 'Micro_RME-024-2X', '', ( #212 ) ) ;
#212 = PRODUCT_CONTEXT ( 'NONE', #173, 'mechanical' ) ;
#213 = VERTEX_POINT ( 'NONE', #165 ) ;
#214 = CARTESIAN_POINT ( 'NONE',  ( -0.04750000000000064587, 0.0000000000000000000, 1.500000000000000222 ) ) ;
#215 = APPLICATION_PROTOCOL_DEFINITION ( 'draft international standard', 'automotive_design', 1998, #173 ) ;
#216 = EDGE_LOOP ( 'NONE', ( #108, #12, #55, #237 ) ) ;
#217 = PRODUCT_DEFINITION ( 'UNKNOWN', '', #70, #92 ) ;
#218 = SHAPE_DEFINITION_REPRESENTATION ( #208, #6 ) ;
#219 = CARTESIAN_POINT ( 'NONE',  ( 0.0000000000000000000, 0.0000000000000000000, 0.0000000000000000000 ) ) ;
#220 = VECTOR ( 'NONE', #89, 39.37007874015748143 ) ;
#221 = CARTESIAN_POINT ( 'NONE',  ( 0.0000000000000000000, 0.0000000000000000000, 1.500000000000000222 ) ) ;
#222 = DIRECTION ( 'NONE',  ( -1.224646799147353454E-16, -0.0000000000000000000, -1.000000000000000000 ) ) ;
#223 = MANIFOLD_SOLID_BREP ( 'Cut-Revolve1', #203 ) ;
#224 = EDGE_CURVE ( 'NONE', #9, #146, #3, .T. ) ;
#225 = AXIS2_PLACEMENT_3D ( 'NONE', #87, #83, #174 ) ;
#226 = MECHANICAL_DESIGN_GEOMETRIC_PRESENTATION_REPRESENTATION (  '', ( #31 ), #133 ) ;
#227 = CARTESIAN_POINT ( 'NONE',  ( -0.01198799999999998998, 1.468106582817846860E-18, 0.07199999999999999456 ) ) ;
#228 = DIMENSIONAL_EXPONENTS ( 1.000000000000000000, 0.0000000000000000000, 0.0000000000000000000, 0.0000000000000000000, 0.0000000000000000000, 0.0000000000000000000, 0.0000000000000000000 ) ;
#229 = LINE ( 'NONE', #227, #64 ) ;
#230 = AXIS2_PLACEMENT_3D ( 'NONE', #197, #44, #43 ) ;
#231 = AXIS2_PLACEMENT_3D ( 'NONE', #103, #81, #158 ) ;
#232 = CARTESIAN_POINT ( 'NONE',  ( 0.0000000000000000000, 0.0000000000000000000, 1.485000000000000764 ) ) ;
#233 = ORIENTED_EDGE ( 'NONE', *, *, #281, .T. ) ;
#234 = VECTOR ( 'NONE', #23, 39.37007874015748143 ) ;
#235 = DIMENSIONAL_EXPONENTS ( 1.000000000000000000, 0.0000000000000000000, 0.0000000000000000000, 0.0000000000000000000, 0.0000000000000000000, 0.0000000000000000000, 0.0000000000000000000 ) ;
#236 = DIRECTION ( 'NONE',  ( -0.0000000000000000000, -0.0000000000000000000, -1.000000000000000000 ) ) ;
#237 = ORIENTED_EDGE ( 'NONE', *, *, #296, .F. ) ;
#238 = CARTESIAN_POINT ( 'NONE',  ( -0.06250000000000002776, 0.0000000000000000000, 1.500000000000000222 ) ) ;
#239 = PRESENTATION_STYLE_ASSIGNMENT (( #16 ) ) ;
#240 = VERTEX_POINT ( 'NONE', #142 ) ;
#241 = EDGE_LOOP ( 'NONE', ( #267, #106, #122, #79 ) ) ;
#242 = LINE ( 'NONE', #214, #62 ) ;
#243 =( NAMED_UNIT ( * ) PLANE_ANGLE_UNIT ( ) SI_UNIT ( $, .RADIAN. ) );
#244 = ORIENTED_EDGE ( 'NONE', *, *, #257, .T. ) ;
#245 = ADVANCED_FACE ( 'NONE', ( #4 ), #260, .T. ) ;
#246 =( CONVERSION_BASED_UNIT ( 'INCH', #126 ) LENGTH_UNIT ( ) NAMED_UNIT ( #259 ) );
#247 = DIRECTION ( 'NONE',  ( -1.224646799147353454E-16, -0.0000000000000000000, -1.000000000000000000 ) ) ;
#248 = DIRECTION ( 'NONE',  ( 1.000000000000000000, 0.0000000000000000000, 0.0000000000000000000 ) ) ;
#249 = AXIS2_PLACEMENT_3D ( 'NONE', #219, #21, #136 ) ;
#250 = CIRCLE ( 'NONE', #118, 0.01198799999999999866 ) ;
#251 = FACE_OUTER_BOUND ( 'NONE', #121, .T. ) ;
#252 = EDGE_CURVE ( 'NONE', #32, #77, #11, .T. ) ;
#253 = CIRCLE ( 'NONE', #231, 0.06250000000000002776 ) ;
#254 = DIRECTION ( 'NONE',  ( -1.224646799147353454E-16, -0.0000000000000000000, -1.000000000000000000 ) ) ;
#255 = CARTESIAN_POINT ( 'NONE',  ( 0.01198799999999999866, 1.468106582817846860E-18, 0.0000000000000000000 ) ) ;
#256 = SURFACE_STYLE_USAGE ( .BOTH. , #265 ) ;
#257 = EDGE_CURVE ( 'NONE', #32, #213, #183, .T. ) ;
#258 = CIRCLE ( 'NONE', #42, 0.01198799999999999866 ) ;
#259 = DIMENSIONAL_EXPONENTS ( 1.000000000000000000, 0.0000000000000000000, 0.0000000000000000000, 0.0000000000000000000, 0.0000000000000000000, 0.0000000000000000000, 0.0000000000000000000 ) ;
#260 = PLANE ( 'NONE',  #282 ) ;
#261 = ORIENTED_EDGE ( 'NONE', *, *, #125, .F. ) ;
#262 =( LENGTH_UNIT ( ) NAMED_UNIT ( * ) SI_UNIT ( $, .METRE. ) );
#263 = ORIENTED_EDGE ( 'NONE', *, *, #114, .F. ) ;
#264 = COLOUR_RGB ( '',0.7921568627450980005, 0.8196078431372548767, 0.9333333333333333481 ) ;
#265 = SURFACE_SIDE_STYLE ('',( #27 ) ) ;
#266 = ORIENTED_EDGE ( 'NONE', *, *, #281, .F. ) ;
#267 = ORIENTED_EDGE ( 'NONE', *, *, #257, .F. ) ;
#268 = DIRECTION ( 'NONE',  ( -1.224646799147353454E-16, -0.0000000000000000000, -1.000000000000000000 ) ) ;
#269 =( NAMED_UNIT ( * ) PLANE_ANGLE_UNIT ( ) SI_UNIT ( $, .RADIAN. ) );
#270 = ORIENTED_EDGE ( 'NONE', *, *, #252, .F. ) ;
#271 =( GEOMETRIC_REPRESENTATION_CONTEXT ( 3 ) GLOBAL_UNCERTAINTY_ASSIGNED_CONTEXT ( ( #22 ) ) GLOBAL_UNIT_ASSIGNED_CONTEXT ( ( #95, #137, #46 ) ) REPRESENTATION_CONTEXT ( 'NONE', 'WORKASPACE' ) );
#272 = CARTESIAN_POINT ( 'NONE',  ( -0.01198799999999998998, 4.561074538744403069E-18, 0.07199999999999999456 ) ) ;
#273 = CARTESIAN_POINT ( 'NONE',  ( 0.0000000000000000000, 0.0000000000000000000, 0.0000000000000000000 ) ) ;
#274 = DIRECTION ( 'NONE',  ( -0.1736481776669311916, 2.126576849575783316E-17, 0.9848077530122080203 ) ) ;
#275 = CARTESIAN_POINT ( 'NONE',  ( 0.04750000000000064587, 5.817072295950006528E-18, 1.500000000000000222 ) ) ;
#276 = AXIS2_PLACEMENT_3D ( 'NONE', #181, #207, #110 ) ;
#277 = DIRECTION ( 'NONE',  ( 0.0000000000000000000, 0.0000000000000000000, 1.000000000000000000 ) ) ;
#278 = FILL_AREA_STYLE ('',( #69 ) ) ;
#279 = EDGE_CURVE ( 'NONE', #77, #186, #145, .T. ) ;
#280 = DIRECTION ( 'NONE',  ( 0.1736481776669313859, 0.0000000000000000000, 0.9848077530122077983 ) ) ;
#281 = EDGE_CURVE ( 'NONE', #146, #240, #143, .T. ) ;
#282 = AXIS2_PLACEMENT_3D ( 'NONE', #47, #141, #7 ) ;
#283 = DIRECTION ( 'NONE',  ( -1.224646799147353454E-16, -0.0000000000000000000, -1.000000000000000000 ) ) ;
#284 = ORIENTED_EDGE ( 'NONE', *, *, #29, .T. ) ;
#285 = FACE_OUTER_BOUND ( 'NONE', #164, .T. ) ;
#286 = CARTESIAN_POINT ( 'NONE',  ( -0.06249999999999997918, 0.0000000000000000000, 0.3584677872725283154 ) ) ;
#287 = CIRCLE ( 'NONE', #61, 0.04750000000000064587 ) ;
#288 = EDGE_LOOP ( 'NONE', ( #162, #15, #101, #5 ) ) ;
#289 = CARTESIAN_POINT ( 'NONE',  ( 8.817456953860943597E-18, 0.0000000000000000000, 0.07199999999999999456 ) ) ;
#290 = ORIENTED_EDGE ( 'NONE', *, *, #66, .F. ) ;
#291 = CARTESIAN_POINT ( 'NONE',  ( 1.797912027455035388E-34, 0.0000000000000000000, 1.468106582817847053E-18 ) ) ;
#292 = CIRCLE ( 'NONE', #104, 0.06250000000000002776 ) ;
#293 = ORIENTED_EDGE ( 'NONE', *, *, #125, .T. ) ;
#294 = EDGE_CURVE ( 'NONE', #102, #9, #250, .T. ) ;
#295 = FACE_OUTER_BOUND ( 'NONE', #124, .T. ) ;
#296 = EDGE_CURVE ( 'NONE', #96, #77, #242, .T. ) ;
#297 = CARTESIAN_POINT ( 'NONE',  ( 0.01198800000000000733, 0.0000000000000000000, 0.07199999999999999456 ) ) ;
#298 = LINE ( 'NONE', #275, #206 ) ;
#299 = VECTOR ( 'NONE', #116, 39.37007874015748143 ) ;
ENDSEC;
END-ISO-10303-21;
