ISO-10303-21;
HEADER;
FILE_DESCRIPTION (( 'STEP AP214' ),
    '1' );
FILE_NAME ('82253.STEP',
    '2023-06-23T04:14:00',
    ( '' ),
    ( '' ),
    'SwSTEP 2.0',
    'SolidWorks 2023',
    '' );
FILE_SCHEMA (( 'AUTOMOTIVE_DESIGN' ));
ENDSEC;

DATA;
#1 = APPLICATION_CONTEXT ( 'automotive_design' ) ;
#2 = DIRECTION ( 'NONE',  ( -0.000000000000000000, -1.000000000000000000, -0.000000000000000000 ) ) ;
#3 = DIRECTION ( 'NONE',  ( -0.000000000000000000, -1.000000000000000000, -0.000000000000000000 ) ) ;
#4 = AXIS2_PLACEMENT_3D ( 'NONE', #309, #102, #172 ) ;
#5 = SURFACE_SIDE_STYLE ('',( #253 ) ) ;
#6 = CARTESIAN_POINT ( 'NONE',  ( -0.06249999999999955591, 2.500000000000000000, 0.000000000000000000 ) ) ;
#7 = EDGE_LOOP ( 'NONE', ( #271, #161, #112, #166 ) ) ;
#8 = AXIS2_PLACEMENT_3D ( 'NONE', #20, #290, #288 ) ;
#9 = EDGE_CURVE ( 'NONE', #174, #104, #202, .T. ) ;
#10 = LENGTH_MEASURE_WITH_UNIT ( LENGTH_MEASURE( 0.02539999999999999897 ), #303 );
#11 = CARTESIAN_POINT ( 'NONE',  ( 0.06250000000000002776, 2.500000000000000000, 7.654042494670951382E-18 ) ) ;
#12 = DIRECTION ( 'NONE',  ( 0.000000000000000000, 0.000000000000000000, -1.000000000000000000 ) ) ;
#13 = DIRECTION ( 'NONE',  ( -0.000000000000000000, -1.000000000000000000, -0.000000000000000000 ) ) ;
#14 = STYLED_ITEM ( 'NONE', ( #75 ), #168 ) ;
#15 = STYLED_ITEM ( 'NONE', ( #42 ), #46 ) ;
#16 = AXIS2_PLACEMENT_3D ( 'NONE', #295, #177, #134 ) ;
#17 = FILL_AREA_STYLE ('',( #92 ) ) ;
#18 = LENGTH_MEASURE_WITH_UNIT ( LENGTH_MEASURE( 0.02539999999999999897 ), #148 );
#19 = SURFACE_STYLE_FILL_AREA ( #240 ) ;
#20 = CARTESIAN_POINT ( 'NONE',  ( 3.061616997868383141E-16, 2.500000000000000000, 0.000000000000000000 ) ) ;
#21 = ADVANCED_BREP_SHAPE_REPRESENTATION ( '82253', ( #247, #38, #214 ), #275 ) ;
#22 = STYLED_ITEM ( 'NONE', ( #270 ), #101 ) ;
#23 = UNCERTAINTY_MEASURE_WITH_UNIT (LENGTH_MEASURE( 1.000000000000000082E-05 ), #99, 'distance_accuracy_value', 'NONE');
#24 = CARTESIAN_POINT ( 'NONE',  ( 3.061616997868383141E-16, 2.500000000000000000, 0.000000000000000000 ) ) ;
#25 = SURFACE_STYLE_FILL_AREA ( #171 ) ;
#26 = FACE_OUTER_BOUND ( 'NONE', #7, .T. ) ;
#27 = PRODUCT_DEFINITION_CONTEXT ( 'detailed design', #1, 'design' ) ;
#28 = DIRECTION ( 'NONE',  ( 0.000000000000000000, 0.000000000000000000, -1.000000000000000000 ) ) ;
#29 = PRODUCT_DEFINITION_FORMATION_WITH_SPECIFIED_SOURCE ( 'ANY', '', #77, .NOT_KNOWN. ) ;
#30 = ORIENTED_EDGE ( 'NONE', *, *, #186, .F. ) ;
#31 = DIRECTION ( 'NONE',  ( -1.000000000000000000, 1.884071998688235248E-16, 0.000000000000000000 ) ) ;
#32 = ORIENTED_EDGE ( 'NONE', *, *, #181, .T. ) ;
#33 =( CONVERSION_BASED_UNIT ( 'INCH', #153 ) LENGTH_UNIT ( ) NAMED_UNIT ( #94 ) );
#34 = DIRECTION ( 'NONE',  ( -0.000000000000000000, -1.000000000000000000, -0.000000000000000000 ) ) ;
#35 = VECTOR ( 'NONE', #183, 39.37007874015748143 ) ;
#36 = CARTESIAN_POINT ( 'NONE',  ( 0.000000000000000000, 0.8749999999999997780, 0.000000000000000000 ) ) ;
#37 = FILL_AREA_STYLE_COLOUR ( '', #156 ) ;
#38 = MANIFOLD_SOLID_BREP ( 'Revolve - Tool Body (Straight Shanked)', #250 ) ;
#39 =( NAMED_UNIT ( * ) PLANE_ANGLE_UNIT ( ) SI_UNIT ( $, .RADIAN. ) );
#40 =( CONVERSION_BASED_UNIT ( 'INCH', #284 ) LENGTH_UNIT ( ) NAMED_UNIT ( #203 ) );
#41 = ORIENTED_EDGE ( 'NONE', *, *, #111, .T. ) ;
#42 = PRESENTATION_STYLE_ASSIGNMENT (( #136 ) ) ;
#43 = SURFACE_STYLE_FILL_AREA ( #263 ) ;
#44 = VECTOR ( 'NONE', #13, 39.37007874015748143 ) ;
#45 = DIRECTION ( 'NONE',  ( 1.000000000000000000, 0.000000000000000000, 0.000000000000000000 ) ) ;
#46 = ADVANCED_FACE ( 'NONE', ( #70 ), #281, .T. ) ;
#47 = SHAPE_DEFINITION_REPRESENTATION ( #209, #21 ) ;
#48 = DIRECTION ( 'NONE',  ( 0.000000000000000000, -1.000000000000000000, -0.000000000000000000 ) ) ;
#49 = SURFACE_SIDE_STYLE ('',( #25 ) ) ;
#50 =( NAMED_UNIT ( * ) SI_UNIT ( $, .STERADIAN. ) SOLID_ANGLE_UNIT ( ) );
#51 =( GEOMETRIC_REPRESENTATION_CONTEXT ( 3 ) GLOBAL_UNCERTAINTY_ASSIGNED_CONTEXT ( ( #69 ) ) GLOBAL_UNIT_ASSIGNED_CONTEXT ( ( #68, #116, #180 ) ) REPRESENTATION_CONTEXT ( 'NONE', 'WORKASPACE' ) );
#52 = ORIENTED_EDGE ( 'NONE', *, *, #304, .T. ) ;
#53 = DIRECTION ( 'NONE',  ( 0.000000000000000000, 0.000000000000000000, -1.000000000000000000 ) ) ;
#54 = CARTESIAN_POINT ( 'NONE',  ( 0.06250000000000001388, 2.500000000000000000, 0.000000000000000000 ) ) ;
#55 = EDGE_CURVE ( 'NONE', #237, #60, #258, .T. ) ;
#56 = DIRECTION ( 'NONE',  ( -1.000000000000000000, 0.000000000000000000, 0.000000000000000000 ) ) ;
#57 = MECHANICAL_DESIGN_GEOMETRIC_PRESENTATION_REPRESENTATION (  '', ( #141 ), #260 ) ;
#58 = AXIS2_PLACEMENT_3D ( 'NONE', #142, #3, #238 ) ;
#59 = CIRCLE ( 'NONE', #213, 0.06250000000000001388 ) ;
#60 = VERTEX_POINT ( 'NONE', #11 ) ;
#61 = PRESENTATION_STYLE_ASSIGNMENT (( #91 ) ) ;
#62 = CARTESIAN_POINT ( 'NONE',  ( 0.000000000000000000, 0.000000000000000000, 0.000000000000000000 ) ) ;
#63 = DIRECTION ( 'NONE',  ( 1.884071998688235248E-16, 1.000000000000000000, -0.000000000000000000 ) ) ;
#64 = SURFACE_STYLE_FILL_AREA ( #17 ) ;
#65 = AXIS2_PLACEMENT_3D ( 'NONE', #36, #199, #129 ) ;
#66 = LINE ( 'NONE', #159, #301 ) ;
#67 = EDGE_CURVE ( 'NONE', #196, #145, #66, .T. ) ;
#68 =( CONVERSION_BASED_UNIT ( 'INCH', #10 ) LENGTH_UNIT ( ) NAMED_UNIT ( #173 ) );
#69 = UNCERTAINTY_MEASURE_WITH_UNIT (LENGTH_MEASURE( 1.000000000000000082E-05 ), #68, 'distance_accuracy_value', 'NONE');
#70 = FACE_OUTER_BOUND ( 'NONE', #200, .T. ) ;
#71 = PRESENTATION_LAYER_ASSIGNMENT (  '', '', ( #15 ) ) ;
#72 = EDGE_CURVE ( 'NONE', #174, #196, #188, .T. ) ;
#73 = DIRECTION ( 'NONE',  ( 0.000000000000000000, 0.000000000000000000, 1.000000000000000000 ) ) ;
#74 = ADVANCED_FACE ( 'NONE', ( #195 ), #246, .T. ) ;
#75 = PRESENTATION_STYLE_ASSIGNMENT (( #287 ) ) ;
#76 = FACE_OUTER_BOUND ( 'NONE', #231, .T. ) ;
#77 = PRODUCT ( '82253', '82253', '', ( #289 ) ) ;
#78 = DIRECTION ( 'NONE',  ( 1.884071998688235495E-16, 1.000000000000000000, -0.000000000000000000 ) ) ;
#79 = DIRECTION ( 'NONE',  ( -1.000000000000000000, 0.000000000000000000, 0.000000000000000000 ) ) ;
#80 = UNCERTAINTY_MEASURE_WITH_UNIT (LENGTH_MEASURE( 1.000000000000000082E-05 ), #292, 'distance_accuracy_value', 'NONE');
#81 = PRODUCT_DEFINITION ( 'UNKNOWN', '', #29, #27 ) ;
#82 = CARTESIAN_POINT ( 'NONE',  ( 7.654042494670959086E-18, 0.000000000000000000, 0.06250000000000001388 ) ) ;
#83 = ORIENTED_EDGE ( 'NONE', *, *, #9, .T. ) ;
#84 = FILL_AREA_STYLE ('',( #232 ) ) ;
#85 =( GEOMETRIC_REPRESENTATION_CONTEXT ( 3 ) GLOBAL_UNCERTAINTY_ASSIGNED_CONTEXT ( ( #23 ) ) GLOBAL_UNIT_ASSIGNED_CONTEXT ( ( #99, #242, #170 ) ) REPRESENTATION_CONTEXT ( 'NONE', 'WORKASPACE' ) );
#86 = ORIENTED_EDGE ( 'NONE', *, *, #222, .F. ) ;
#87 = EDGE_LOOP ( 'NONE', ( #229, #244, #296, #273 ) ) ;
#88 = DIRECTION ( 'NONE',  ( -0.000000000000000000, -1.000000000000000000, -0.000000000000000000 ) ) ;
#89 = SURFACE_SIDE_STYLE ('',( #208 ) ) ;
#90 = STYLED_ITEM ( 'NONE', ( #236 ), #38 ) ;
#91 = SURFACE_STYLE_USAGE ( .BOTH. , #5 ) ;
#92 = FILL_AREA_STYLE_COLOUR ( '', #108 ) ;
#93 =( NAMED_UNIT ( * ) PLANE_ANGLE_UNIT ( ) SI_UNIT ( $, .RADIAN. ) );
#94 = DIMENSIONAL_EXPONENTS ( 1.000000000000000000, 0.000000000000000000, 0.000000000000000000, 0.000000000000000000, 0.000000000000000000, 0.000000000000000000, 0.000000000000000000 ) ;
#95 = DIMENSIONAL_EXPONENTS ( 1.000000000000000000, 0.000000000000000000, 0.000000000000000000, 0.000000000000000000, 0.000000000000000000, 0.000000000000000000, 0.000000000000000000 ) ;
#96 = CARTESIAN_POINT ( 'NONE',  ( 0.000000000000000000, 0.000000000000000000, 0.000000000000000000 ) ) ;
#97 = COLOUR_RGB ( '',0.7921568627450980005, 0.8196078431372548767, 0.9333333333333333481 ) ;
#98 = CIRCLE ( 'NONE', #249, 0.06250000000000001388 ) ;
#99 =( CONVERSION_BASED_UNIT ( 'INCH', #194 ) LENGTH_UNIT ( ) NAMED_UNIT ( #256 ) );
#100 = CYLINDRICAL_SURFACE ( 'NONE', #103, 0.06249999999999986122 ) ;
#101 = ADVANCED_FACE ( 'NONE', ( #76 ), #221, .T. ) ;
#102 = DIRECTION ( 'NONE',  ( -0.000000000000000000, -1.000000000000000000, -0.000000000000000000 ) ) ;
#103 = AXIS2_PLACEMENT_3D ( 'NONE', #122, #283, #79 ) ;
#104 = VERTEX_POINT ( 'NONE', #119 ) ;
#105 = FILL_AREA_STYLE_COLOUR ( '', #164 ) ;
#106 = CARTESIAN_POINT ( 'NONE',  ( 1.109289780075338550E-33, 0.8750000000000000000, 0.000000000000000000 ) ) ;
#107 = DIRECTION ( 'NONE',  ( 0.000000000000000000, 0.000000000000000000, -1.000000000000000000 ) ) ;
#108 = COLOUR_RGB ( '',0.7921568627450980005, 0.8196078431372548767, 0.9333333333333333481 ) ;
#109 =( NAMED_UNIT ( * ) PLANE_ANGLE_UNIT ( ) SI_UNIT ( $, .RADIAN. ) );
#110 = LENGTH_MEASURE_WITH_UNIT ( LENGTH_MEASURE( 0.02539999999999999897 ), #300 );
#111 = EDGE_CURVE ( 'NONE', #104, #145, #306, .T. ) ;
#112 = ORIENTED_EDGE ( 'NONE', *, *, #111, .F. ) ;
#113 = CLOSED_SHELL ( 'NONE', ( #210, #101, #46, #168 ) ) ;
#114 = AXIS2_PLACEMENT_3D ( 'NONE', #225, #48, #28 ) ;
#115 =( NAMED_UNIT ( * ) SI_UNIT ( $, .STERADIAN. ) SOLID_ANGLE_UNIT ( ) );
#116 =( NAMED_UNIT ( * ) PLANE_ANGLE_UNIT ( ) SI_UNIT ( $, .RADIAN. ) );
#117 = EDGE_LOOP ( 'NONE', ( #152, #223, #52, #86 ) ) ;
#118 = SURFACE_SIDE_STYLE ('',( #19 ) ) ;
#119 = CARTESIAN_POINT ( 'NONE',  ( 0.000000000000000000, 0.000000000000000000, -0.06250000000000001388 ) ) ;
#120 = CIRCLE ( 'NONE', #16, 0.06249999999999970857 ) ;
#121 = DIRECTION ( 'NONE',  ( 1.884071998688235495E-16, 1.000000000000000000, -0.000000000000000000 ) ) ;
#122 = CARTESIAN_POINT ( 'NONE',  ( 3.061616997868383141E-16, 2.500000000000000000, 0.000000000000000000 ) ) ;
#123 = ADVANCED_FACE ( 'NONE', ( #243 ), #100, .T. ) ;
#124 = EDGE_LOOP ( 'NONE', ( #41, #160 ) ) ;
#125 = CYLINDRICAL_SURFACE ( 'NONE', #178, 0.06250000000000001388 ) ;
#126 = FACE_OUTER_BOUND ( 'NONE', #294, .T. ) ;
#127 = CARTESIAN_POINT ( 'NONE',  ( 0.000000000000000000, 0.8749999999999997780, 0.000000000000000000 ) ) ;
#128 = MECHANICAL_DESIGN_GEOMETRIC_PRESENTATION_REPRESENTATION (  '', ( #189 ), #293 ) ;
#129 = DIRECTION ( 'NONE',  ( -1.000000000000000000, 0.000000000000000000, 0.000000000000000000 ) ) ;
#130 = LINE ( 'NONE', #6, #239 ) ;
#131 = CARTESIAN_POINT ( 'NONE',  ( 0.06250000000000002776, 0.8749999999999997780, 7.654042494670951382E-18 ) ) ;
#132 = MECHANICAL_DESIGN_GEOMETRIC_PRESENTATION_REPRESENTATION (  '', ( #22 ), #264 ) ;
#133 = DIRECTION ( 'NONE',  ( 0.000000000000000000, 0.000000000000000000, -1.000000000000000000 ) ) ;
#134 = DIRECTION ( 'NONE',  ( -1.000000000000000000, 0.000000000000000000, 0.000000000000000000 ) ) ;
#135 = ADVANCED_FACE ( 'NONE', ( #126 ), #226, .F. ) ;
#136 = SURFACE_STYLE_USAGE ( .BOTH. , #89 ) ;
#137 =( NAMED_UNIT ( * ) SI_UNIT ( $, .STERADIAN. ) SOLID_ANGLE_UNIT ( ) );
#138 = ORIENTED_EDGE ( 'NONE', *, *, #169, .F. ) ;
#139 = AXIS2_PLACEMENT_3D ( 'NONE', #106, #63, #31 ) ;
#140 = CARTESIAN_POINT ( 'NONE',  ( 0.000000000000000000, 0.8750000000000000000, 0.000000000000000000 ) ) ;
#141 = STYLED_ITEM ( 'NONE', ( #197 ), #210 ) ;
#142 = CARTESIAN_POINT ( 'NONE',  ( 0.000000000000000000, 0.8750000000000000000, 0.000000000000000000 ) ) ;
#143 = UNCERTAINTY_MEASURE_WITH_UNIT (LENGTH_MEASURE( 1.000000000000000082E-05 ), #308, 'distance_accuracy_value', 'NONE');
#144 = CARTESIAN_POINT ( 'NONE',  ( 0.000000000000000000, 0.8750000000000000000, -0.06250000000000001388 ) ) ;
#145 = VERTEX_POINT ( 'NONE', #82 ) ;
#146 = CARTESIAN_POINT ( 'NONE',  ( 7.654042494670959086E-18, 0.8750000000000000000, 0.06250000000000001388 ) ) ;
#147 = ORIENTED_EDGE ( 'NONE', *, *, #259, .T. ) ;
#148 =( LENGTH_UNIT ( ) NAMED_UNIT ( * ) SI_UNIT ( $, .METRE. ) );
#149 = ORIENTED_EDGE ( 'NONE', *, *, #67, .F. ) ;
#150 = COLOUR_RGB ( '',1.000000000000000000, 0.000000000000000000, 0.000000000000000000 ) ;
#151 = PRODUCT_RELATED_PRODUCT_CATEGORY ( 'part', '', ( #77 ) ) ;
#152 = ORIENTED_EDGE ( 'NONE', *, *, #55, .F. ) ;
#153 = LENGTH_MEASURE_WITH_UNIT ( LENGTH_MEASURE( 0.02539999999999999897 ), #228 );
#154 = SURFACE_SIDE_STYLE ('',( #64 ) ) ;
#155 =( LENGTH_UNIT ( ) NAMED_UNIT ( * ) SI_UNIT ( $, .METRE. ) );
#156 = COLOUR_RGB ( '',1.000000000000000000, 0.000000000000000000, 0.000000000000000000 ) ;
#157 = CIRCLE ( 'NONE', #176, 0.06249999999999970857 ) ;
#158 =( NAMED_UNIT ( * ) SI_UNIT ( $, .STERADIAN. ) SOLID_ANGLE_UNIT ( ) );
#159 = CARTESIAN_POINT ( 'NONE',  ( 7.654042494670959086E-18, 0.000000000000000000, 0.06250000000000001388 ) ) ;
#160 = ORIENTED_EDGE ( 'NONE', *, *, #186, .T. ) ;
#161 = ORIENTED_EDGE ( 'NONE', *, *, #67, .T. ) ;
#162 = PRESENTATION_LAYER_ASSIGNMENT (  '', '', ( #141 ) ) ;
#163 =( LENGTH_UNIT ( ) NAMED_UNIT ( * ) SI_UNIT ( $, .METRE. ) );
#164 = COLOUR_RGB ( '',1.000000000000000000, 0.000000000000000000, 0.000000000000000000 ) ;
#165 = ORIENTED_EDGE ( 'NONE', *, *, #72, .F. ) ;
#166 = ORIENTED_EDGE ( 'NONE', *, *, #9, .F. ) ;
#167 = FILL_AREA_STYLE_COLOUR ( '', #150 ) ;
#168 = ADVANCED_FACE ( 'NONE', ( #248 ), #274, .T. ) ;
#169 = EDGE_CURVE ( 'NONE', #237, #198, #98, .T. ) ;
#170 =( NAMED_UNIT ( * ) SI_UNIT ( $, .STERADIAN. ) SOLID_ANGLE_UNIT ( ) );
#171 = FILL_AREA_STYLE ('',( #272 ) ) ;
#172 = DIRECTION ( 'NONE',  ( 0.000000000000000000, 0.000000000000000000, -1.000000000000000000 ) ) ;
#173 = DIMENSIONAL_EXPONENTS ( 1.000000000000000000, 0.000000000000000000, 0.000000000000000000, 0.000000000000000000, 0.000000000000000000, 0.000000000000000000, 0.000000000000000000 ) ;
#174 = VERTEX_POINT ( 'NONE', #144 ) ;
#175 = DIRECTION ( 'NONE',  ( -1.884071998688235248E-16, -1.000000000000000000, 0.000000000000000000 ) ) ;
#176 = AXIS2_PLACEMENT_3D ( 'NONE', #24, #78, #56 ) ;
#177 = DIRECTION ( 'NONE',  ( 1.884071998688235495E-16, 1.000000000000000000, -0.000000000000000000 ) ) ;
#178 = AXIS2_PLACEMENT_3D ( 'NONE', #298, #179, #107 ) ;
#179 = DIRECTION ( 'NONE',  ( -0.000000000000000000, -1.000000000000000000, -0.000000000000000000 ) ) ;
#180 =( NAMED_UNIT ( * ) SI_UNIT ( $, .STERADIAN. ) SOLID_ANGLE_UNIT ( ) );
#181 = EDGE_CURVE ( 'NONE', #184, #60, #157, .T. ) ;
#182 = CARTESIAN_POINT ( 'NONE',  ( 0.000000000000000000, 0.000000000000000000, -0.06250000000000001388 ) ) ;
#183 = DIRECTION ( 'NONE',  ( 1.884071998688235248E-16, 1.000000000000000000, -0.000000000000000000 ) ) ;
#184 = VERTEX_POINT ( 'NONE', #220 ) ;
#185 = PRESENTATION_LAYER_ASSIGNMENT (  '', '', ( #22 ) ) ;
#186 = EDGE_CURVE ( 'NONE', #145, #104, #286, .T. ) ;
#187 = AXIS2_PLACEMENT_3D ( 'NONE', #269, #2, #53 ) ;
#188 = CIRCLE ( 'NONE', #58, 0.06250000000000001388 ) ;
#189 = STYLED_ITEM ( 'NONE', ( #61 ), #247 ) ;
#190 =( NAMED_UNIT ( * ) PLANE_ANGLE_UNIT ( ) SI_UNIT ( $, .RADIAN. ) );
#191 = DIRECTION ( 'NONE',  ( 0.000000000000000000, -0.000000000000000000, 1.000000000000000000 ) ) ;
#192 =( GEOMETRIC_REPRESENTATION_CONTEXT ( 3 ) GLOBAL_UNCERTAINTY_ASSIGNED_CONTEXT ( ( #307 ) ) GLOBAL_UNIT_ASSIGNED_CONTEXT ( ( #204, #109, #137 ) ) REPRESENTATION_CONTEXT ( 'NONE', 'WORKASPACE' ) );
#193 = CIRCLE ( 'NONE', #65, 0.06250000000000001388 ) ;
#194 = LENGTH_MEASURE_WITH_UNIT ( LENGTH_MEASURE( 0.02539999999999999897 ), #241 );
#195 = FACE_OUTER_BOUND ( 'NONE', #117, .T. ) ;
#196 = VERTEX_POINT ( 'NONE', #146 ) ;
#197 = PRESENTATION_STYLE_ASSIGNMENT (( #211 ) ) ;
#198 = VERTEX_POINT ( 'NONE', #245 ) ;
#199 = DIRECTION ( 'NONE',  ( 1.884071998688235495E-16, 1.000000000000000000, -0.000000000000000000 ) ) ;
#200 = EDGE_LOOP ( 'NONE', ( #149, #147, #83, #30 ) ) ;
#201 = DIRECTION ( 'NONE',  ( 1.884071998688235248E-16, 1.000000000000000000, -0.000000000000000000 ) ) ;
#202 = LINE ( 'NONE', #182, #44 ) ;
#203 = DIMENSIONAL_EXPONENTS ( 1.000000000000000000, 0.000000000000000000, 0.000000000000000000, 0.000000000000000000, 0.000000000000000000, 0.000000000000000000, 0.000000000000000000 ) ;
#204 =( CONVERSION_BASED_UNIT ( 'INCH', #233 ) LENGTH_UNIT ( ) NAMED_UNIT ( #95 ) );
#205 =( NAMED_UNIT ( * ) PLANE_ANGLE_UNIT ( ) SI_UNIT ( $, .RADIAN. ) );
#206 = MECHANICAL_DESIGN_GEOMETRIC_PRESENTATION_REPRESENTATION (  '', ( #14 ), #85 ) ;
#207 = PRESENTATION_LAYER_ASSIGNMENT (  '', '', ( #189 ) ) ;
#208 = SURFACE_STYLE_FILL_AREA ( #279 ) ;
#209 = PRODUCT_DEFINITION_SHAPE ( 'NONE', 'NONE',  #81 ) ;
#210 = ADVANCED_FACE ( 'NONE', ( #26 ), #125, .T. ) ;
#211 = SURFACE_STYLE_USAGE ( .BOTH. , #118 ) ;
#212 = DIRECTION ( 'NONE',  ( 1.000000000000000000, -1.884071998688235248E-16, 0.000000000000000000 ) ) ;
#213 = AXIS2_PLACEMENT_3D ( 'NONE', #234, #88, #12 ) ;
#214 = AXIS2_PLACEMENT_3D ( 'NONE', #96, #73, #45 ) ;
#215 = DIRECTION ( 'NONE',  ( -1.000000000000000000, 0.000000000000000000, 0.000000000000000000 ) ) ;
#216 = DIRECTION ( 'NONE',  ( -0.000000000000000000, -1.000000000000000000, -0.000000000000000000 ) ) ;
#217 = UNCERTAINTY_MEASURE_WITH_UNIT (LENGTH_MEASURE( 1.000000000000000082E-05 ), #40, 'distance_accuracy_value', 'NONE');
#218 = DIRECTION ( 'NONE',  ( 0.000000000000000000, 1.000000000000000000, 0.000000000000000000 ) ) ;
#219 = ORIENTED_EDGE ( 'NONE', *, *, #222, .T. ) ;
#220 = CARTESIAN_POINT ( 'NONE',  ( -0.06249999999999940326, 2.500000000000000000, 0.000000000000000000 ) ) ;
#221 = PLANE ( 'NONE',  #280 ) ;
#222 = EDGE_CURVE ( 'NONE', #60, #184, #120, .T. ) ;
#223 = ORIENTED_EDGE ( 'NONE', *, *, #169, .T. ) ;
#224 = UNCERTAINTY_MEASURE_WITH_UNIT (LENGTH_MEASURE( 1.000000000000000082E-05 ), #33, 'distance_accuracy_value', 'NONE');
#225 = CARTESIAN_POINT ( 'NONE',  ( 0.000000000000000000, 0.000000000000000000, 0.000000000000000000 ) ) ;
#226 = PLANE ( 'NONE',  #235 ) ;
#227 = FACE_OUTER_BOUND ( 'NONE', #254, .T. ) ;
#228 =( LENGTH_UNIT ( ) NAMED_UNIT ( * ) SI_UNIT ( $, .METRE. ) );
#229 = ORIENTED_EDGE ( 'NONE', *, *, #261, .T. ) ;
#230 = COLOUR_RGB ( '',1.000000000000000000, 0.000000000000000000, 0.000000000000000000 ) ;
#231 = EDGE_LOOP ( 'NONE', ( #165, #291 ) ) ;
#232 = FILL_AREA_STYLE_COLOUR ( '', #97 ) ;
#233 = LENGTH_MEASURE_WITH_UNIT ( LENGTH_MEASURE( 0.02539999999999999897 ), #163 );
#234 = CARTESIAN_POINT ( 'NONE',  ( 0.000000000000000000, 0.8750000000000000000, 0.000000000000000000 ) ) ;
#235 = AXIS2_PLACEMENT_3D ( 'NONE', #54, #175, #212 ) ;
#236 = PRESENTATION_STYLE_ASSIGNMENT (( #277 ) ) ;
#237 = VERTEX_POINT ( 'NONE', #131 ) ;
#238 = DIRECTION ( 'NONE',  ( 0.000000000000000000, 0.000000000000000000, -1.000000000000000000 ) ) ;
#239 = VECTOR ( 'NONE', #201, 39.37007874015748143 ) ;
#240 = FILL_AREA_STYLE ('',( #105 ) ) ;
#241 =( LENGTH_UNIT ( ) NAMED_UNIT ( * ) SI_UNIT ( $, .METRE. ) );
#242 =( NAMED_UNIT ( * ) PLANE_ANGLE_UNIT ( ) SI_UNIT ( $, .RADIAN. ) );
#243 = FACE_OUTER_BOUND ( 'NONE', #87, .T. ) ;
#244 = ORIENTED_EDGE ( 'NONE', *, *, #55, .T. ) ;
#245 = CARTESIAN_POINT ( 'NONE',  ( -0.06250000000000001388, 0.8749999999999997780, 0.000000000000000000 ) ) ;
#246 = CYLINDRICAL_SURFACE ( 'NONE', #8, 0.06249999999999986122 ) ;
#247 = MANIFOLD_SOLID_BREP ( 'Revolve - Cutting Edge', #113 ) ;
#248 = FACE_OUTER_BOUND ( 'NONE', #124, .T. ) ;
#249 = AXIS2_PLACEMENT_3D ( 'NONE', #127, #121, #215 ) ;
#250 = CLOSED_SHELL ( 'NONE', ( #123, #268, #74, #135 ) ) ;
#251 = PRESENTATION_LAYER_ASSIGNMENT (  '', '', ( #14 ) ) ;
#252 = ORIENTED_EDGE ( 'NONE', *, *, #261, .F. ) ;
#253 = SURFACE_STYLE_FILL_AREA ( #84 ) ;
#254 = EDGE_LOOP ( 'NONE', ( #252, #138 ) ) ;
#255 =( NAMED_UNIT ( * ) SI_UNIT ( $, .STERADIAN. ) SOLID_ANGLE_UNIT ( ) );
#256 = DIMENSIONAL_EXPONENTS ( 1.000000000000000000, 0.000000000000000000, 0.000000000000000000, 0.000000000000000000, 0.000000000000000000, 0.000000000000000000, 0.000000000000000000 ) ;
#257 = MECHANICAL_DESIGN_GEOMETRIC_PRESENTATION_REPRESENTATION (  '', ( #15 ), #192 ) ;
#258 = LINE ( 'NONE', #299, #35 ) ;
#259 = EDGE_CURVE ( 'NONE', #196, #174, #59, .T. ) ;
#260 =( GEOMETRIC_REPRESENTATION_CONTEXT ( 3 ) GLOBAL_UNCERTAINTY_ASSIGNED_CONTEXT ( ( #80 ) ) GLOBAL_UNIT_ASSIGNED_CONTEXT ( ( #292, #39, #158 ) ) REPRESENTATION_CONTEXT ( 'NONE', 'WORKASPACE' ) );
#261 = EDGE_CURVE ( 'NONE', #198, #237, #193, .T. ) ;
#262 = APPLICATION_PROTOCOL_DEFINITION ( 'draft international standard', 'automotive_design', 1998, #265 ) ;
#263 = FILL_AREA_STYLE ('',( #167 ) ) ;
#264 =( GEOMETRIC_REPRESENTATION_CONTEXT ( 3 ) GLOBAL_UNCERTAINTY_ASSIGNED_CONTEXT ( ( #143 ) ) GLOBAL_UNIT_ASSIGNED_CONTEXT ( ( #308, #190, #50 ) ) REPRESENTATION_CONTEXT ( 'NONE', 'WORKASPACE' ) );
#265 = APPLICATION_CONTEXT ( 'automotive_design' ) ;
#266 = APPLICATION_PROTOCOL_DEFINITION ( 'draft international standard', 'automotive_design', 1998, #1 ) ;
#267 = SURFACE_STYLE_USAGE ( .BOTH. , #49 ) ;
#268 = ADVANCED_FACE ( 'NONE', ( #227 ), #278, .F. ) ;
#269 = CARTESIAN_POINT ( 'NONE',  ( 0.000000000000000000, 0.000000000000000000, 0.000000000000000000 ) ) ;
#270 = PRESENTATION_STYLE_ASSIGNMENT (( #267 ) ) ;
#271 = ORIENTED_EDGE ( 'NONE', *, *, #72, .T. ) ;
#272 = FILL_AREA_STYLE_COLOUR ( '', #230 ) ;
#273 = ORIENTED_EDGE ( 'NONE', *, *, #304, .F. ) ;
#274 = PLANE ( 'NONE',  #114 ) ;
#275 =( GEOMETRIC_REPRESENTATION_CONTEXT ( 3 ) GLOBAL_UNCERTAINTY_ASSIGNED_CONTEXT ( ( #217 ) ) GLOBAL_UNIT_ASSIGNED_CONTEXT ( ( #40, #93, #115 ) ) REPRESENTATION_CONTEXT ( 'NONE', 'WORKASPACE' ) );
#276 = AXIS2_PLACEMENT_3D ( 'NONE', #62, #34, #133 ) ;
#277 = SURFACE_STYLE_USAGE ( .BOTH. , #154 ) ;
#278 = PLANE ( 'NONE',  #139 ) ;
#279 = FILL_AREA_STYLE ('',( #37 ) ) ;
#280 = AXIS2_PLACEMENT_3D ( 'NONE', #140, #218, #191 ) ;
#281 = CYLINDRICAL_SURFACE ( 'NONE', #276, 0.06250000000000001388 ) ;
#282 = PRESENTATION_LAYER_ASSIGNMENT (  '', '', ( #90 ) ) ;
#283 = DIRECTION ( 'NONE',  ( 1.884071998688235495E-16, 1.000000000000000000, -0.000000000000000000 ) ) ;
#284 = LENGTH_MEASURE_WITH_UNIT ( LENGTH_MEASURE( 0.02539999999999999897 ), #155 );
#285 = MECHANICAL_DESIGN_GEOMETRIC_PRESENTATION_REPRESENTATION (  '', ( #90 ), #51 ) ;
#286 = CIRCLE ( 'NONE', #187, 0.06250000000000001388 ) ;
#287 = SURFACE_STYLE_USAGE ( .BOTH. , #305 ) ;
#288 = DIRECTION ( 'NONE',  ( -1.000000000000000000, 0.000000000000000000, 0.000000000000000000 ) ) ;
#289 = PRODUCT_CONTEXT ( 'NONE', #265, 'mechanical' ) ;
#290 = DIRECTION ( 'NONE',  ( 1.884071998688235495E-16, 1.000000000000000000, -0.000000000000000000 ) ) ;
#291 = ORIENTED_EDGE ( 'NONE', *, *, #259, .F. ) ;
#292 =( CONVERSION_BASED_UNIT ( 'INCH', #110 ) LENGTH_UNIT ( ) NAMED_UNIT ( #302 ) );
#293 =( GEOMETRIC_REPRESENTATION_CONTEXT ( 3 ) GLOBAL_UNCERTAINTY_ASSIGNED_CONTEXT ( ( #224 ) ) GLOBAL_UNIT_ASSIGNED_CONTEXT ( ( #33, #205, #255 ) ) REPRESENTATION_CONTEXT ( 'NONE', 'WORKASPACE' ) );
#294 = EDGE_LOOP ( 'NONE', ( #32, #219 ) ) ;
#295 = CARTESIAN_POINT ( 'NONE',  ( 3.061616997868383141E-16, 2.500000000000000000, 0.000000000000000000 ) ) ;
#296 = ORIENTED_EDGE ( 'NONE', *, *, #181, .F. ) ;
#297 = DIMENSIONAL_EXPONENTS ( 1.000000000000000000, 0.000000000000000000, 0.000000000000000000, 0.000000000000000000, 0.000000000000000000, 0.000000000000000000, 0.000000000000000000 ) ;
#298 = CARTESIAN_POINT ( 'NONE',  ( 0.000000000000000000, 0.000000000000000000, 0.000000000000000000 ) ) ;
#299 = CARTESIAN_POINT ( 'NONE',  ( 0.06250000000000016653, 2.500000000000000000, 7.654042494670940597E-18 ) ) ;
#300 =( LENGTH_UNIT ( ) NAMED_UNIT ( * ) SI_UNIT ( $, .METRE. ) );
#301 = VECTOR ( 'NONE', #216, 39.37007874015748143 ) ;
#302 = DIMENSIONAL_EXPONENTS ( 1.000000000000000000, 0.000000000000000000, 0.000000000000000000, 0.000000000000000000, 0.000000000000000000, 0.000000000000000000, 0.000000000000000000 ) ;
#303 =( LENGTH_UNIT ( ) NAMED_UNIT ( * ) SI_UNIT ( $, .METRE. ) );
#304 = EDGE_CURVE ( 'NONE', #198, #184, #130, .T. ) ;
#305 = SURFACE_SIDE_STYLE ('',( #43 ) ) ;
#306 = CIRCLE ( 'NONE', #4, 0.06250000000000001388 ) ;
#307 = UNCERTAINTY_MEASURE_WITH_UNIT (LENGTH_MEASURE( 1.000000000000000082E-05 ), #204, 'distance_accuracy_value', 'NONE');
#308 =( CONVERSION_BASED_UNIT ( 'INCH', #18 ) LENGTH_UNIT ( ) NAMED_UNIT ( #297 ) );
#309 = CARTESIAN_POINT ( 'NONE',  ( 0.000000000000000000, 0.000000000000000000, 0.000000000000000000 ) ) ;
ENDSEC;
END-ISO-10303-21;
