ISO-10303-21;
HEADER;
FILE_DESCRIPTION (( 'STEP AP214' ),
    '1' );
FILE_NAME ('Micro_DM-312-2120X.STEP',
    '2021-09-02T16:02:23',
    ( '' ),
    ( '' ),
    'SwSTEP 2.0',
    'SolidWorks 2020',
    '' );
FILE_SCHEMA (( 'AUTOMOTIVE_DESIGN' ));
ENDSEC;

DATA;
#1 =( GEOMETRIC_REPRESENTATION_CONTEXT ( 3 ) GLOBAL_UNCERTAINTY_ASSIGNED_CONTEXT ( ( #113 ) ) GLOBAL_UNIT_ASSIGNED_CONTEXT ( ( #190, #192, #165 ) ) REPRESENTATION_CONTEXT ( 'NONE', 'WORKASPACE' ) );
#2 = PRODUCT_DEFINITION_CONTEXT ( 'detailed design', #80, 'design' ) ;
#3 = ADVANCED_FACE ( 'NONE', ( #305 ), #244, .T. ) ;
#4 = UNCERTAINTY_MEASURE_WITH_UNIT (LENGTH_MEASURE( 1.000000000000000082E-05 ), #22, 'distance_accuracy_value', 'NONE');
#5 = LINE ( 'NONE', #265, #237 ) ;
#6 = AXIS2_PLACEMENT_3D ( 'NONE', #239, #128, #9 ) ;
#7 = CONICAL_SURFACE ( 'NONE', #53, 0.007499999999999999722, 1.047197551196600296 ) ;
#8 = CARTESIAN_POINT ( 'NONE',  ( 0.0000000000000000000, 0.0000000000000000000, 2.500000000000000000 ) ) ;
#9 = DIRECTION ( 'NONE',  ( -1.000000000000000000, 0.0000000000000000000, 0.0000000000000000000 ) ) ;
#10 = ORIENTED_EDGE ( 'NONE', *, *, #173, .T. ) ;
#11 = DIRECTION ( 'NONE',  ( -0.0000000000000000000, -0.0000000000000000000, -1.000000000000000000 ) ) ;
#12 = ORIENTED_EDGE ( 'NONE', *, *, #112, .F. ) ;
#13 = DIRECTION ( 'NONE',  ( -0.0000000000000000000, -0.0000000000000000000, -1.000000000000000000 ) ) ;
#14 = DIRECTION ( 'NONE',  ( 0.0000000000000000000, 0.0000000000000000000, 1.000000000000000000 ) ) ;
#15 = VERTEX_POINT ( 'NONE', #91 ) ;
#16 = VECTOR ( 'NONE', #263, 39.37007874015748854 ) ;
#17 = DIRECTION ( 'NONE',  ( -0.7071067811865410224, 0.0000000000000000000, -0.7071067811865539010 ) ) ;
#18 = EDGE_LOOP ( 'NONE', ( #271, #116 ) ) ;
#19 = CARTESIAN_POINT ( 'NONE',  ( -0.1562000000000000333, 0.0000000000000000000, 0.0000000000000000000 ) ) ;
#20 = DIRECTION ( 'NONE',  ( -0.0000000000000000000, -0.0000000000000000000, -1.000000000000000000 ) ) ;
#21 =( LENGTH_UNIT ( ) NAMED_UNIT ( * ) SI_UNIT ( $, .METRE. ) );
#22 =( CONVERSION_BASED_UNIT ( 'INCH', #98 ) LENGTH_UNIT ( ) NAMED_UNIT ( #229 ) );
#23 = AXIS2_PLACEMENT_3D ( 'NONE', #318, #11, #115 ) ;
#24 = LENGTH_MEASURE_WITH_UNIT ( LENGTH_MEASURE( 0.02539999999999999897 ), #284 );
#25 =( NAMED_UNIT ( * ) PLANE_ANGLE_UNIT ( ) SI_UNIT ( $, .RADIAN. ) );
#26 = AXIS2_PLACEMENT_3D ( 'NONE', #8, #288, #295 ) ;
#27 = ADVANCED_FACE ( 'NONE', ( #252 ), #250, .T. ) ;
#28 =( NAMED_UNIT ( * ) SI_UNIT ( $, .STERADIAN. ) SOLID_ANGLE_UNIT ( ) );
#29 = DIRECTION ( 'NONE',  ( 1.000000000000000000, 0.0000000000000000000, 0.0000000000000000000 ) ) ;
#30 = VERTEX_POINT ( 'NONE', #71 ) ;
#31 = CARTESIAN_POINT ( 'NONE',  ( -0.1562500000000000000, 0.0000000000000000000, 0.8129999999999997229 ) ) ;
#32 = AXIS2_PLACEMENT_3D ( 'NONE', #316, #315, #37 ) ;
#33 = MANIFOLD_SOLID_BREP ( 'Cut-Revolve4', #205 ) ;
#34 = ORIENTED_EDGE ( 'NONE', *, *, #120, .T. ) ;
#35 = DIRECTION ( 'NONE',  ( -1.000000000000000000, 0.0000000000000000000, 0.0000000000000000000 ) ) ;
#36 = ORIENTED_EDGE ( 'NONE', *, *, #120, .F. ) ;
#37 = DIRECTION ( 'NONE',  ( -1.000000000000000000, 0.0000000000000000000, 0.0000000000000000000 ) ) ;
#38 = CARTESIAN_POINT ( 'NONE',  ( -0.1562500000000000000, 0.0000000000000000000, 2.484999999999999432 ) ) ;
#39 = VECTOR ( 'NONE', #274, 39.37007874015748143 ) ;
#40 = ORIENTED_EDGE ( 'NONE', *, *, #155, .F. ) ;
#41 = ORIENTED_EDGE ( 'NONE', *, *, #285, .F. ) ;
#42 = FILL_AREA_STYLE_COLOUR ( '', #69 ) ;
#43 = DIRECTION ( 'NONE',  ( -0.0000000000000000000, -0.0000000000000000000, -1.000000000000000000 ) ) ;
#44 = DIRECTION ( 'NONE',  ( 1.000000000000000000, 0.0000000000000000000, -0.0000000000000000000 ) ) ;
#45 = MECHANICAL_DESIGN_GEOMETRIC_PRESENTATION_REPRESENTATION (  '', ( #294 ), #100 ) ;
#46 = PRODUCT_DEFINITION_SHAPE ( 'NONE', 'NONE',  #101 ) ;
#47 = ORIENTED_EDGE ( 'NONE', *, *, #211, .F. ) ;
#48 = CARTESIAN_POINT ( 'NONE',  ( 0.0000000000000000000, 0.0000000000000000000, 0.8129999999999997229 ) ) ;
#49 = DIRECTION ( 'NONE',  ( 1.000000000000000000, 0.0000000000000000000, 0.0000000000000000000 ) ) ;
#50 = ADVANCED_FACE ( 'NONE', ( #123 ), #107, .T. ) ;
#51 =( CONVERSION_BASED_UNIT ( 'INCH', #24 ) LENGTH_UNIT ( ) NAMED_UNIT ( #103 ) );
#52 = CONICAL_SURFACE ( 'NONE', #32, 0.1412499999999994871, 0.7853981633974391752 ) ;
#53 = AXIS2_PLACEMENT_3D ( 'NONE', #61, #163, #29 ) ;
#54 = PRESENTATION_STYLE_ASSIGNMENT (( #126 ) ) ;
#55 = ORIENTED_EDGE ( 'NONE', *, *, #224, .T. ) ;
#56 = FACE_BOUND ( 'NONE', #18, .T. ) ;
#57 = ORIENTED_EDGE ( 'NONE', *, *, #159, .T. ) ;
#58 = CARTESIAN_POINT ( 'NONE',  ( -0.1562000000000000888, 0.0000000000000000000, 0.8129999999999999449 ) ) ;
#59 = UNCERTAINTY_MEASURE_WITH_UNIT (LENGTH_MEASURE( 1.000000000000000082E-05 ), #51, 'distance_accuracy_value', 'NONE');
#60 = ADVANCED_FACE ( 'NONE', ( #64 ), #7, .T. ) ;
#61 = CARTESIAN_POINT ( 'NONE',  ( 0.0000000000000000000, 0.0000000000000000000, 1.707404996040164512E-17 ) ) ;
#62 = AXIS2_PLACEMENT_3D ( 'NONE', #74, #70, #172 ) ;
#63 = DIRECTION ( 'NONE',  ( -0.0000000000000000000, -0.0000000000000000000, -1.000000000000000000 ) ) ;
#64 = FACE_OUTER_BOUND ( 'NONE', #298, .T. ) ;
#65 = ORIENTED_EDGE ( 'NONE', *, *, #257, .T. ) ;
#66 = DIRECTION ( 'NONE',  ( -0.0000000000000000000, -0.0000000000000000000, -1.000000000000000000 ) ) ;
#67 = AXIS2_PLACEMENT_3D ( 'NONE', #324, #119, #97 ) ;
#68 = VERTEX_POINT ( 'NONE', #236 ) ;
#69 = COLOUR_RGB ( '',0.7921568627450980005, 0.8196078431372548767, 0.9333333333333333481 ) ;
#70 = DIRECTION ( 'NONE',  ( 0.0000000000000000000, 0.0000000000000000000, 1.000000000000000000 ) ) ;
#71 = CARTESIAN_POINT ( 'NONE',  ( -0.1412499999999994871, 0.0000000000000000000, 2.500000000000000000 ) ) ;
#72 = CARTESIAN_POINT ( 'NONE',  ( 0.0000000000000000000, 0.0000000000000000000, 2.500000000000000000 ) ) ;
#73 = ORIENTED_EDGE ( 'NONE', *, *, #257, .F. ) ;
#74 = CARTESIAN_POINT ( 'NONE',  ( 0.0000000000000000000, 0.0000000000000000000, 2.500000000000000000 ) ) ;
#75 = VERTEX_POINT ( 'NONE', #267 ) ;
#76 = AXIS2_PLACEMENT_3D ( 'NONE', #143, #176, #247 ) ;
#77 = PRODUCT_RELATED_PRODUCT_CATEGORY ( 'part', '', ( #177 ) ) ;
#78 = CIRCLE ( 'NONE', #67, 0.1562000000000000888 ) ;
#79 = DIRECTION ( 'NONE',  ( 0.0000000000000000000, 0.0000000000000000000, -1.000000000000000000 ) ) ;
#80 = APPLICATION_CONTEXT ( 'automotive_design' ) ;
#81 = CARTESIAN_POINT ( 'NONE',  ( -0.1561999999999999500, 1.912898300268165357E-17, 0.08585198502849683555 ) ) ;
#82 = EDGE_CURVE ( 'NONE', #110, #121, #183, .T. ) ;
#83 = DIRECTION ( 'NONE',  ( -1.000000000000000000, 0.0000000000000000000, 0.0000000000000000000 ) ) ;
#84 = CARTESIAN_POINT ( 'NONE',  ( 0.0000000000000000000, 0.0000000000000000000, 2.484999999999999432 ) ) ;
#85 = ORIENTED_EDGE ( 'NONE', *, *, #147, .F. ) ;
#86 = DIRECTION ( 'NONE',  ( 1.000000000000000000, 0.0000000000000000000, 0.0000000000000000000 ) ) ;
#87 = LENGTH_MEASURE_WITH_UNIT ( LENGTH_MEASURE( 0.02539999999999999897 ), #21 );
#88 = ORIENTED_EDGE ( 'NONE', *, *, #230, .F. ) ;
#89 = DIRECTION ( 'NONE',  ( -1.000000000000000000, 0.0000000000000000000, 0.0000000000000000000 ) ) ;
#90 = VECTOR ( 'NONE', #17, 39.37007874015748854 ) ;
#91 = CARTESIAN_POINT ( 'NONE',  ( 0.1562500000000000000, 1.913510623667739463E-17, 2.484999999999999432 ) ) ;
#92 = DIRECTION ( 'NONE',  ( -1.000000000000000000, 0.0000000000000000000, 0.0000000000000000000 ) ) ;
#93 = EDGE_CURVE ( 'NONE', #15, #240, #5, .T. ) ;
#94 = VERTEX_POINT ( 'NONE', #38 ) ;
#95 = CARTESIAN_POINT ( 'NONE',  ( -0.1412499999999994871, 0.0000000000000000000, 2.500000000000000000 ) ) ;
#96 = ORIENTED_EDGE ( 'NONE', *, *, #262, .F. ) ;
#97 = DIRECTION ( 'NONE',  ( -1.000000000000000000, 0.0000000000000000000, 0.0000000000000000000 ) ) ;
#98 = LENGTH_MEASURE_WITH_UNIT ( LENGTH_MEASURE( 0.02539999999999999897 ), #142 );
#99 = ADVANCED_FACE ( 'NONE', ( #56, #130 ), #293, .T. ) ;
#100 =( GEOMETRIC_REPRESENTATION_CONTEXT ( 3 ) GLOBAL_UNCERTAINTY_ASSIGNED_CONTEXT ( ( #4 ) ) GLOBAL_UNIT_ASSIGNED_CONTEXT ( ( #22, #150, #281 ) ) REPRESENTATION_CONTEXT ( 'NONE', 'WORKASPACE' ) );
#101 = PRODUCT_DEFINITION ( 'UNKNOWN', '', #269, #2 ) ;
#102 = CIRCLE ( 'NONE', #214, 0.1412499999999994871 ) ;
#103 = DIMENSIONAL_EXPONENTS ( 1.000000000000000000, 0.0000000000000000000, 0.0000000000000000000, 0.0000000000000000000, 0.0000000000000000000, 0.0000000000000000000, 0.0000000000000000000 ) ;
#104 = VERTEX_POINT ( 'NONE', #114 ) ;
#105 = DIRECTION ( 'NONE',  ( 0.0000000000000000000, 0.0000000000000000000, 1.000000000000000000 ) ) ;
#106 = CIRCLE ( 'NONE', #137, 0.1562000000000000055 ) ;
#107 = CONICAL_SURFACE ( 'NONE', #300, 0.1412499999999994871, 0.7853981633974391752 ) ;
#108 = EDGE_LOOP ( 'NONE', ( #168, #301, #85, #88 ) ) ;
#109 = DIRECTION ( 'NONE',  ( -1.000000000000000000, 0.0000000000000000000, 0.0000000000000000000 ) ) ;
#110 = VERTEX_POINT ( 'NONE', #133 ) ;
#111 = DIRECTION ( 'NONE',  ( -1.000000000000000000, 0.0000000000000000000, 0.0000000000000000000 ) ) ;
#112 = EDGE_CURVE ( 'NONE', #110, #138, #264, .T. ) ;
#113 = UNCERTAINTY_MEASURE_WITH_UNIT (LENGTH_MEASURE( 1.000000000000000082E-05 ), #190, 'distance_accuracy_value', 'NONE');
#114 = CARTESIAN_POINT ( 'NONE',  ( 0.1412499999999994871, 1.821662113731684786E-17, 2.500000000000000000 ) ) ;
#115 = DIRECTION ( 'NONE',  ( -1.000000000000000000, 0.0000000000000000000, 0.0000000000000000000 ) ) ;
#116 = ORIENTED_EDGE ( 'NONE', *, *, #261, .F. ) ;
#117 = CARTESIAN_POINT ( 'NONE',  ( 0.0000000000000000000, 0.0000000000000000000, 0.8129999999999997229 ) ) ;
#118 = CARTESIAN_POINT ( 'NONE',  ( 0.0000000000000000000, 0.0000000000000000000, 0.0000000000000000000 ) ) ;
#119 = DIRECTION ( 'NONE',  ( -0.0000000000000000000, -0.0000000000000000000, -1.000000000000000000 ) ) ;
#120 = EDGE_CURVE ( 'NONE', #94, #15, #178, .T. ) ;
#121 = VERTEX_POINT ( 'NONE', #81 ) ;
#122 = DIRECTION ( 'NONE',  ( -0.0000000000000000000, -0.0000000000000000000, -1.000000000000000000 ) ) ;
#123 = FACE_OUTER_BOUND ( 'NONE', #287, .T. ) ;
#124 = DIRECTION ( 'NONE',  ( 0.0000000000000000000, 0.0000000000000000000, 1.000000000000000000 ) ) ;
#125 = ORIENTED_EDGE ( 'NONE', *, *, #173, .F. ) ;
#126 = SURFACE_STYLE_USAGE ( .BOTH. , #199 ) ;
#127 = MECHANICAL_DESIGN_GEOMETRIC_PRESENTATION_REPRESENTATION (  '', ( #277 ), #228 ) ;
#128 = DIRECTION ( 'NONE',  ( -0.0000000000000000000, -0.0000000000000000000, -1.000000000000000000 ) ) ;
#129 = VERTEX_POINT ( 'NONE', #58 ) ;
#130 = FACE_OUTER_BOUND ( 'NONE', #193, .T. ) ;
#131 = AXIS2_PLACEMENT_3D ( 'NONE', #326, #122, #89 ) ;
#132 = ORIENTED_EDGE ( 'NONE', *, *, #230, .T. ) ;
#133 = CARTESIAN_POINT ( 'NONE',  ( -0.007499999999999999722, 1.002373405102108630E-17, 1.707404996040164512E-17 ) ) ;
#134 = ORIENTED_EDGE ( 'NONE', *, *, #248, .T. ) ;
#135 = FACE_OUTER_BOUND ( 'NONE', #238, .T. ) ;
#136 = CARTESIAN_POINT ( 'NONE',  ( 0.1562000000000000888, 0.0000000000000000000, 0.8129999999999999449 ) ) ;
#137 = AXIS2_PLACEMENT_3D ( 'NONE', #187, #266, #109 ) ;
#138 = VERTEX_POINT ( 'NONE', #188 ) ;
#139 = ORIENTED_EDGE ( 'NONE', *, *, #232, .F. ) ;
#140 = ADVANCED_FACE ( 'NONE', ( #135 ), #158, .T. ) ;
#141 = CARTESIAN_POINT ( 'NONE',  ( 0.0000000000000000000, 0.0000000000000000000, 0.0000000000000000000 ) ) ;
#142 =( LENGTH_UNIT ( ) NAMED_UNIT ( * ) SI_UNIT ( $, .METRE. ) );
#143 = CARTESIAN_POINT ( 'NONE',  ( 0.0000000000000000000, 0.0000000000000000000, 1.707404996040164512E-17 ) ) ;
#144 = CONICAL_SURFACE ( 'NONE', #290, 0.007499999999999999722, 1.047197551196600296 ) ;
#145 = ORIENTED_EDGE ( 'NONE', *, *, #82, .T. ) ;
#146 = DIRECTION ( 'NONE',  ( -1.000000000000000000, 0.0000000000000000000, 0.0000000000000000000 ) ) ;
#147 = EDGE_CURVE ( 'NONE', #121, #68, #174, .T. ) ;
#148 = EDGE_LOOP ( 'NONE', ( #41, #268, #132, #40 ) ) ;
#149 = LINE ( 'NONE', #95, #90 ) ;
#150 =( NAMED_UNIT ( * ) PLANE_ANGLE_UNIT ( ) SI_UNIT ( $, .RADIAN. ) );
#151 = APPLICATION_PROTOCOL_DEFINITION ( 'draft international standard', 'automotive_design', 1998, #200 ) ;
#152 = AXIS2_PLACEMENT_3D ( 'NONE', #136, #162, #35 ) ;
#153 = VECTOR ( 'NONE', #286, 39.37007874015748143 ) ;
#154 = APPLICATION_PROTOCOL_DEFINITION ( 'draft international standard', 'automotive_design', 1998, #80 ) ;
#155 = EDGE_CURVE ( 'NONE', #68, #121, #106, .T. ) ;
#156 = ADVANCED_FACE ( 'NONE', ( #213 ), #52, .T. ) ;
#157 = CARTESIAN_POINT ( 'NONE',  ( -0.1562500000000000000, 0.0000000000000000000, 2.500000000000000000 ) ) ;
#158 = PLANE ( 'NONE',  #26 ) ;
#159 = EDGE_CURVE ( 'NONE', #104, #15, #313, .T. ) ;
#160 = CARTESIAN_POINT ( 'NONE',  ( -0.007499999999999999722, 9.184850993605147975E-19, 1.707404996040164512E-17 ) ) ;
#161 = CIRCLE ( 'NONE', #291, 0.1562500000000000000 ) ;
#162 = DIRECTION ( 'NONE',  ( -0.0000000000000000000, 0.0000000000000000000, -1.000000000000000000 ) ) ;
#163 = DIRECTION ( 'NONE',  ( 0.0000000000000000000, 0.0000000000000000000, 1.000000000000000000 ) ) ;
#164 = ORIENTED_EDGE ( 'NONE', *, *, #262, .T. ) ;
#165 =( NAMED_UNIT ( * ) SI_UNIT ( $, .STERADIAN. ) SOLID_ANGLE_UNIT ( ) );
#166 = VECTOR ( 'NONE', #260, 39.37007874015748143 ) ;
#167 = ADVANCED_BREP_SHAPE_REPRESENTATION ( 'Micro_DM-312-2120X', ( #33, #198 ), #1 ) ;
#168 = ORIENTED_EDGE ( 'NONE', *, *, #292, .T. ) ;
#169 = EDGE_LOOP ( 'NONE', ( #217, #73, #212, #218 ) ) ;
#170 = LINE ( 'NONE', #222, #39 ) ;
#171 = SURFACE_SIDE_STYLE ('',( #189 ) ) ;
#172 = DIRECTION ( 'NONE',  ( 1.000000000000000000, 0.0000000000000000000, 0.0000000000000000000 ) ) ;
#173 = EDGE_CURVE ( 'NONE', #104, #30, #102, .T. ) ;
#174 = CIRCLE ( 'NONE', #328, 0.1562000000000000055 ) ;
#175 = ORIENTED_EDGE ( 'NONE', *, *, #93, .T. ) ;
#176 = DIRECTION ( 'NONE',  ( -0.0000000000000000000, -0.0000000000000000000, -1.000000000000000000 ) ) ;
#177 = PRODUCT ( 'Micro_DM-312-2120X', 'Micro_DM-312-2120X', '', ( #203 ) ) ;
#178 = CIRCLE ( 'NONE', #312, 0.1562500000000000000 ) ;
#179 = CARTESIAN_POINT ( 'NONE',  ( 0.0000000000000000000, 0.0000000000000000000, 0.0000000000000000000 ) ) ;
#180 = DIMENSIONAL_EXPONENTS ( 1.000000000000000000, 0.0000000000000000000, 0.0000000000000000000, 0.0000000000000000000, 0.0000000000000000000, 0.0000000000000000000, 0.0000000000000000000 ) ;
#181 = CIRCLE ( 'NONE', #282, 0.1562500000000000000 ) ;
#182 = CARTESIAN_POINT ( 'NONE',  ( 0.0000000000000000000, 0.0000000000000000000, 0.08585198502849683555 ) ) ;
#183 = LINE ( 'NONE', #160, #153 ) ;
#184 = EDGE_LOOP ( 'NONE', ( #65, #319 ) ) ;
#185 = CARTESIAN_POINT ( 'NONE',  ( 0.0000000000000000000, 0.0000000000000000000, 2.500000000000000000 ) ) ;
#186 = CIRCLE ( 'NONE', #220, 0.1562500000000000000 ) ;
#187 = CARTESIAN_POINT ( 'NONE',  ( 0.0000000000000000000, 0.0000000000000000000, 0.08585198502849683555 ) ) ;
#188 = CARTESIAN_POINT ( 'NONE',  ( 0.007499999999999999722, 0.0000000000000000000, 1.707404996040164512E-17 ) ) ;
#189 = SURFACE_STYLE_FILL_AREA ( #327 ) ;
#190 =( CONVERSION_BASED_UNIT ( 'INCH', #87 ) LENGTH_UNIT ( ) NAMED_UNIT ( #180 ) );
#191 = ORIENTED_EDGE ( 'NONE', *, *, #232, .T. ) ;
#192 =( NAMED_UNIT ( * ) PLANE_ANGLE_UNIT ( ) SI_UNIT ( $, .RADIAN. ) );
#193 = EDGE_LOOP ( 'NONE', ( #164, #134 ) ) ;
#194 = CARTESIAN_POINT ( 'NONE',  ( 0.0000000000000000000, 0.0000000000000000000, 1.707404996040164512E-17 ) ) ;
#195 = DIRECTION ( 'NONE',  ( -0.0000000000000000000, -0.0000000000000000000, -1.000000000000000000 ) ) ;
#196 = EDGE_LOOP ( 'NONE', ( #125, #57, #36, #139 ) ) ;
#197 = DIRECTION ( 'NONE',  ( -0.0000000000000000000, -0.0000000000000000000, -1.000000000000000000 ) ) ;
#198 = AXIS2_PLACEMENT_3D ( 'NONE', #179, #254, #49 ) ;
#199 = SURFACE_SIDE_STYLE ('',( #311 ) ) ;
#200 = APPLICATION_CONTEXT ( 'automotive_design' ) ;
#201 = FILL_AREA_STYLE ('',( #256 ) ) ;
#202 = ADVANCED_FACE ( 'NONE', ( #289 ), #215, .T. ) ;
#203 = PRODUCT_CONTEXT ( 'NONE', #200, 'mechanical' ) ;
#204 = AXIS2_PLACEMENT_3D ( 'NONE', #278, #20, #226 ) ;
#205 = CLOSED_SHELL ( 'NONE', ( #202, #60, #156, #27, #307, #140, #50, #99, #310, #3, #258 ) ) ;
#206 = CIRCLE ( 'NONE', #76, 0.007499999999999999722 ) ;
#207 = ORIENTED_EDGE ( 'NONE', *, *, #159, .F. ) ;
#208 = CARTESIAN_POINT ( 'NONE',  ( 0.0000000000000000000, 0.0000000000000000000, 2.500000000000000000 ) ) ;
#209 = ORIENTED_EDGE ( 'NONE', *, *, #93, .F. ) ;
#210 = DIRECTION ( 'NONE',  ( 0.0000000000000000000, 0.0000000000000000000, -1.000000000000000000 ) ) ;
#211 = EDGE_CURVE ( 'NONE', #94, #223, #216, .T. ) ;
#212 = ORIENTED_EDGE ( 'NONE', *, *, #280, .T. ) ;
#213 = FACE_OUTER_BOUND ( 'NONE', #196, .T. ) ;
#214 = AXIS2_PLACEMENT_3D ( 'NONE', #185, #105, #233 ) ;
#215 = CYLINDRICAL_SURFACE ( 'NONE', #23, 0.1562000000000000333 ) ;
#216 = LINE ( 'NONE', #157, #166 ) ;
#217 = ORIENTED_EDGE ( 'NONE', *, *, #82, .F. ) ;
#218 = ORIENTED_EDGE ( 'NONE', *, *, #155, .T. ) ;
#219 = LINE ( 'NONE', #19, #234 ) ;
#220 = AXIS2_PLACEMENT_3D ( 'NONE', #276, #272, #253 ) ;
#221 = EDGE_LOOP ( 'NONE', ( #34, #175, #96, #47 ) ) ;
#222 = CARTESIAN_POINT ( 'NONE',  ( 0.007499999999999999722, 0.0000000000000000000, 1.707404996040164512E-17 ) ) ;
#223 = VERTEX_POINT ( 'NONE', #31 ) ;
#224 = EDGE_CURVE ( 'NONE', #15, #94, #186, .T. ) ;
#225 = DIRECTION ( 'NONE',  ( -0.0000000000000000000, -0.0000000000000000000, -1.000000000000000000 ) ) ;
#226 = DIRECTION ( 'NONE',  ( -1.000000000000000000, 0.0000000000000000000, 0.0000000000000000000 ) ) ;
#227 = SHAPE_DEFINITION_REPRESENTATION ( #46, #167 ) ;
#228 =( GEOMETRIC_REPRESENTATION_CONTEXT ( 3 ) GLOBAL_UNCERTAINTY_ASSIGNED_CONTEXT ( ( #59 ) ) GLOBAL_UNIT_ASSIGNED_CONTEXT ( ( #51, #25, #28 ) ) REPRESENTATION_CONTEXT ( 'NONE', 'WORKASPACE' ) );
#229 = DIMENSIONAL_EXPONENTS ( 1.000000000000000000, 0.0000000000000000000, 0.0000000000000000000, 0.0000000000000000000, 0.0000000000000000000, 0.0000000000000000000, 0.0000000000000000000 ) ;
#230 = EDGE_CURVE ( 'NONE', #129, #121, #219, .T. ) ;
#231 = COLOUR_RGB ( '',0.7921568627450980005, 0.8196078431372548767, 0.9333333333333333481 ) ;
#232 = EDGE_CURVE ( 'NONE', #30, #94, #149, .T. ) ;
#233 = DIRECTION ( 'NONE',  ( 1.000000000000000000, 0.0000000000000000000, 0.0000000000000000000 ) ) ;
#234 = VECTOR ( 'NONE', #225, 39.37007874015748143 ) ;
#235 = ORIENTED_EDGE ( 'NONE', *, *, #211, .T. ) ;
#236 = CARTESIAN_POINT ( 'NONE',  ( 0.1561999999999999500, 0.0000000000000000000, 0.08585198502849683555 ) ) ;
#237 = VECTOR ( 'NONE', #63, 39.37007874015748143 ) ;
#238 = EDGE_LOOP ( 'NONE', ( #320, #10 ) ) ;
#239 = CARTESIAN_POINT ( 'NONE',  ( 0.0000000000000000000, 0.0000000000000000000, 1.707404996040164512E-17 ) ) ;
#240 = VERTEX_POINT ( 'NONE', #297 ) ;
#241 = CARTESIAN_POINT ( 'NONE',  ( 0.1412499999999994871, 1.729813603795630110E-17, 2.500000000000000000 ) ) ;
#242 = DIRECTION ( 'NONE',  ( -0.0000000000000000000, -0.0000000000000000000, -1.000000000000000000 ) ) ;
#243 = EDGE_LOOP ( 'NONE', ( #209, #55, #235, #303 ) ) ;
#244 = CYLINDRICAL_SURFACE ( 'NONE', #329, 0.1562000000000000333 ) ;
#245 = CARTESIAN_POINT ( 'NONE',  ( 0.1562000000000000333, 1.912898300268165973E-17, 0.0000000000000000000 ) ) ;
#246 = ORIENTED_EDGE ( 'NONE', *, *, #224, .F. ) ;
#247 = DIRECTION ( 'NONE',  ( -1.000000000000000000, 0.0000000000000000000, 0.0000000000000000000 ) ) ;
#248 = EDGE_CURVE ( 'NONE', #240, #223, #181, .T. ) ;
#249 = CIRCLE ( 'NONE', #131, 0.1562000000000000888 ) ;
#250 = CYLINDRICAL_SURFACE ( 'NONE', #204, 0.1562500000000000000 ) ;
#251 = DIRECTION ( 'NONE',  ( -1.000000000000000000, 0.0000000000000000000, 0.0000000000000000000 ) ) ;
#252 = FACE_OUTER_BOUND ( 'NONE', #221, .T. ) ;
#253 = DIRECTION ( 'NONE',  ( 1.000000000000000000, 0.0000000000000000000, 0.0000000000000000000 ) ) ;
#254 = DIRECTION ( 'NONE',  ( 0.0000000000000000000, 0.0000000000000000000, 1.000000000000000000 ) ) ;
#255 = CIRCLE ( 'NONE', #62, 0.1412499999999994871 ) ;
#256 = FILL_AREA_STYLE_COLOUR ( '', #231 ) ;
#257 = EDGE_CURVE ( 'NONE', #138, #110, #206, .T. ) ;
#258 = ADVANCED_FACE ( 'NONE', ( #270 ), #322, .F. ) ;
#259 = AXIS2_PLACEMENT_3D ( 'NONE', #72, #66, #92 ) ;
#260 = DIRECTION ( 'NONE',  ( -0.0000000000000000000, -0.0000000000000000000, -1.000000000000000000 ) ) ;
#261 = EDGE_CURVE ( 'NONE', #75, #129, #249, .T. ) ;
#262 = EDGE_CURVE ( 'NONE', #223, #240, #161, .T. ) ;
#263 = DIRECTION ( 'NONE',  ( 0.7071067811865410224, 8.659560562354852739E-17, -0.7071067811865539010 ) ) ;
#264 = CIRCLE ( 'NONE', #6, 0.007499999999999999722 ) ;
#265 = CARTESIAN_POINT ( 'NONE',  ( 0.1562500000000000000, 1.913510623667739463E-17, 2.500000000000000000 ) ) ;
#266 = DIRECTION ( 'NONE',  ( -0.0000000000000000000, -0.0000000000000000000, -1.000000000000000000 ) ) ;
#267 = CARTESIAN_POINT ( 'NONE',  ( 0.1562000000000000888, 1.912898300268166897E-17, 0.8129999999999999449 ) ) ;
#268 = ORIENTED_EDGE ( 'NONE', *, *, #261, .T. ) ;
#269 = PRODUCT_DEFINITION_FORMATION_WITH_SPECIFIED_SOURCE ( 'ANY', '', #177, .NOT_KNOWN. ) ;
#270 = FACE_OUTER_BOUND ( 'NONE', #184, .T. ) ;
#271 = ORIENTED_EDGE ( 'NONE', *, *, #292, .F. ) ;
#272 = DIRECTION ( 'NONE',  ( 0.0000000000000000000, 0.0000000000000000000, -1.000000000000000000 ) ) ;
#273 = ORIENTED_EDGE ( 'NONE', *, *, #280, .F. ) ;
#274 = DIRECTION ( 'NONE',  ( 0.8660254037844398178, 0.0000000000000000000, 0.4999999999999977240 ) ) ;
#275 = ORIENTED_EDGE ( 'NONE', *, *, #147, .T. ) ;
#276 = CARTESIAN_POINT ( 'NONE',  ( 0.0000000000000000000, 0.0000000000000000000, 2.484999999999999432 ) ) ;
#277 = STYLED_ITEM ( 'NONE', ( #54 ), #167 ) ;
#278 = CARTESIAN_POINT ( 'NONE',  ( 0.0000000000000000000, 0.0000000000000000000, 2.500000000000000000 ) ) ;
#279 = FACE_OUTER_BOUND ( 'NONE', #169, .T. ) ;
#280 = EDGE_CURVE ( 'NONE', #138, #68, #170, .T. ) ;
#281 =( NAMED_UNIT ( * ) SI_UNIT ( $, .STERADIAN. ) SOLID_ANGLE_UNIT ( ) );
#282 = AXIS2_PLACEMENT_3D ( 'NONE', #48, #43, #146 ) ;
#283 = PRESENTATION_LAYER_ASSIGNMENT (  '', '', ( #294 ) ) ;
#284 =( LENGTH_UNIT ( ) NAMED_UNIT ( * ) SI_UNIT ( $, .METRE. ) );
#285 = EDGE_CURVE ( 'NONE', #75, #68, #299, .T. ) ;
#286 = DIRECTION ( 'NONE',  ( -0.8660254037844398178, 1.060575238724908517E-16, 0.4999999999999977240 ) ) ;
#287 = EDGE_LOOP ( 'NONE', ( #207, #314, #191, #246 ) ) ;
#288 = DIRECTION ( 'NONE',  ( 0.0000000000000000000, 0.0000000000000000000, 1.000000000000000000 ) ) ;
#289 = FACE_OUTER_BOUND ( 'NONE', #108, .T. ) ;
#290 = AXIS2_PLACEMENT_3D ( 'NONE', #194, #14, #304 ) ;
#291 = AXIS2_PLACEMENT_3D ( 'NONE', #117, #197, #251 ) ;
#292 = EDGE_CURVE ( 'NONE', #129, #75, #78, .T. ) ;
#293 = PLANE ( 'NONE',  #152 ) ;
#294 = STYLED_ITEM ( 'NONE', ( #325 ), #33 ) ;
#295 = DIRECTION ( 'NONE',  ( 1.000000000000000000, 0.0000000000000000000, -0.0000000000000000000 ) ) ;
#296 = SURFACE_STYLE_USAGE ( .BOTH. , #171 ) ;
#297 = CARTESIAN_POINT ( 'NONE',  ( 0.1562500000000000000, 1.913510623667739463E-17, 0.8129999999999997229 ) ) ;
#298 = EDGE_LOOP ( 'NONE', ( #12, #145, #275, #273 ) ) ;
#299 = LINE ( 'NONE', #245, #321 ) ;
#300 = AXIS2_PLACEMENT_3D ( 'NONE', #208, #79, #83 ) ;
#301 = ORIENTED_EDGE ( 'NONE', *, *, #285, .T. ) ;
#302 = CYLINDRICAL_SURFACE ( 'NONE', #259, 0.1562500000000000000 ) ;
#303 = ORIENTED_EDGE ( 'NONE', *, *, #248, .F. ) ;
#304 = DIRECTION ( 'NONE',  ( 1.000000000000000000, 0.0000000000000000000, 0.0000000000000000000 ) ) ;
#305 = FACE_OUTER_BOUND ( 'NONE', #148, .T. ) ;
#306 = FACE_OUTER_BOUND ( 'NONE', #243, .T. ) ;
#307 = ADVANCED_FACE ( 'NONE', ( #306 ), #302, .T. ) ;
#308 = PRESENTATION_LAYER_ASSIGNMENT (  '', '', ( #277 ) ) ;
#309 = AXIS2_PLACEMENT_3D ( 'NONE', #141, #124, #44 ) ;
#310 = ADVANCED_FACE ( 'NONE', ( #279 ), #144, .T. ) ;
#311 = SURFACE_STYLE_FILL_AREA ( #201 ) ;
#312 = AXIS2_PLACEMENT_3D ( 'NONE', #84, #210, #86 ) ;
#313 = LINE ( 'NONE', #241, #16 ) ;
#314 = ORIENTED_EDGE ( 'NONE', *, *, #317, .F. ) ;
#315 = DIRECTION ( 'NONE',  ( 0.0000000000000000000, 0.0000000000000000000, -1.000000000000000000 ) ) ;
#316 = CARTESIAN_POINT ( 'NONE',  ( 0.0000000000000000000, 0.0000000000000000000, 2.500000000000000000 ) ) ;
#317 = EDGE_CURVE ( 'NONE', #30, #104, #255, .T. ) ;
#318 = CARTESIAN_POINT ( 'NONE',  ( 0.0000000000000000000, 0.0000000000000000000, 0.0000000000000000000 ) ) ;
#319 = ORIENTED_EDGE ( 'NONE', *, *, #112, .T. ) ;
#320 = ORIENTED_EDGE ( 'NONE', *, *, #317, .T. ) ;
#321 = VECTOR ( 'NONE', #195, 39.37007874015748143 ) ;
#322 = PLANE ( 'NONE',  #309 ) ;
#323 = DIRECTION ( 'NONE',  ( -1.000000000000000000, 0.0000000000000000000, 0.0000000000000000000 ) ) ;
#324 = CARTESIAN_POINT ( 'NONE',  ( 0.0000000000000000000, 0.0000000000000000000, 0.8129999999999999449 ) ) ;
#325 = PRESENTATION_STYLE_ASSIGNMENT (( #296 ) ) ;
#326 = CARTESIAN_POINT ( 'NONE',  ( 0.0000000000000000000, 0.0000000000000000000, 0.8129999999999999449 ) ) ;
#327 = FILL_AREA_STYLE ('',( #42 ) ) ;
#328 = AXIS2_PLACEMENT_3D ( 'NONE', #182, #242, #111 ) ;
#329 = AXIS2_PLACEMENT_3D ( 'NONE', #118, #13, #323 ) ;
ENDSEC;
END-ISO-10303-21;
