ISO-10303-21;
HEADER;
FILE_DESCRIPTION (( 'STEP AP214' ),
    '1' );
FILE_NAME ('Micro_SHLM-100-4X.STEP',
    '2021-09-02T08:24:21',
    ( '' ),
    ( '' ),
    'SwSTEP 2.0',
    'SolidWorks 2020',
    '' );
FILE_SCHEMA (( 'AUTOMOTIVE_DESIGN' ));
ENDSEC;

DATA;
#1 = ORIENTED_EDGE ( 'NONE', *, *, #251, .T. ) ;
#2 = VERTEX_POINT ( 'NONE', #236 ) ;
#3 = CARTESIAN_POINT ( 'NONE',  ( 0.1966536495000001661, 0.0000000000000000000, 1.496062999999999921 ) ) ;
#4 = DIRECTION ( 'NONE',  ( -1.224646799147353207E-16, -0.0000000000000000000, -1.000000000000000000 ) ) ;
#5 = AXIS2_PLACEMENT_3D ( 'NONE', #6, #288, #282 ) ;
#6 = CARTESIAN_POINT ( 'NONE',  ( 1.833515953421984882E-16, 0.0000000000000000000, 1.497179394661832363 ) ) ;
#7 = DIRECTION ( 'NONE',  ( 0.0000000000000000000, 0.0000000000000000000, 1.000000000000000000 ) ) ;
#8 = ORIENTED_EDGE ( 'NONE', *, *, #207, .F. ) ;
#9 = LENGTH_MEASURE_WITH_UNIT ( LENGTH_MEASURE( 0.02539999999999999897 ), #146 );
#10 = ORIENTED_EDGE ( 'NONE', *, *, #267, .F. ) ;
#11 = AXIS2_PLACEMENT_3D ( 'NONE', #38, #7, #107 ) ;
#12 = ADVANCED_FACE ( 'NONE', ( #120 ), #182, .T. ) ;
#13 =( NAMED_UNIT ( * ) PLANE_ANGLE_UNIT ( ) SI_UNIT ( $, .RADIAN. ) );
#14 = VERTEX_POINT ( 'NONE', #51 ) ;
#15 = DIRECTION ( 'NONE',  ( 1.000000000000000000, 0.0000000000000000000, -0.0000000000000000000 ) ) ;
#16 = DIRECTION ( 'NONE',  ( 0.0000000000000000000, 0.0000000000000000000, 1.000000000000000000 ) ) ;
#17 = DIRECTION ( 'NONE',  ( -1.224646799147353207E-16, -0.0000000000000000000, -1.000000000000000000 ) ) ;
#18 = FACE_OUTER_BOUND ( 'NONE', #209, .T. ) ;
#19 = ADVANCED_FACE ( 'NONE', ( #298 ), #244, .T. ) ;
#20 = VERTEX_POINT ( 'NONE', #3 ) ;
#21 = AXIS2_PLACEMENT_3D ( 'NONE', #210, #227, #102 ) ;
#22 = CIRCLE ( 'NONE', #5, 0.1968504999999999838 ) ;
#23 = ORIENTED_EDGE ( 'NONE', *, *, #283, .F. ) ;
#24 = CARTESIAN_POINT ( 'NONE',  ( 1.832148764272786481E-16, 0.0000000000000000000, 1.496062999999999921 ) ) ;
#25 = FACE_OUTER_BOUND ( 'NONE', #194, .T. ) ;
#26 = AXIS2_PLACEMENT_3D ( 'NONE', #90, #67, #159 ) ;
#27 = EDGE_LOOP ( 'NONE', ( #165, #276, #77, #109 ) ) ;
#28 = DIRECTION ( 'NONE',  ( -1.000000000000000000, 0.0000000000000000000, 0.0000000000000000000 ) ) ;
#29 = FILL_AREA_STYLE_COLOUR ( '', #235 ) ;
#30 = EDGE_CURVE ( 'NONE', #20, #119, #195, .T. ) ;
#31 =( CONVERSION_BASED_UNIT ( 'INCH', #155 ) LENGTH_UNIT ( ) NAMED_UNIT ( #206 ) );
#32 = FACE_OUTER_BOUND ( 'NONE', #260, .T. ) ;
#33 = CYLINDRICAL_SURFACE ( 'NONE', #95, 0.1968504999999999838 ) ;
#34 = EDGE_CURVE ( 'NONE', #296, #275, #172, .T. ) ;
#35 = SURFACE_SIDE_STYLE ('',( #166 ) ) ;
#36 = LINE ( 'NONE', #238, #139 ) ;
#37 = CONICAL_SURFACE ( 'NONE', #201, 0.1966536494999999996, 0.1745329251994339192 ) ;
#38 = CARTESIAN_POINT ( 'NONE',  ( 0.0000000000000000000, 0.0000000000000000000, 0.0000000000000000000 ) ) ;
#39 = EDGE_CURVE ( 'NONE', #296, #119, #234, .T. ) ;
#40 = ORIENTED_EDGE ( 'NONE', *, *, #94, .T. ) ;
#41 = PLANE ( 'NONE',  #145 ) ;
#42 = CIRCLE ( 'NONE', #89, 0.1968504999999999838 ) ;
#43 = CARTESIAN_POINT ( 'NONE',  ( -0.1966536494999999996, 0.0000000000000000000, 4.816625248016410340E-17 ) ) ;
#44 = PRODUCT ( 'Micro_SHLM-100-4X', 'Micro_SHLM-100-4X', '', ( #81 ) ) ;
#45 = ORIENTED_EDGE ( 'NONE', *, *, #251, .F. ) ;
#46 = ORIENTED_EDGE ( 'NONE', *, *, #231, .F. ) ;
#47 = AXIS2_PLACEMENT_3D ( 'NONE', #186, #222, #133 ) ;
#48 = CIRCLE ( 'NONE', #47, 0.1968504999999999838 ) ;
#49 = DIRECTION ( 'NONE',  ( 0.0000000000000000000, 0.0000000000000000000, -1.000000000000000000 ) ) ;
#50 = EDGE_LOOP ( 'NONE', ( #140, #230 ) ) ;
#51 = CARTESIAN_POINT ( 'NONE',  ( -0.1818504999999994431, 0.0000000000000000000, 3.937007999999999619 ) ) ;
#52 = ORIENTED_EDGE ( 'NONE', *, *, #158, .F. ) ;
#53 = EDGE_CURVE ( 'NONE', #253, #20, #103, .T. ) ;
#54 = DIRECTION ( 'NONE',  ( 1.224646799147353207E-16, 0.0000000000000000000, 1.000000000000000000 ) ) ;
#55 = FACE_OUTER_BOUND ( 'NONE', #131, .T. ) ;
#56 = VECTOR ( 'NONE', #273, 39.37007874015748143 ) ;
#57 = SHAPE_DEFINITION_REPRESENTATION ( #233, #91 ) ;
#58 = DIRECTION ( 'NONE',  ( 0.7071067811865419106, 8.659560562354863833E-17, -0.7071067811865531239 ) ) ;
#59 = ADVANCED_FACE ( 'NONE', ( #99 ), #291, .T. ) ;
#60 = DIRECTION ( 'NONE',  ( 1.000000000000000000, 0.0000000000000000000, -0.0000000000000000000 ) ) ;
#61 = ORIENTED_EDGE ( 'NONE', *, *, #39, .F. ) ;
#62 = DIRECTION ( 'NONE',  ( 1.000000000000000000, 0.0000000000000000000, 0.0000000000000000000 ) ) ;
#63 = AXIS2_PLACEMENT_3D ( 'NONE', #169, #49, #278 ) ;
#64 = AXIS2_PLACEMENT_3D ( 'NONE', #199, #284, #176 ) ;
#65 = CARTESIAN_POINT ( 'NONE',  ( -0.1968504999999999838, 0.0000000000000000000, 3.937007999999999619 ) ) ;
#66 = CARTESIAN_POINT ( 'NONE',  ( -0.1968504999999999838, 0.0000000000000000000, 3.922007999999999051 ) ) ;
#67 = DIRECTION ( 'NONE',  ( -1.224646799147353207E-16, -0.0000000000000000000, -1.000000000000000000 ) ) ;
#68 = CARTESIAN_POINT ( 'NONE',  ( 2.949332346337811403E-33, 0.0000000000000000000, 2.408312624008205170E-17 ) ) ;
#69 = AXIS2_PLACEMENT_3D ( 'NONE', #292, #226, #270 ) ;
#70 = ADVANCED_FACE ( 'NONE', ( #25 ), #180, .T. ) ;
#71 = ORIENTED_EDGE ( 'NONE', *, *, #88, .F. ) ;
#72 = ORIENTED_EDGE ( 'NONE', *, *, #207, .T. ) ;
#73 = AXIS2_PLACEMENT_3D ( 'NONE', #151, #215, #237 ) ;
#74 = DIRECTION ( 'NONE',  ( 0.1736481776669314137, 0.0000000000000000000, 0.9848077530122077983 ) ) ;
#75 =( GEOMETRIC_REPRESENTATION_CONTEXT ( 3 ) GLOBAL_UNCERTAINTY_ASSIGNED_CONTEXT ( ( #258 ) ) GLOBAL_UNIT_ASSIGNED_CONTEXT ( ( #219, #13, #142 ) ) REPRESENTATION_CONTEXT ( 'NONE', 'WORKASPACE' ) );
#76 = ORIENTED_EDGE ( 'NONE', *, *, #97, .F. ) ;
#77 = ORIENTED_EDGE ( 'NONE', *, *, #203, .T. ) ;
#78 = UNCERTAINTY_MEASURE_WITH_UNIT (LENGTH_MEASURE( 1.000000000000000082E-05 ), #216, 'distance_accuracy_value', 'NONE');
#79 = ORIENTED_EDGE ( 'NONE', *, *, #39, .T. ) ;
#80 = LINE ( 'NONE', #127, #239 ) ;
#81 = PRODUCT_CONTEXT ( 'NONE', #189, 'mechanical' ) ;
#82 = PRODUCT_RELATED_PRODUCT_CATEGORY ( 'part', '', ( #44 ) ) ;
#83 = DIRECTION ( 'NONE',  ( -0.0000000000000000000, -0.0000000000000000000, -1.000000000000000000 ) ) ;
#84 = COLOUR_RGB ( '',0.7921568627450980005, 0.8196078431372548767, 0.9333333333333333481 ) ;
#85 = LINE ( 'NONE', #217, #281 ) ;
#86 = FACE_OUTER_BOUND ( 'NONE', #137, .T. ) ;
#87 = AXIS2_PLACEMENT_3D ( 'NONE', #149, #197, #60 ) ;
#88 = EDGE_CURVE ( 'NONE', #111, #252, #205, .T. ) ;
#89 = AXIS2_PLACEMENT_3D ( 'NONE', #157, #247, #223 ) ;
#90 = CARTESIAN_POINT ( 'NONE',  ( 0.0000000000000000000, 0.0000000000000000000, 0.0000000000000000000 ) ) ;
#91 = ADVANCED_BREP_SHAPE_REPRESENTATION ( 'Micro_SHLM-100-4X', ( #147, #11 ), #75 ) ;
#92 = CARTESIAN_POINT ( 'NONE',  ( 0.1966536494999999996, 2.408312624008205170E-17, -2.408312624008205170E-17 ) ) ;
#93 = DIRECTION ( 'NONE',  ( -0.7071067811865419106, 0.0000000000000000000, -0.7071067811865531239 ) ) ;
#94 = EDGE_CURVE ( 'NONE', #279, #296, #80, .T. ) ;
#95 = AXIS2_PLACEMENT_3D ( 'NONE', #200, #83, #128 ) ;
#96 = ORIENTED_EDGE ( 'NONE', *, *, #245, .T. ) ;
#97 = EDGE_CURVE ( 'NONE', #20, #253, #115, .T. ) ;
#98 = CARTESIAN_POINT ( 'NONE',  ( 1.832148764272786481E-16, 0.0000000000000000000, 1.496062999999999921 ) ) ;
#99 = FACE_OUTER_BOUND ( 'NONE', #27, .T. ) ;
#100 = CIRCLE ( 'NONE', #224, 0.1818504999999994431 ) ;
#101 = ORIENTED_EDGE ( 'NONE', *, *, #129, .F. ) ;
#102 = DIRECTION ( 'NONE',  ( -1.000000000000000000, 0.0000000000000000000, 0.0000000000000000000 ) ) ;
#103 = CIRCLE ( 'NONE', #138, 0.1966536494999999996 ) ;
#104 = CIRCLE ( 'NONE', #69, 0.1818504999999994431 ) ;
#105 = CYLINDRICAL_SURFACE ( 'NONE', #64, 0.1966536494999999996 ) ;
#106 = ADVANCED_FACE ( 'NONE', ( #55 ), #179, .T. ) ;
#107 = DIRECTION ( 'NONE',  ( 1.000000000000000000, 0.0000000000000000000, 0.0000000000000000000 ) ) ;
#108 = SURFACE_SIDE_STYLE ('',( #262 ) ) ;
#109 = ORIENTED_EDGE ( 'NONE', *, *, #34, .F. ) ;
#110 = CARTESIAN_POINT ( 'NONE',  ( 0.0000000000000000000, 0.0000000000000000000, 3.937007999999999619 ) ) ;
#111 = VERTEX_POINT ( 'NONE', #241 ) ;
#112 = PRESENTATION_LAYER_ASSIGNMENT (  '', '', ( #198 ) ) ;
#113 =( LENGTH_UNIT ( ) NAMED_UNIT ( * ) SI_UNIT ( $, .METRE. ) );
#114 = EDGE_LOOP ( 'NONE', ( #10, #40, #23, #144 ) ) ;
#115 = CIRCLE ( 'NONE', #161, 0.1966536494999999996 ) ;
#116 = CARTESIAN_POINT ( 'NONE',  ( 0.1968504999999999838, 2.410723347355560646E-17, 3.922007999999999051 ) ) ;
#117 = LINE ( 'NONE', #92, #229 ) ;
#118 = CARTESIAN_POINT ( 'NONE',  ( -0.1966536494999998330, 2.409517985681882600E-17, 1.496062999999999921 ) ) ;
#119 = VERTEX_POINT ( 'NONE', #242 ) ;
#120 = FACE_OUTER_BOUND ( 'NONE', #114, .T. ) ;
#121 = DIRECTION ( 'NONE',  ( -1.224646799147353207E-16, -0.0000000000000000000, -1.000000000000000000 ) ) ;
#122 = ORIENTED_EDGE ( 'NONE', *, *, #53, .F. ) ;
#123 = PRESENTATION_LAYER_ASSIGNMENT (  '', '', ( #249 ) ) ;
#124 = DIRECTION ( 'NONE',  ( 1.224646799147353207E-16, 0.0000000000000000000, 1.000000000000000000 ) ) ;
#125 = FACE_OUTER_BOUND ( 'NONE', #171, .T. ) ;
#126 = PRODUCT_DEFINITION_FORMATION_WITH_SPECIFIED_SOURCE ( 'ANY', '', #44, .NOT_KNOWN. ) ;
#127 = CARTESIAN_POINT ( 'NONE',  ( 0.1818504999999994431, 2.227026327483450676E-17, 3.937007999999999619 ) ) ;
#128 = DIRECTION ( 'NONE',  ( -1.000000000000000000, 0.0000000000000000000, 0.0000000000000000000 ) ) ;
#129 = EDGE_CURVE ( 'NONE', #253, #252, #36, .T. ) ;
#130 = LENGTH_MEASURE_WITH_UNIT ( LENGTH_MEASURE( 0.02539999999999999897 ), #293 );
#131 = EDGE_LOOP ( 'NONE', ( #220, #79, #45, #8 ) ) ;
#132 = CARTESIAN_POINT ( 'NONE',  ( 0.0000000000000000000, 0.0000000000000000000, 3.937007999999999619 ) ) ;
#133 = DIRECTION ( 'NONE',  ( 1.000000000000000000, 0.0000000000000000000, 0.0000000000000000000 ) ) ;
#134 = AXIS2_PLACEMENT_3D ( 'NONE', #68, #17, #250 ) ;
#135 = DIRECTION ( 'NONE',  ( 0.0000000000000000000, 0.0000000000000000000, 1.000000000000000000 ) ) ;
#136 = ORIENTED_EDGE ( 'NONE', *, *, #267, .T. ) ;
#137 = EDGE_LOOP ( 'NONE', ( #122, #214, #1, #269 ) ) ;
#138 = AXIS2_PLACEMENT_3D ( 'NONE', #24, #121, #212 ) ;
#139 = VECTOR ( 'NONE', #218, 39.37007874015748143 ) ;
#140 = ORIENTED_EDGE ( 'NONE', *, *, #225, .T. ) ;
#141 = CARTESIAN_POINT ( 'NONE',  ( 0.1968504999999999838, 2.410723347355560646E-17, 3.937007999999999619 ) ) ;
#142 =( NAMED_UNIT ( * ) SI_UNIT ( $, .STERADIAN. ) SOLID_ANGLE_UNIT ( ) );
#143 = DIRECTION ( 'NONE',  ( -1.000000000000000000, 0.0000000000000000000, 0.0000000000000000000 ) ) ;
#144 = ORIENTED_EDGE ( 'NONE', *, *, #203, .F. ) ;
#145 = AXIS2_PLACEMENT_3D ( 'NONE', #294, #135, #15 ) ;
#146 =( LENGTH_UNIT ( ) NAMED_UNIT ( * ) SI_UNIT ( $, .METRE. ) );
#147 = MANIFOLD_SOLID_BREP ( 'Cut-Revolve1', #154 ) ;
#148 = DIRECTION ( 'NONE',  ( 1.000000000000000000, 0.0000000000000000000, 0.0000000000000000000 ) ) ;
#149 = CARTESIAN_POINT ( 'NONE',  ( 0.0000000000000000000, 0.0000000000000000000, 3.937007999999999619 ) ) ;
#150 = VECTOR ( 'NONE', #74, 39.37007874015748143 ) ;
#151 = CARTESIAN_POINT ( 'NONE',  ( 2.949332346337811403E-33, 0.0000000000000000000, 2.408312624008205170E-17 ) ) ;
#152 = DIRECTION ( 'NONE',  ( -1.000000000000000000, 0.0000000000000000000, 0.0000000000000000000 ) ) ;
#153 = FILL_AREA_STYLE ('',( #204 ) ) ;
#154 = CLOSED_SHELL ( 'NONE', ( #272, #164, #12, #106, #192, #70, #59, #19, #184, #257 ) ) ;
#155 = LENGTH_MEASURE_WITH_UNIT ( LENGTH_MEASURE( 0.02539999999999999897 ), #113 );
#156 = DIRECTION ( 'NONE',  ( -1.224646799147353207E-16, -0.0000000000000000000, -1.000000000000000000 ) ) ;
#157 = CARTESIAN_POINT ( 'NONE',  ( 0.0000000000000000000, 0.0000000000000000000, 3.922007999999999051 ) ) ;
#158 = EDGE_CURVE ( 'NONE', #119, #2, #22, .T. ) ;
#159 = DIRECTION ( 'NONE',  ( -1.000000000000000000, 0.0000000000000000000, 1.224646799147353207E-16 ) ) ;
#160 = DIMENSIONAL_EXPONENTS ( 1.000000000000000000, 0.0000000000000000000, 0.0000000000000000000, 0.0000000000000000000, 0.0000000000000000000, 0.0000000000000000000, 0.0000000000000000000 ) ;
#161 = AXIS2_PLACEMENT_3D ( 'NONE', #263, #4, #28 ) ;
#162 = LINE ( 'NONE', #65, #56 ) ;
#163 = ORIENTED_EDGE ( 'NONE', *, *, #53, .T. ) ;
#164 = ADVANCED_FACE ( 'NONE', ( #86 ), #37, .T. ) ;
#165 = ORIENTED_EDGE ( 'NONE', *, *, #94, .F. ) ;
#166 = SURFACE_STYLE_FILL_AREA ( #153 ) ;
#167 = AXIS2_PLACEMENT_3D ( 'NONE', #170, #255, #143 ) ;
#168 =( GEOMETRIC_REPRESENTATION_CONTEXT ( 3 ) GLOBAL_UNCERTAINTY_ASSIGNED_CONTEXT ( ( #78 ) ) GLOBAL_UNIT_ASSIGNED_CONTEXT ( ( #216, #261, #178 ) ) REPRESENTATION_CONTEXT ( 'NONE', 'WORKASPACE' ) );
#169 = CARTESIAN_POINT ( 'NONE',  ( 0.0000000000000000000, 0.0000000000000000000, 3.922007999999999051 ) ) ;
#170 = CARTESIAN_POINT ( 'NONE',  ( 0.0000000000000000000, 0.0000000000000000000, 3.937007999999999619 ) ) ;
#171 = EDGE_LOOP ( 'NONE', ( #46, #208, #256, #71 ) ) ;
#172 = CIRCLE ( 'NONE', #63, 0.1968504999999999838 ) ;
#173 = EDGE_LOOP ( 'NONE', ( #265, #76, #280, #188 ) ) ;
#174 = FILL_AREA_STYLE ('',( #29 ) ) ;
#175 = SURFACE_STYLE_USAGE ( .BOTH. , #35 ) ;
#176 = DIRECTION ( 'NONE',  ( -1.000000000000000000, 0.0000000000000000000, 1.224646799147353207E-16 ) ) ;
#177 = APPLICATION_PROTOCOL_DEFINITION ( 'draft international standard', 'automotive_design', 1998, #295 ) ;
#178 =( NAMED_UNIT ( * ) SI_UNIT ( $, .STERADIAN. ) SOLID_ANGLE_UNIT ( ) );
#179 = CYLINDRICAL_SURFACE ( 'NONE', #268, 0.1968504999999999838 ) ;
#180 = PLANE ( 'NONE',  #87 ) ;
#181 = LINE ( 'NONE', #185, #274 ) ;
#182 = CONICAL_SURFACE ( 'NONE', #21, 0.1818504999999994431, 0.7853981633974403964 ) ;
#183 = MECHANICAL_DESIGN_GEOMETRIC_PRESENTATION_REPRESENTATION (  '', ( #249 ), #287 ) ;
#184 = ADVANCED_FACE ( 'NONE', ( #125 ), #105, .T. ) ;
#185 = CARTESIAN_POINT ( 'NONE',  ( -0.1966536494999998330, 2.408312624008205170E-17, 1.496062999999999921 ) ) ;
#186 = CARTESIAN_POINT ( 'NONE',  ( 1.833515953421984882E-16, 0.0000000000000000000, 1.497179394661832363 ) ) ;
#187 = DIRECTION ( 'NONE',  ( -0.1736481776669312194, 2.126576849575783625E-17, 0.9848077530122080203 ) ) ;
#188 = ORIENTED_EDGE ( 'NONE', *, *, #158, .T. ) ;
#189 = APPLICATION_CONTEXT ( 'automotive_design' ) ;
#190 = DIRECTION ( 'NONE',  ( 1.000000000000000000, 0.0000000000000000000, 0.0000000000000000000 ) ) ;
#191 = MECHANICAL_DESIGN_GEOMETRIC_PRESENTATION_REPRESENTATION (  '', ( #198 ), #168 ) ;
#192 = ADVANCED_FACE ( 'NONE', ( #32 ), #33, .T. ) ;
#193 = ORIENTED_EDGE ( 'NONE', *, *, #231, .T. ) ;
#194 = EDGE_LOOP ( 'NONE', ( #96, #136 ) ) ;
#195 = LINE ( 'NONE', #277, #150 ) ;
#196 = AXIS2_PLACEMENT_3D ( 'NONE', #98, #124, #190 ) ;
#197 = DIRECTION ( 'NONE',  ( 0.0000000000000000000, 0.0000000000000000000, 1.000000000000000000 ) ) ;
#198 = STYLED_ITEM ( 'NONE', ( #266 ), #147 ) ;
#199 = CARTESIAN_POINT ( 'NONE',  ( 0.0000000000000000000, 0.0000000000000000000, 0.0000000000000000000 ) ) ;
#200 = CARTESIAN_POINT ( 'NONE',  ( 0.0000000000000000000, 0.0000000000000000000, 3.937007999999999619 ) ) ;
#201 = AXIS2_PLACEMENT_3D ( 'NONE', #240, #54, #148 ) ;
#202 =( NAMED_UNIT ( * ) PLANE_ANGLE_UNIT ( ) SI_UNIT ( $, .RADIAN. ) );
#203 = EDGE_CURVE ( 'NONE', #14, #275, #85, .T. ) ;
#204 = FILL_AREA_STYLE_COLOUR ( '', #84 ) ;
#205 = CIRCLE ( 'NONE', #73, 0.1966536494999999996 ) ;
#206 = DIMENSIONAL_EXPONENTS ( 1.000000000000000000, 0.0000000000000000000, 0.0000000000000000000, 0.0000000000000000000, 0.0000000000000000000, 0.0000000000000000000, 0.0000000000000000000 ) ;
#207 = EDGE_CURVE ( 'NONE', #275, #2, #162, .T. ) ;
#208 = ORIENTED_EDGE ( 'NONE', *, *, #97, .T. ) ;
#209 = EDGE_LOOP ( 'NONE', ( #163, #193, #246, #101 ) ) ;
#210 = CARTESIAN_POINT ( 'NONE',  ( 0.0000000000000000000, 0.0000000000000000000, 3.937007999999999619 ) ) ;
#211 = EDGE_CURVE ( 'NONE', #253, #2, #181, .T. ) ;
#212 = DIRECTION ( 'NONE',  ( -1.000000000000000000, 0.0000000000000000000, 0.0000000000000000000 ) ) ;
#213 = ORIENTED_EDGE ( 'NONE', *, *, #34, .T. ) ;
#214 = ORIENTED_EDGE ( 'NONE', *, *, #211, .T. ) ;
#215 = DIRECTION ( 'NONE',  ( -1.224646799147353207E-16, -0.0000000000000000000, -1.000000000000000000 ) ) ;
#216 =( CONVERSION_BASED_UNIT ( 'INCH', #9 ) LENGTH_UNIT ( ) NAMED_UNIT ( #248 ) );
#217 = CARTESIAN_POINT ( 'NONE',  ( -0.1818504999999994431, 0.0000000000000000000, 3.937007999999999619 ) ) ;
#218 = DIRECTION ( 'NONE',  ( -1.224646799147353207E-16, -0.0000000000000000000, -1.000000000000000000 ) ) ;
#219 =( CONVERSION_BASED_UNIT ( 'INCH', #130 ) LENGTH_UNIT ( ) NAMED_UNIT ( #160 ) );
#220 = ORIENTED_EDGE ( 'NONE', *, *, #283, .T. ) ;
#221 = PRESENTATION_STYLE_ASSIGNMENT (( #175 ) ) ;
#222 = DIRECTION ( 'NONE',  ( -1.224646799147353207E-16, -0.0000000000000000000, -1.000000000000000000 ) ) ;
#223 = DIRECTION ( 'NONE',  ( 1.000000000000000000, 0.0000000000000000000, 0.0000000000000000000 ) ) ;
#224 = AXIS2_PLACEMENT_3D ( 'NONE', #132, #16, #62 ) ;
#225 = EDGE_CURVE ( 'NONE', #252, #111, #259, .T. ) ;
#226 = DIRECTION ( 'NONE',  ( 0.0000000000000000000, 0.0000000000000000000, 1.000000000000000000 ) ) ;
#227 = DIRECTION ( 'NONE',  ( 0.0000000000000000000, 0.0000000000000000000, -1.000000000000000000 ) ) ;
#228 = VECTOR ( 'NONE', #232, 39.37007874015748143 ) ;
#229 = VECTOR ( 'NONE', #156, 39.37007874015748143 ) ;
#230 = ORIENTED_EDGE ( 'NONE', *, *, #88, .T. ) ;
#231 = EDGE_CURVE ( 'NONE', #20, #111, #117, .T. ) ;
#232 = DIRECTION ( 'NONE',  ( -0.0000000000000000000, -0.0000000000000000000, -1.000000000000000000 ) ) ;
#233 = PRODUCT_DEFINITION_SHAPE ( 'NONE', 'NONE',  #297 ) ;
#234 = LINE ( 'NONE', #141, #228 ) ;
#235 = COLOUR_RGB ( '',0.7921568627450980005, 0.8196078431372548767, 0.9333333333333333481 ) ;
#236 = CARTESIAN_POINT ( 'NONE',  ( -0.1968504999999998173, 0.0000000000000000000, 1.497179394661832363 ) ) ;
#237 = DIRECTION ( 'NONE',  ( -1.000000000000000000, 0.0000000000000000000, 1.224646799147353207E-16 ) ) ;
#238 = CARTESIAN_POINT ( 'NONE',  ( -0.1966536494999999996, 0.0000000000000000000, 2.408312624008205170E-17 ) ) ;
#239 = VECTOR ( 'NONE', #58, 39.37007874015748143 ) ;
#240 = CARTESIAN_POINT ( 'NONE',  ( 1.832148764272786481E-16, 0.0000000000000000000, 1.496062999999999921 ) ) ;
#241 = CARTESIAN_POINT ( 'NONE',  ( 0.1966536494999999996, 2.408312624008205170E-17, 0.0000000000000000000 ) ) ;
#242 = CARTESIAN_POINT ( 'NONE',  ( 0.1968505000000001781, 2.410723347355562803E-17, 1.497179394661832363 ) ) ;
#243 = CARTESIAN_POINT ( 'NONE',  ( 0.1818504999999994431, 2.318874837419505661E-17, 3.937007999999999619 ) ) ;
#244 = CONICAL_SURFACE ( 'NONE', #196, 0.1966536494999999996, 0.1745329251994339192 ) ;
#245 = EDGE_CURVE ( 'NONE', #14, #279, #100, .T. ) ;
#246 = ORIENTED_EDGE ( 'NONE', *, *, #225, .F. ) ;
#247 = DIRECTION ( 'NONE',  ( 0.0000000000000000000, 0.0000000000000000000, -1.000000000000000000 ) ) ;
#248 = DIMENSIONAL_EXPONENTS ( 1.000000000000000000, 0.0000000000000000000, 0.0000000000000000000, 0.0000000000000000000, 0.0000000000000000000, 0.0000000000000000000, 0.0000000000000000000 ) ;
#249 = STYLED_ITEM ( 'NONE', ( #221 ), #91 ) ;
#250 = DIRECTION ( 'NONE',  ( -1.000000000000000000, 0.0000000000000000000, 1.224646799147353207E-16 ) ) ;
#251 = EDGE_CURVE ( 'NONE', #2, #119, #48, .T. ) ;
#252 = VERTEX_POINT ( 'NONE', #43 ) ;
#253 = VERTEX_POINT ( 'NONE', #118 ) ;
#254 = UNCERTAINTY_MEASURE_WITH_UNIT (LENGTH_MEASURE( 1.000000000000000082E-05 ), #31, 'distance_accuracy_value', 'NONE');
#255 = DIRECTION ( 'NONE',  ( 0.0000000000000000000, 0.0000000000000000000, -1.000000000000000000 ) ) ;
#256 = ORIENTED_EDGE ( 'NONE', *, *, #129, .T. ) ;
#257 = ADVANCED_FACE ( 'NONE', ( #271 ), #41, .F. ) ;
#258 = UNCERTAINTY_MEASURE_WITH_UNIT (LENGTH_MEASURE( 1.000000000000000082E-05 ), #219, 'distance_accuracy_value', 'NONE');
#259 = CIRCLE ( 'NONE', #134, 0.1966536494999999996 ) ;
#260 = EDGE_LOOP ( 'NONE', ( #61, #213, #72, #52 ) ) ;
#261 =( NAMED_UNIT ( * ) PLANE_ANGLE_UNIT ( ) SI_UNIT ( $, .RADIAN. ) );
#262 = SURFACE_STYLE_FILL_AREA ( #174 ) ;
#263 = CARTESIAN_POINT ( 'NONE',  ( 1.832148764272786481E-16, 0.0000000000000000000, 1.496062999999999921 ) ) ;
#264 = DIRECTION ( 'NONE',  ( -0.0000000000000000000, -0.0000000000000000000, -1.000000000000000000 ) ) ;
#265 = ORIENTED_EDGE ( 'NONE', *, *, #211, .F. ) ;
#266 = PRESENTATION_STYLE_ASSIGNMENT (( #286 ) ) ;
#267 = EDGE_CURVE ( 'NONE', #279, #14, #104, .T. ) ;
#268 = AXIS2_PLACEMENT_3D ( 'NONE', #110, #264, #152 ) ;
#269 = ORIENTED_EDGE ( 'NONE', *, *, #30, .F. ) ;
#270 = DIRECTION ( 'NONE',  ( 1.000000000000000000, 0.0000000000000000000, 0.0000000000000000000 ) ) ;
#271 = FACE_OUTER_BOUND ( 'NONE', #50, .T. ) ;
#272 = ADVANCED_FACE ( 'NONE', ( #18 ), #290, .T. ) ;
#273 = DIRECTION ( 'NONE',  ( -0.0000000000000000000, -0.0000000000000000000, -1.000000000000000000 ) ) ;
#274 = VECTOR ( 'NONE', #187, 39.37007874015747433 ) ;
#275 = VERTEX_POINT ( 'NONE', #66 ) ;
#276 = ORIENTED_EDGE ( 'NONE', *, *, #245, .F. ) ;
#277 = CARTESIAN_POINT ( 'NONE',  ( 0.1966536495000001661, 0.0000000000000000000, 1.496062999999999921 ) ) ;
#278 = DIRECTION ( 'NONE',  ( 1.000000000000000000, 0.0000000000000000000, 0.0000000000000000000 ) ) ;
#279 = VERTEX_POINT ( 'NONE', #243 ) ;
#280 = ORIENTED_EDGE ( 'NONE', *, *, #30, .T. ) ;
#281 = VECTOR ( 'NONE', #93, 39.37007874015748143 ) ;
#282 = DIRECTION ( 'NONE',  ( 1.000000000000000000, 0.0000000000000000000, 0.0000000000000000000 ) ) ;
#283 = EDGE_CURVE ( 'NONE', #275, #296, #42, .T. ) ;
#284 = DIRECTION ( 'NONE',  ( -1.224646799147353207E-16, -0.0000000000000000000, -1.000000000000000000 ) ) ;
#285 = APPLICATION_PROTOCOL_DEFINITION ( 'draft international standard', 'automotive_design', 1998, #189 ) ;
#286 = SURFACE_STYLE_USAGE ( .BOTH. , #108 ) ;
#287 =( GEOMETRIC_REPRESENTATION_CONTEXT ( 3 ) GLOBAL_UNCERTAINTY_ASSIGNED_CONTEXT ( ( #254 ) ) GLOBAL_UNIT_ASSIGNED_CONTEXT ( ( #31, #202, #289 ) ) REPRESENTATION_CONTEXT ( 'NONE', 'WORKASPACE' ) );
#288 = DIRECTION ( 'NONE',  ( -1.224646799147353207E-16, -0.0000000000000000000, -1.000000000000000000 ) ) ;
#289 =( NAMED_UNIT ( * ) SI_UNIT ( $, .STERADIAN. ) SOLID_ANGLE_UNIT ( ) );
#290 = CYLINDRICAL_SURFACE ( 'NONE', #26, 0.1966536494999999996 ) ;
#291 = CONICAL_SURFACE ( 'NONE', #167, 0.1818504999999994431, 0.7853981633974403964 ) ;
#292 = CARTESIAN_POINT ( 'NONE',  ( 0.0000000000000000000, 0.0000000000000000000, 3.937007999999999619 ) ) ;
#293 =( LENGTH_UNIT ( ) NAMED_UNIT ( * ) SI_UNIT ( $, .METRE. ) );
#294 = CARTESIAN_POINT ( 'NONE',  ( 0.0000000000000000000, 0.0000000000000000000, 0.0000000000000000000 ) ) ;
#295 = APPLICATION_CONTEXT ( 'automotive_design' ) ;
#296 = VERTEX_POINT ( 'NONE', #116 ) ;
#297 = PRODUCT_DEFINITION ( 'UNKNOWN', '', #126, #299 ) ;
#298 = FACE_OUTER_BOUND ( 'NONE', #173, .T. ) ;
#299 = PRODUCT_DEFINITION_CONTEXT ( 'detailed design', #295, 'design' ) ;
ENDSEC;
END-ISO-10303-21;
