ISO-10303-21;
HEADER;
FILE_DESCRIPTION (( 'STEP AP214' ),
    '1' );
FILE_NAME ('Micro_SFLM-040-10.STEP',
    '2021-09-02T05:23:49',
    ( '' ),
    ( '' ),
    'SwSTEP 2.0',
    'SolidWorks 2020',
    '' );
FILE_SCHEMA (( 'AUTOMOTIVE_DESIGN' ));
ENDSEC;

DATA;
#1 = DIRECTION ( 'NONE',  ( 0.1736481776669313026, 0.0000000000000000000, 0.9848077530122077983 ) ) ;
#2 = CIRCLE ( 'NONE', #97, 0.07866125999999999674 ) ;
#3 = MANIFOLD_SOLID_BREP ( 'Cut-Revolve1', #167 ) ;
#4 = FACE_OUTER_BOUND ( 'NONE', #165, .T. ) ;
#5 = ORIENTED_EDGE ( 'NONE', *, *, #181, .F. ) ;
#6 = VERTEX_POINT ( 'NONE', #242 ) ;
#7 = DIRECTION ( 'NONE',  ( -0.1736481776669311083, 2.126576849575782084E-17, 0.9848077530122080203 ) ) ;
#8 = ORIENTED_EDGE ( 'NONE', *, *, #62, .T. ) ;
#9 =( GEOMETRIC_REPRESENTATION_CONTEXT ( 3 ) GLOBAL_UNCERTAINTY_ASSIGNED_CONTEXT ( ( #227 ) ) GLOBAL_UNIT_ASSIGNED_CONTEXT ( ( #90, #59, #159 ) ) REPRESENTATION_CONTEXT ( 'NONE', 'WORKASPACE' ) );
#10 = PRODUCT_DEFINITION_SHAPE ( 'NONE', 'NONE',  #263 ) ;
#11 = PRESENTATION_STYLE_ASSIGNMENT (( #261 ) ) ;
#12 = EDGE_LOOP ( 'NONE', ( #288, #287, #265, #111 ) ) ;
#13 = DIRECTION ( 'NONE',  ( 1.000000000000000000, 0.0000000000000000000, 0.0000000000000000000 ) ) ;
#14 = ORIENTED_EDGE ( 'NONE', *, *, #175, .T. ) ;
#15 = APPLICATION_CONTEXT ( 'automotive_design' ) ;
#16 = ORIENTED_EDGE ( 'NONE', *, *, #295, .T. ) ;
#17 =( NAMED_UNIT ( * ) SI_UNIT ( $, .STERADIAN. ) SOLID_ANGLE_UNIT ( ) );
#18 = MECHANICAL_DESIGN_GEOMETRIC_PRESENTATION_REPRESENTATION (  '', ( #128 ), #221 ) ;
#19 = CIRCLE ( 'NONE', #114, 0.07874000000000000443 ) ;
#20 = CARTESIAN_POINT ( 'NONE',  ( 5.785733584359747758E-17, 0.0000000000000000000, 0.4724409999999999998 ) ) ;
#21 = FACE_OUTER_BOUND ( 'NONE', #120, .T. ) ;
#22 = AXIS2_PLACEMENT_3D ( 'NONE', #208, #108, #212 ) ;
#23 = EDGE_CURVE ( 'NONE', #262, #269, #2, .T. ) ;
#24 = ORIENTED_EDGE ( 'NONE', *, *, #62, .F. ) ;
#25 = FACE_OUTER_BOUND ( 'NONE', #207, .T. ) ;
#26 = ORIENTED_EDGE ( 'NONE', *, *, #295, .F. ) ;
#27 = CARTESIAN_POINT ( 'NONE',  ( 5.791202327065908024E-17, 0.0000000000000000000, 0.4728875567304767213 ) ) ;
#28 = EDGE_LOOP ( 'NONE', ( #137, #57, #224, #68 ) ) ;
#29 = PLANE ( 'NONE',  #294 ) ;
#30 = AXIS2_PLACEMENT_3D ( 'NONE', #127, #250, #271 ) ;
#31 = ORIENTED_EDGE ( 'NONE', *, *, #215, .F. ) ;
#32 = CARTESIAN_POINT ( 'NONE',  ( 0.07866125999999999674, 9.633226027589770864E-18, -9.633226027589770864E-18 ) ) ;
#33 = ORIENTED_EDGE ( 'NONE', *, *, #23, .T. ) ;
#34 = DIRECTION ( 'NONE',  ( 0.0000000000000000000, 0.0000000000000000000, 1.000000000000000000 ) ) ;
#35 = SURFACE_STYLE_USAGE ( .BOTH. , #133 ) ;
#36 = CIRCLE ( 'NONE', #49, 0.07874000000000000443 ) ;
#37 = CYLINDRICAL_SURFACE ( 'NONE', #156, 0.07874000000000000443 ) ;
#38 =( CONVERSION_BASED_UNIT ( 'INCH', #40 ) LENGTH_UNIT ( ) NAMED_UNIT ( #246 ) );
#39 = ADVANCED_FACE ( 'NONE', ( #45 ), #289, .T. ) ;
#40 = LENGTH_MEASURE_WITH_UNIT ( LENGTH_MEASURE( 0.02539999999999999897 ), #236 );
#41 = EDGE_LOOP ( 'NONE', ( #152, #5, #58, #99 ) ) ;
#42 = ADVANCED_FACE ( 'NONE', ( #21 ), #47, .T. ) ;
#43 = DIRECTION ( 'NONE',  ( 0.0000000000000000000, 0.0000000000000000000, -1.000000000000000000 ) ) ;
#44 = PRESENTATION_LAYER_ASSIGNMENT (  '', '', ( #186 ) ) ;
#45 = FACE_OUTER_BOUND ( 'NONE', #41, .T. ) ;
#46 = DIMENSIONAL_EXPONENTS ( 1.000000000000000000, 0.0000000000000000000, 0.0000000000000000000, 0.0000000000000000000, 0.0000000000000000000, 0.0000000000000000000, 0.0000000000000000000 ) ;
#47 = CYLINDRICAL_SURFACE ( 'NONE', #203, 0.07866125999999999674 ) ;
#48 = DIRECTION ( 'NONE',  ( -0.7071067811865567876, 0.0000000000000000000, -0.7071067811865382469 ) ) ;
#49 = AXIS2_PLACEMENT_3D ( 'NONE', #230, #80, #228 ) ;
#50 = ORIENTED_EDGE ( 'NONE', *, *, #143, .F. ) ;
#51 = LINE ( 'NONE', #297, #194 ) ;
#52 = ORIENTED_EDGE ( 'NONE', *, *, #192, .F. ) ;
#53 = LINE ( 'NONE', #196, #282 ) ;
#54 = CARTESIAN_POINT ( 'NONE',  ( 0.0000000000000000000, 0.0000000000000000000, 0.0000000000000000000 ) ) ;
#55 = VERTEX_POINT ( 'NONE', #121 ) ;
#56 = DIRECTION ( 'NONE',  ( 0.0000000000000000000, 0.0000000000000000000, -1.000000000000000000 ) ) ;
#57 = ORIENTED_EDGE ( 'NONE', *, *, #87, .T. ) ;
#58 = ORIENTED_EDGE ( 'NONE', *, *, #154, .T. ) ;
#59 =( NAMED_UNIT ( * ) PLANE_ANGLE_UNIT ( ) SI_UNIT ( $, .RADIAN. ) );
#60 = AXIS2_PLACEMENT_3D ( 'NONE', #102, #126, #199 ) ;
#61 = DIRECTION ( 'NONE',  ( -0.0000000000000000000, -0.0000000000000000000, -1.000000000000000000 ) ) ;
#62 = EDGE_CURVE ( 'NONE', #218, #6, #264, .T. ) ;
#63 =( LENGTH_UNIT ( ) NAMED_UNIT ( * ) SI_UNIT ( $, .METRE. ) );
#64 = ORIENTED_EDGE ( 'NONE', *, *, #274, .T. ) ;
#65 = DIRECTION ( 'NONE',  ( -1.224646799147353207E-16, -0.0000000000000000000, -1.000000000000000000 ) ) ;
#66 = DIRECTION ( 'NONE',  ( -1.000000000000000000, 0.0000000000000000000, 0.0000000000000000000 ) ) ;
#67 = LENGTH_MEASURE_WITH_UNIT ( LENGTH_MEASURE( 0.02539999999999999897 ), #63 );
#68 = ORIENTED_EDGE ( 'NONE', *, *, #154, .F. ) ;
#69 = ORIENTED_EDGE ( 'NONE', *, *, #181, .T. ) ;
#70 = DIRECTION ( 'NONE',  ( 1.000000000000000000, 0.0000000000000000000, 0.0000000000000000000 ) ) ;
#71 = AXIS2_PLACEMENT_3D ( 'NONE', #201, #173, #176 ) ;
#72 = VERTEX_POINT ( 'NONE', #162 ) ;
#73 = DIMENSIONAL_EXPONENTS ( 1.000000000000000000, 0.0000000000000000000, 0.0000000000000000000, 0.0000000000000000000, 0.0000000000000000000, 0.0000000000000000000, 0.0000000000000000000 ) ;
#74 = VERTEX_POINT ( 'NONE', #91 ) ;
#75 = LINE ( 'NONE', #252, #206 ) ;
#76 = DIRECTION ( 'NONE',  ( -1.000000000000000000, 0.0000000000000000000, 0.0000000000000000000 ) ) ;
#77 = DIRECTION ( 'NONE',  ( 0.7071067811865567876, 8.659560562355046257E-17, -0.7071067811865382469 ) ) ;
#78 = AXIS2_PLACEMENT_3D ( 'NONE', #151, #125, #299 ) ;
#79 = ORIENTED_EDGE ( 'NONE', *, *, #143, .T. ) ;
#80 = DIRECTION ( 'NONE',  ( -1.224646799147353207E-16, -0.0000000000000000000, -1.000000000000000000 ) ) ;
#81 = UNCERTAINTY_MEASURE_WITH_UNIT (LENGTH_MEASURE( 1.000000000000000082E-05 ), #267, 'distance_accuracy_value', 'NONE');
#82 = CARTESIAN_POINT ( 'NONE',  ( 0.0000000000000000000, 0.0000000000000000000, 0.0000000000000000000 ) ) ;
#83 = EDGE_CURVE ( 'NONE', #160, #218, #244, .T. ) ;
#84 = CYLINDRICAL_SURFACE ( 'NONE', #71, 0.07874000000000000443 ) ;
#85 = FILL_AREA_STYLE ('',( #283 ) ) ;
#86 = ORIENTED_EDGE ( 'NONE', *, *, #215, .T. ) ;
#87 = EDGE_CURVE ( 'NONE', #74, #218, #251, .T. ) ;
#88 = CARTESIAN_POINT ( 'NONE',  ( -0.07866125999999999674, 0.0000000000000000000, 1.926645205517954173E-17 ) ) ;
#89 = LINE ( 'NONE', #217, #277 ) ;
#90 =( CONVERSION_BASED_UNIT ( 'INCH', #164 ) LENGTH_UNIT ( ) NAMED_UNIT ( #73 ) );
#91 = CARTESIAN_POINT ( 'NONE',  ( 0.06373999999999963029, 8.724383797125720985E-18, 2.244094000000000033 ) ) ;
#92 = VECTOR ( 'NONE', #77, 39.37007874015748143 ) ;
#93 = CIRCLE ( 'NONE', #124, 0.07874000000000000443 ) ;
#94 =( NAMED_UNIT ( * ) PLANE_ANGLE_UNIT ( ) SI_UNIT ( $, .RADIAN. ) );
#95 = EDGE_LOOP ( 'NONE', ( #180, #33 ) ) ;
#96 = ADVANCED_FACE ( 'NONE', ( #202 ), #29, .F. ) ;
#97 = AXIS2_PLACEMENT_3D ( 'NONE', #142, #65, #113 ) ;
#98 =( GEOMETRIC_REPRESENTATION_CONTEXT ( 3 ) GLOBAL_UNCERTAINTY_ASSIGNED_CONTEXT ( ( #101 ) ) GLOBAL_UNIT_ASSIGNED_CONTEXT ( ( #38, #138, #17 ) ) REPRESENTATION_CONTEXT ( 'NONE', 'WORKASPACE' ) );
#99 = ORIENTED_EDGE ( 'NONE', *, *, #175, .F. ) ;
#100 = VERTEX_POINT ( 'NONE', #179 ) ;
#101 = UNCERTAINTY_MEASURE_WITH_UNIT (LENGTH_MEASURE( 1.000000000000000082E-05 ), #38, 'distance_accuracy_value', 'NONE');
#102 = CARTESIAN_POINT ( 'NONE',  ( 0.0000000000000000000, 0.0000000000000000000, 2.244094000000000033 ) ) ;
#103 = ADVANCED_FACE ( 'NONE', ( #4 ), #129, .T. ) ;
#104 = ORIENTED_EDGE ( 'NONE', *, *, #210, .T. ) ;
#105 = FACE_OUTER_BOUND ( 'NONE', #259, .T. ) ;
#106 = CARTESIAN_POINT ( 'NONE',  ( 0.0000000000000000000, 0.0000000000000000000, 2.244094000000000033 ) ) ;
#107 = CIRCLE ( 'NONE', #161, 0.07866125999999999674 ) ;
#108 = DIRECTION ( 'NONE',  ( 1.224646799147353207E-16, 0.0000000000000000000, 1.000000000000000000 ) ) ;
#109 = ORIENTED_EDGE ( 'NONE', *, *, #284, .T. ) ;
#110 = DIRECTION ( 'NONE',  ( -1.000000000000000000, 0.0000000000000000000, 1.224646799147352961E-16 ) ) ;
#111 = ORIENTED_EDGE ( 'NONE', *, *, #189, .T. ) ;
#112 = CARTESIAN_POINT ( 'NONE',  ( 0.0000000000000000000, 0.0000000000000000000, 2.244094000000000033 ) ) ;
#113 = DIRECTION ( 'NONE',  ( -1.000000000000000000, 0.0000000000000000000, 1.224646799147352961E-16 ) ) ;
#114 = AXIS2_PLACEMENT_3D ( 'NONE', #27, #209, #132 ) ;
#115 = DIRECTION ( 'NONE',  ( -1.000000000000000000, 0.0000000000000000000, 1.224646799147352961E-16 ) ) ;
#116 = COLOUR_RGB ( '',0.7921568627450980005, 0.8196078431372548767, 0.9333333333333333481 ) ;
#117 = CONICAL_SURFACE ( 'NONE', #172, 0.06373999999999963029, 0.7853981633974613796 ) ;
#118 = DIRECTION ( 'NONE',  ( -1.000000000000000000, 0.0000000000000000000, 0.0000000000000000000 ) ) ;
#119 = AXIS2_PLACEMENT_3D ( 'NONE', #112, #219, #13 ) ;
#120 = EDGE_LOOP ( 'NONE', ( #50, #109, #184, #187 ) ) ;
#121 = CARTESIAN_POINT ( 'NONE',  ( -0.07866125999999994123, 9.638047462038014686E-18, 0.4724409999999999998 ) ) ;
#122 = ADVANCED_FACE ( 'NONE', ( #275 ), #117, .T. ) ;
#123 = VECTOR ( 'NONE', #147, 39.37007874015748143 ) ;
#124 = AXIS2_PLACEMENT_3D ( 'NONE', #258, #158, #280 ) ;
#125 = DIRECTION ( 'NONE',  ( 1.224646799147353207E-16, 0.0000000000000000000, 1.000000000000000000 ) ) ;
#126 = DIRECTION ( 'NONE',  ( 0.0000000000000000000, 0.0000000000000000000, 1.000000000000000000 ) ) ;
#127 = CARTESIAN_POINT ( 'NONE',  ( 0.0000000000000000000, 0.0000000000000000000, 2.229093999999999909 ) ) ;
#128 = STYLED_ITEM ( 'NONE', ( #281 ), #3 ) ;
#129 = PLANE ( 'NONE',  #60 ) ;
#130 = AXIS2_PLACEMENT_3D ( 'NONE', #190, #135, #239 ) ;
#131 = FILL_AREA_STYLE_COLOUR ( '', #116 ) ;
#132 = DIRECTION ( 'NONE',  ( 1.000000000000000000, 0.0000000000000000000, 0.0000000000000000000 ) ) ;
#133 = SURFACE_SIDE_STYLE ('',( #233 ) ) ;
#134 = CIRCLE ( 'NONE', #241, 0.06373999999999963029 ) ;
#135 = DIRECTION ( 'NONE',  ( -1.224646799147353207E-16, -0.0000000000000000000, -1.000000000000000000 ) ) ;
#136 = ORIENTED_EDGE ( 'NONE', *, *, #189, .F. ) ;
#137 = ORIENTED_EDGE ( 'NONE', *, *, #274, .F. ) ;
#138 =( NAMED_UNIT ( * ) PLANE_ANGLE_UNIT ( ) SI_UNIT ( $, .RADIAN. ) );
#139 = ADVANCED_FACE ( 'NONE', ( #197 ), #84, .T. ) ;
#140 = PRODUCT_DEFINITION_FORMATION_WITH_SPECIFIED_SOURCE ( 'ANY', '', #253, .NOT_KNOWN. ) ;
#141 = DIRECTION ( 'NONE',  ( -1.224646799147353207E-16, -0.0000000000000000000, -1.000000000000000000 ) ) ;
#142 = CARTESIAN_POINT ( 'NONE',  ( 1.179729942015078748E-33, 0.0000000000000000000, 9.633226027589770864E-18 ) ) ;
#143 = EDGE_CURVE ( 'NONE', #100, #262, #278, .T. ) ;
#144 = CIRCLE ( 'NONE', #119, 0.06373999999999963029 ) ;
#145 = SHAPE_DEFINITION_REPRESENTATION ( #10, #291 ) ;
#146 = ORIENTED_EDGE ( 'NONE', *, *, #192, .T. ) ;
#147 = DIRECTION ( 'NONE',  ( -0.0000000000000000000, -0.0000000000000000000, -1.000000000000000000 ) ) ;
#148 = ORIENTED_EDGE ( 'NONE', *, *, #293, .F. ) ;
#149 = CONICAL_SURFACE ( 'NONE', #22, 0.07866125999999999674, 0.1745329251994338082 ) ;
#150 = DIRECTION ( 'NONE',  ( -1.224646799147353207E-16, -0.0000000000000000000, -1.000000000000000000 ) ) ;
#151 = CARTESIAN_POINT ( 'NONE',  ( 5.785733584359747758E-17, 0.0000000000000000000, 0.4724409999999999998 ) ) ;
#152 = ORIENTED_EDGE ( 'NONE', *, *, #87, .F. ) ;
#153 = DIRECTION ( 'NONE',  ( 1.000000000000000000, 0.0000000000000000000, 0.0000000000000000000 ) ) ;
#154 = EDGE_CURVE ( 'NONE', #72, #160, #247, .T. ) ;
#155 = PRESENTATION_LAYER_ASSIGNMENT (  '', '', ( #128 ) ) ;
#156 = AXIS2_PLACEMENT_3D ( 'NONE', #204, #61, #118 ) ;
#157 = DIRECTION ( 'NONE',  ( -1.224646799147353207E-16, -0.0000000000000000000, -1.000000000000000000 ) ) ;
#158 = DIRECTION ( 'NONE',  ( 0.0000000000000000000, 0.0000000000000000000, -1.000000000000000000 ) ) ;
#159 =( NAMED_UNIT ( * ) SI_UNIT ( $, .STERADIAN. ) SOLID_ANGLE_UNIT ( ) );
#160 = VERTEX_POINT ( 'NONE', #249 ) ;
#161 = AXIS2_PLACEMENT_3D ( 'NONE', #20, #163, #66 ) ;
#162 = CARTESIAN_POINT ( 'NONE',  ( -0.06373999999999963029, 0.0000000000000000000, 2.244094000000000033 ) ) ;
#163 = DIRECTION ( 'NONE',  ( -1.224646799147353207E-16, -0.0000000000000000000, -1.000000000000000000 ) ) ;
#164 = LENGTH_MEASURE_WITH_UNIT ( LENGTH_MEASURE( 0.02539999999999999897 ), #183 );
#165 = EDGE_LOOP ( 'NONE', ( #69, #64 ) ) ;
#166 = EDGE_CURVE ( 'NONE', #269, #262, #266, .T. ) ;
#167 = CLOSED_SHELL ( 'NONE', ( #238, #222, #122, #139, #268, #103, #39, #205, #42, #96 ) ) ;
#168 = PRODUCT_CONTEXT ( 'NONE', #272, 'mechanical' ) ;
#169 = DIRECTION ( 'NONE',  ( -1.000000000000000000, 0.0000000000000000000, 0.0000000000000000000 ) ) ;
#170 = EDGE_CURVE ( 'NONE', #100, #6, #51, .T. ) ;
#171 = CARTESIAN_POINT ( 'NONE',  ( 0.07874000000000000443, 9.642868896486258509E-18, 2.229093999999999909 ) ) ;
#172 = AXIS2_PLACEMENT_3D ( 'NONE', #276, #56, #76 ) ;
#173 = DIRECTION ( 'NONE',  ( -0.0000000000000000000, -0.0000000000000000000, -1.000000000000000000 ) ) ;
#174 = CARTESIAN_POINT ( 'NONE',  ( -0.07873999999999994892, 0.0000000000000000000, 0.4728875567304767213 ) ) ;
#175 = EDGE_CURVE ( 'NONE', #218, #160, #93, .T. ) ;
#176 = DIRECTION ( 'NONE',  ( -1.000000000000000000, 0.0000000000000000000, 0.0000000000000000000 ) ) ;
#177 = EDGE_LOOP ( 'NONE', ( #24, #14, #86, #136 ) ) ;
#178 = CONICAL_SURFACE ( 'NONE', #78, 0.07866125999999999674, 0.1745329251994338082 ) ;
#179 = CARTESIAN_POINT ( 'NONE',  ( 0.07866126000000003837, 0.0000000000000000000, 0.4724409999999999998 ) ) ;
#180 = ORIENTED_EDGE ( 'NONE', *, *, #166, .T. ) ;
#181 = EDGE_CURVE ( 'NONE', #72, #74, #134, .T. ) ;
#182 = ORIENTED_EDGE ( 'NONE', *, *, #170, .F. ) ;
#183 =( LENGTH_UNIT ( ) NAMED_UNIT ( * ) SI_UNIT ( $, .METRE. ) );
#184 = ORIENTED_EDGE ( 'NONE', *, *, #293, .T. ) ;
#185 = FACE_OUTER_BOUND ( 'NONE', #177, .T. ) ;
#186 = STYLED_ITEM ( 'NONE', ( #11 ), #291 ) ;
#187 = ORIENTED_EDGE ( 'NONE', *, *, #23, .F. ) ;
#188 = SURFACE_SIDE_STYLE ('',( #260 ) ) ;
#189 = EDGE_CURVE ( 'NONE', #6, #214, #19, .T. ) ;
#190 = CARTESIAN_POINT ( 'NONE',  ( 5.785733584359747758E-17, 0.0000000000000000000, 0.4724409999999999998 ) ) ;
#191 = ORIENTED_EDGE ( 'NONE', *, *, #83, .T. ) ;
#192 = EDGE_CURVE ( 'NONE', #214, #6, #36, .T. ) ;
#193 = DIRECTION ( 'NONE',  ( -1.000000000000000000, 0.0000000000000000000, 1.224646799147352961E-16 ) ) ;
#194 = VECTOR ( 'NONE', #1, 39.37007874015748143 ) ;
#195 = CARTESIAN_POINT ( 'NONE',  ( 0.0000000000000000000, 0.0000000000000000000, 0.0000000000000000000 ) ) ;
#196 = CARTESIAN_POINT ( 'NONE',  ( -0.07874000000000000443, 0.0000000000000000000, 2.244094000000000033 ) ) ;
#197 = FACE_OUTER_BOUND ( 'NONE', #235, .T. ) ;
#198 = CIRCLE ( 'NONE', #130, 0.07866125999999999674 ) ;
#199 = DIRECTION ( 'NONE',  ( 1.000000000000000000, 0.0000000000000000000, -0.0000000000000000000 ) ) ;
#200 = DIRECTION ( 'NONE',  ( -0.0000000000000000000, -0.0000000000000000000, -1.000000000000000000 ) ) ;
#201 = CARTESIAN_POINT ( 'NONE',  ( 0.0000000000000000000, 0.0000000000000000000, 2.244094000000000033 ) ) ;
#202 = FACE_OUTER_BOUND ( 'NONE', #95, .T. ) ;
#203 = AXIS2_PLACEMENT_3D ( 'NONE', #195, #141, #193 ) ;
#204 = CARTESIAN_POINT ( 'NONE',  ( 0.0000000000000000000, 0.0000000000000000000, 2.244094000000000033 ) ) ;
#205 = ADVANCED_FACE ( 'NONE', ( #216 ), #149, .T. ) ;
#206 = VECTOR ( 'NONE', #7, 39.37007874015747433 ) ;
#207 = EDGE_LOOP ( 'NONE', ( #26, #104, #146, #182 ) ) ;
#208 = CARTESIAN_POINT ( 'NONE',  ( 5.785733584359747758E-17, 0.0000000000000000000, 0.4724409999999999998 ) ) ;
#209 = DIRECTION ( 'NONE',  ( -1.224646799147353207E-16, -0.0000000000000000000, -1.000000000000000000 ) ) ;
#210 = EDGE_CURVE ( 'NONE', #55, #214, #75, .T. ) ;
#211 = CARTESIAN_POINT ( 'NONE',  ( 1.179729942015078748E-33, 0.0000000000000000000, 9.633226027589770864E-18 ) ) ;
#212 = DIRECTION ( 'NONE',  ( 1.000000000000000000, 0.0000000000000000000, 0.0000000000000000000 ) ) ;
#213 = CARTESIAN_POINT ( 'NONE',  ( 0.06373999999999963029, 7.805898697765185003E-18, 2.244094000000000033 ) ) ;
#214 = VERTEX_POINT ( 'NONE', #174 ) ;
#215 = EDGE_CURVE ( 'NONE', #160, #214, #53, .T. ) ;
#216 = FACE_OUTER_BOUND ( 'NONE', #12, .T. ) ;
#217 = CARTESIAN_POINT ( 'NONE',  ( -0.07866125999999999674, 0.0000000000000000000, 9.633226027589770864E-18 ) ) ;
#218 = VERTEX_POINT ( 'NONE', #171 ) ;
#219 = DIRECTION ( 'NONE',  ( 0.0000000000000000000, 0.0000000000000000000, 1.000000000000000000 ) ) ;
#220 = DIRECTION ( 'NONE',  ( -1.224646799147353207E-16, -0.0000000000000000000, -1.000000000000000000 ) ) ;
#221 =( GEOMETRIC_REPRESENTATION_CONTEXT ( 3 ) GLOBAL_UNCERTAINTY_ASSIGNED_CONTEXT ( ( #81 ) ) GLOBAL_UNIT_ASSIGNED_CONTEXT ( ( #267, #94, #223 ) ) REPRESENTATION_CONTEXT ( 'NONE', 'WORKASPACE' ) );
#222 = ADVANCED_FACE ( 'NONE', ( #25 ), #178, .T. ) ;
#223 =( NAMED_UNIT ( * ) SI_UNIT ( $, .STERADIAN. ) SOLID_ANGLE_UNIT ( ) );
#224 = ORIENTED_EDGE ( 'NONE', *, *, #83, .F. ) ;
#225 = DIRECTION ( 'NONE',  ( 0.0000000000000000000, 0.0000000000000000000, 1.000000000000000000 ) ) ;
#226 = MECHANICAL_DESIGN_GEOMETRIC_PRESENTATION_REPRESENTATION (  '', ( #186 ), #9 ) ;
#227 = UNCERTAINTY_MEASURE_WITH_UNIT (LENGTH_MEASURE( 1.000000000000000082E-05 ), #90, 'distance_accuracy_value', 'NONE');
#228 = DIRECTION ( 'NONE',  ( 1.000000000000000000, 0.0000000000000000000, 0.0000000000000000000 ) ) ;
#229 = DIRECTION ( 'NONE',  ( -1.224646799147353207E-16, -0.0000000000000000000, -1.000000000000000000 ) ) ;
#230 = CARTESIAN_POINT ( 'NONE',  ( 5.791202327065908024E-17, 0.0000000000000000000, 0.4728875567304767213 ) ) ;
#231 = VECTOR ( 'NONE', #150, 39.37007874015748143 ) ;
#232 = CARTESIAN_POINT ( 'NONE',  ( -0.06373999999999963029, 0.0000000000000000000, 2.244094000000000033 ) ) ;
#233 = SURFACE_STYLE_FILL_AREA ( #255 ) ;
#234 = DIRECTION ( 'NONE',  ( 0.0000000000000000000, 0.0000000000000000000, 1.000000000000000000 ) ) ;
#235 = EDGE_LOOP ( 'NONE', ( #191, #8, #52, #31 ) ) ;
#236 =( LENGTH_UNIT ( ) NAMED_UNIT ( * ) SI_UNIT ( $, .METRE. ) );
#237 = AXIS2_PLACEMENT_3D ( 'NONE', #82, #229, #115 ) ;
#238 = ADVANCED_FACE ( 'NONE', ( #105 ), #279, .T. ) ;
#239 = DIRECTION ( 'NONE',  ( -1.000000000000000000, 0.0000000000000000000, 0.0000000000000000000 ) ) ;
#240 = PRODUCT_RELATED_PRODUCT_CATEGORY ( 'part', '', ( #253 ) ) ;
#241 = AXIS2_PLACEMENT_3D ( 'NONE', #106, #34, #153 ) ;
#242 = CARTESIAN_POINT ( 'NONE',  ( 0.07874000000000004607, 9.642868896486264672E-18, 0.4728875567304767213 ) ) ;
#243 = APPLICATION_PROTOCOL_DEFINITION ( 'draft international standard', 'automotive_design', 1998, #15 ) ;
#244 = CIRCLE ( 'NONE', #30, 0.07874000000000000443 ) ;
#245 = AXIS2_PLACEMENT_3D ( 'NONE', #270, #225, #70 ) ;
#246 = DIMENSIONAL_EXPONENTS ( 1.000000000000000000, 0.0000000000000000000, 0.0000000000000000000, 0.0000000000000000000, 0.0000000000000000000, 0.0000000000000000000, 0.0000000000000000000 ) ;
#247 = LINE ( 'NONE', #232, #248 ) ;
#248 = VECTOR ( 'NONE', #48, 39.37007874015748143 ) ;
#249 = CARTESIAN_POINT ( 'NONE',  ( -0.07874000000000000443, 0.0000000000000000000, 2.229093999999999909 ) ) ;
#250 = DIRECTION ( 'NONE',  ( 0.0000000000000000000, 0.0000000000000000000, -1.000000000000000000 ) ) ;
#251 = LINE ( 'NONE', #213, #92 ) ;
#252 = CARTESIAN_POINT ( 'NONE',  ( -0.07866125999999994123, 9.633226027589770864E-18, 0.4724409999999999998 ) ) ;
#253 = PRODUCT ( 'Micro_SFLM-040-10', 'Micro_SFLM-040-10', '', ( #168 ) ) ;
#254 = DIRECTION ( 'NONE',  ( 1.000000000000000000, 0.0000000000000000000, -0.0000000000000000000 ) ) ;
#255 = FILL_AREA_STYLE ('',( #131 ) ) ;
#256 = AXIS2_PLACEMENT_3D ( 'NONE', #292, #43, #169 ) ;
#257 = COLOUR_RGB ( '',0.7921568627450980005, 0.8196078431372548767, 0.9333333333333333481 ) ;
#258 = CARTESIAN_POINT ( 'NONE',  ( 0.0000000000000000000, 0.0000000000000000000, 2.229093999999999909 ) ) ;
#259 = EDGE_LOOP ( 'NONE', ( #16, #79, #296, #148 ) ) ;
#260 = SURFACE_STYLE_FILL_AREA ( #85 ) ;
#261 = SURFACE_STYLE_USAGE ( .BOTH. , #188 ) ;
#262 = VERTEX_POINT ( 'NONE', #285 ) ;
#263 = PRODUCT_DEFINITION ( 'UNKNOWN', '', #140, #298 ) ;
#264 = LINE ( 'NONE', #286, #123 ) ;
#265 = ORIENTED_EDGE ( 'NONE', *, *, #170, .T. ) ;
#266 = CIRCLE ( 'NONE', #273, 0.07866125999999999674 ) ;
#267 =( CONVERSION_BASED_UNIT ( 'INCH', #67 ) LENGTH_UNIT ( ) NAMED_UNIT ( #46 ) );
#268 = ADVANCED_FACE ( 'NONE', ( #185 ), #37, .T. ) ;
#269 = VERTEX_POINT ( 'NONE', #88 ) ;
#270 = CARTESIAN_POINT ( 'NONE',  ( 0.0000000000000000000, 0.0000000000000000000, 0.0000000000000000000 ) ) ;
#271 = DIRECTION ( 'NONE',  ( 1.000000000000000000, 0.0000000000000000000, 0.0000000000000000000 ) ) ;
#272 = APPLICATION_CONTEXT ( 'automotive_design' ) ;
#273 = AXIS2_PLACEMENT_3D ( 'NONE', #211, #157, #110 ) ;
#274 = EDGE_CURVE ( 'NONE', #74, #72, #144, .T. ) ;
#275 = FACE_OUTER_BOUND ( 'NONE', #28, .T. ) ;
#276 = CARTESIAN_POINT ( 'NONE',  ( 0.0000000000000000000, 0.0000000000000000000, 2.244094000000000033 ) ) ;
#277 = VECTOR ( 'NONE', #220, 39.37007874015748143 ) ;
#278 = LINE ( 'NONE', #32, #231 ) ;
#279 = CYLINDRICAL_SURFACE ( 'NONE', #237, 0.07866125999999999674 ) ;
#280 = DIRECTION ( 'NONE',  ( 1.000000000000000000, 0.0000000000000000000, 0.0000000000000000000 ) ) ;
#281 = PRESENTATION_STYLE_ASSIGNMENT (( #35 ) ) ;
#282 = VECTOR ( 'NONE', #200, 39.37007874015748143 ) ;
#283 = FILL_AREA_STYLE_COLOUR ( '', #257 ) ;
#284 = EDGE_CURVE ( 'NONE', #100, #55, #198, .T. ) ;
#285 = CARTESIAN_POINT ( 'NONE',  ( 0.07866125999999999674, 9.633226027589770864E-18, 0.0000000000000000000 ) ) ;
#286 = CARTESIAN_POINT ( 'NONE',  ( 0.07874000000000000443, 9.642868896486258509E-18, 2.244094000000000033 ) ) ;
#287 = ORIENTED_EDGE ( 'NONE', *, *, #284, .F. ) ;
#288 = ORIENTED_EDGE ( 'NONE', *, *, #210, .F. ) ;
#289 = CONICAL_SURFACE ( 'NONE', #256, 0.06373999999999963029, 0.7853981633974613796 ) ;
#290 = APPLICATION_PROTOCOL_DEFINITION ( 'draft international standard', 'automotive_design', 1998, #272 ) ;
#291 = ADVANCED_BREP_SHAPE_REPRESENTATION ( 'Micro_SFLM-040-10', ( #3, #245 ), #98 ) ;
#292 = CARTESIAN_POINT ( 'NONE',  ( 0.0000000000000000000, 0.0000000000000000000, 2.244094000000000033 ) ) ;
#293 = EDGE_CURVE ( 'NONE', #55, #269, #89, .T. ) ;
#294 = AXIS2_PLACEMENT_3D ( 'NONE', #54, #234, #254 ) ;
#295 = EDGE_CURVE ( 'NONE', #55, #100, #107, .T. ) ;
#296 = ORIENTED_EDGE ( 'NONE', *, *, #166, .F. ) ;
#297 = CARTESIAN_POINT ( 'NONE',  ( 0.07866126000000003837, 0.0000000000000000000, 0.4724409999999999998 ) ) ;
#298 = PRODUCT_DEFINITION_CONTEXT ( 'detailed design', #15, 'design' ) ;
#299 = DIRECTION ( 'NONE',  ( 1.000000000000000000, 0.0000000000000000000, 0.0000000000000000000 ) ) ;
ENDSEC;
END-ISO-10303-21;
