ISO-10303-21;
HEADER;
FILE_DESCRIPTION (( 'STEP AP214' ),
    '1' );
FILE_NAME ('Micro_GEC-031-2-005.STEP',
    '2021-09-03T17:01:07',
    ( '' ),
    ( '' ),
    'SwSTEP 2.0',
    'SolidWorks 2020',
    '' );
FILE_SCHEMA (( 'AUTOMOTIVE_DESIGN' ));
ENDSEC;

DATA;
#1 = DIRECTION ( 'NONE',  ( -0.0000000000000000000, -0.0000000000000000000, -1.000000000000000000 ) ) ;
#2 = CARTESIAN_POINT ( 'NONE',  ( 0.0000000000000000000, 0.0000000000000000000, 1.500000000000000222 ) ) ;
#3 = VECTOR ( 'NONE', #226, 39.37007874015748143 ) ;
#4 = PRODUCT_DEFINITION_CONTEXT ( 'detailed design', #221, 'design' ) ;
#5 = AXIS2_PLACEMENT_3D ( 'NONE', #19, #209, #261 ) ;
#6 = EDGE_CURVE ( 'NONE', #20, #147, #208, .T. ) ;
#7 = ORIENTED_EDGE ( 'NONE', *, *, #139, .T. ) ;
#8 = SURFACE_SIDE_STYLE ('',( #166 ) ) ;
#9 = ORIENTED_EDGE ( 'NONE', *, *, #164, .F. ) ;
#10 = CARTESIAN_POINT ( 'NONE',  ( 0.06250000000000006939, 7.654042494670963708E-18, 0.3440715893364548750 ) ) ;
#11 =( GEOMETRIC_REPRESENTATION_CONTEXT ( 3 ) GLOBAL_UNCERTAINTY_ASSIGNED_CONTEXT ( ( #61 ) ) GLOBAL_UNIT_ASSIGNED_CONTEXT ( ( #88, #30, #222 ) ) REPRESENTATION_CONTEXT ( 'NONE', 'WORKASPACE' ) );
#12 = CARTESIAN_POINT ( 'NONE',  ( -0.06250000000000002776, 0.0000000000000000000, 1.485000000000000764 ) ) ;
#13 = ORIENTED_EDGE ( 'NONE', *, *, #135, .F. ) ;
#14 = FACE_OUTER_BOUND ( 'NONE', #315, .T. ) ;
#15 = ORIENTED_EDGE ( 'NONE', *, *, #149, .F. ) ;
#16 = LINE ( 'NONE', #124, #283 ) ;
#17 = AXIS2_PLACEMENT_3D ( 'NONE', #231, #291, #42 ) ;
#18 = EDGE_LOOP ( 'NONE', ( #260, #201, #121, #93 ) ) ;
#19 = CARTESIAN_POINT ( 'NONE',  ( 9.552245033349369302E-18, 0.0000000000000000000, 0.07800000000000009703 ) ) ;
#20 = VERTEX_POINT ( 'NONE', #322 ) ;
#21 =( CONVERSION_BASED_UNIT ( 'INCH', #292 ) LENGTH_UNIT ( ) NAMED_UNIT ( #162 ) );
#22 = DIRECTION ( 'NONE',  ( 1.224646799147353700E-16, 0.0000000000000000000, 1.000000000000000000 ) ) ;
#23 = FACE_OUTER_BOUND ( 'NONE', #268, .T. ) ;
#24 = AXIS2_PLACEMENT_3D ( 'NONE', #52, #44, #156 ) ;
#25 = CIRCLE ( 'NONE', #275, 0.005000000000000000104 ) ;
#26 = CYLINDRICAL_SURFACE ( 'NONE', #219, 0.01558440000000000866 ) ;
#27 = PRESENTATION_LAYER_ASSIGNMENT (  '', '', ( #341 ) ) ;
#28 = MECHANICAL_DESIGN_GEOMETRIC_PRESENTATION_REPRESENTATION (  '', ( #341 ), #138 ) ;
#29 = ORIENTED_EDGE ( 'NONE', *, *, #79, .T. ) ;
#30 =( NAMED_UNIT ( * ) PLANE_ANGLE_UNIT ( ) SI_UNIT ( $, .RADIAN. ) );
#31 = ADVANCED_FACE ( 'NONE', ( #174 ), #230, .T. ) ;
#32 = ORIENTED_EDGE ( 'NONE', *, *, #244, .T. ) ;
#33 = AXIS2_PLACEMENT_3D ( 'NONE', #264, #1, #98 ) ;
#34 = CARTESIAN_POINT ( 'NONE',  ( -0.04750000000000064587, 0.0000000000000000000, 1.500000000000000222 ) ) ;
#35 = FILL_AREA_STYLE_COLOUR ( '', #325 ) ;
#36 = ORIENTED_EDGE ( 'NONE', *, *, #235, .T. ) ;
#37 = DIRECTION ( 'NONE',  ( 1.000000000000000000, 0.0000000000000000000, 0.0000000000000000000 ) ) ;
#38 = VERTEX_POINT ( 'NONE', #348 ) ;
#39 = DIRECTION ( 'NONE',  ( 1.000000000000000000, 0.0000000000000000000, -0.0000000000000000000 ) ) ;
#40 = PRODUCT_DEFINITION ( 'UNKNOWN', '', #249, #4 ) ;
#41 = CIRCLE ( 'NONE', #57, 0.01558440000000000519 ) ;
#42 = DIRECTION ( 'NONE',  ( 0.0000000000000000000, 0.0000000000000000000, -1.000000000000000000 ) ) ;
#43 = DIRECTION ( 'NONE',  ( 0.7071067811865462405, 8.659560562354916834E-17, -0.7071067811865486830 ) ) ;
#44 = DIRECTION ( 'NONE',  ( 0.0000000000000000000, 0.0000000000000000000, -1.000000000000000000 ) ) ;
#45 = DIRECTION ( 'NONE',  ( -1.000000000000000000, 0.0000000000000000000, 1.224646799147353700E-16 ) ) ;
#46 = EDGE_CURVE ( 'NONE', #72, #50, #114, .T. ) ;
#47 = VERTEX_POINT ( 'NONE', #324 ) ;
#48 = DIRECTION ( 'NONE',  ( -1.224646799147353700E-16, -0.0000000000000000000, -1.000000000000000000 ) ) ;
#49 = AXIS2_PLACEMENT_3D ( 'NONE', #53, #211, #267 ) ;
#50 = VERTEX_POINT ( 'NONE', #293 ) ;
#51 = CARTESIAN_POINT ( 'NONE',  ( 9.552245033349369302E-18, 0.0000000000000000000, 0.07800000000000009703 ) ) ;
#52 = CARTESIAN_POINT ( 'NONE',  ( 0.0000000000000000000, 0.0000000000000000000, 1.485000000000000764 ) ) ;
#53 = CARTESIAN_POINT ( 'NONE',  ( 4.213661705584322371E-17, 0.0000000000000000000, 0.3440715893364548750 ) ) ;
#54 = CARTESIAN_POINT ( 'NONE',  ( 6.123233995736768848E-19, 0.0000000000000000000, 0.0000000000000000000 ) ) ;
#55 = EDGE_CURVE ( 'NONE', #119, #228, #323, .T. ) ;
#56 = CIRCLE ( 'NONE', #17, 0.005000000000000000104 ) ;
#57 = AXIS2_PLACEMENT_3D ( 'NONE', #51, #318, #178 ) ;
#58 = EDGE_CURVE ( 'NONE', #228, #119, #140, .T. ) ;
#59 =( CONVERSION_BASED_UNIT ( 'INCH', #273 ) LENGTH_UNIT ( ) NAMED_UNIT ( #335 ) );
#60 = CIRCLE ( 'NONE', #49, 0.06250000000000002776 ) ;
#61 = UNCERTAINTY_MEASURE_WITH_UNIT (LENGTH_MEASURE( 1.000000000000000082E-05 ), #88, 'distance_accuracy_value', 'NONE');
#62 = LINE ( 'NONE', #113, #334 ) ;
#63 = DIRECTION ( 'NONE',  ( 1.000000000000000000, 0.0000000000000000000, 0.0000000000000000000 ) ) ;
#64 = AXIS2_PLACEMENT_3D ( 'NONE', #66, #288, #37 ) ;
#65 = DIRECTION ( 'NONE',  ( -0.0000000000000000000, -0.0000000000000000000, -1.000000000000000000 ) ) ;
#66 = CARTESIAN_POINT ( 'NONE',  ( 9.552245033349369302E-18, 0.0000000000000000000, 0.07800000000000009703 ) ) ;
#67 = DIRECTION ( 'NONE',  ( 0.0000000000000000000, 0.0000000000000000000, 1.000000000000000000 ) ) ;
#68 = ORIENTED_EDGE ( 'NONE', *, *, #58, .T. ) ;
#69 = AXIS2_PLACEMENT_3D ( 'NONE', #314, #67, #39 ) ;
#70 = CARTESIAN_POINT ( 'NONE',  ( -0.01558440000000000866, 0.0000000000000000000, 1.908538557663203017E-18 ) ) ;
#71 = ADVANCED_FACE ( 'NONE', ( #263 ), #187, .T. ) ;
#72 = VERTEX_POINT ( 'NONE', #103 ) ;
#73 = DIRECTION ( 'NONE',  ( 0.0000000000000000000, 0.0000000000000000000, 1.000000000000000000 ) ) ;
#74 = EDGE_LOOP ( 'NONE', ( #182, #265, #295, #280 ) ) ;
#75 = CARTESIAN_POINT ( 'NONE',  ( 4.213661705584322371E-17, 0.0000000000000000000, 0.3440715893364548750 ) ) ;
#76 = MECHANICAL_DESIGN_GEOMETRIC_PRESENTATION_REPRESENTATION (  '', ( #257 ), #11 ) ;
#77 = CARTESIAN_POINT ( 'NONE',  ( 0.0000000000000000000, 0.0000000000000000000, 1.485000000000000764 ) ) ;
#78 = CARTESIAN_POINT ( 'NONE',  ( 0.0000000000000000000, 0.0000000000000000000, 1.500000000000000222 ) ) ;
#79 = EDGE_CURVE ( 'NONE', #50, #320, #56, .T. ) ;
#80 = AXIS2_PLACEMENT_3D ( 'NONE', #54, #133, #242 ) ;
#81 = DIRECTION ( 'NONE',  ( 1.000000000000000000, 0.0000000000000000000, 0.0000000000000000000 ) ) ;
#82 =( NAMED_UNIT ( * ) SI_UNIT ( $, .STERADIAN. ) SOLID_ANGLE_UNIT ( ) );
#83 = AXIS2_PLACEMENT_3D ( 'NONE', #213, #210, #203 ) ;
#84 = TOROIDAL_SURFACE ( 'NONE', #290, 0.01058440000000000943, 0.005000000000000000104 ) ;
#85 = EDGE_CURVE ( 'NONE', #38, #317, #125, .T. ) ;
#86 = SURFACE_STYLE_USAGE ( .BOTH. , #8 ) ;
#87 = ORIENTED_EDGE ( 'NONE', *, *, #168, .T. ) ;
#88 =( CONVERSION_BASED_UNIT ( 'INCH', #340 ) LENGTH_UNIT ( ) NAMED_UNIT ( #277 ) );
#89 = ORIENTED_EDGE ( 'NONE', *, *, #55, .F. ) ;
#90 = FACE_OUTER_BOUND ( 'NONE', #336, .T. ) ;
#91 = EDGE_LOOP ( 'NONE', ( #223, #237, #36, #297 ) ) ;
#92 = CARTESIAN_POINT ( 'NONE',  ( -0.01558440000000000866, 0.0000000000000000000, 0.005000000000000000104 ) ) ;
#93 = ORIENTED_EDGE ( 'NONE', *, *, #262, .F. ) ;
#94 = CARTESIAN_POINT ( 'NONE',  ( 0.01558440000000000866, 1.908538557663202247E-18, 0.005000000000000000104 ) ) ;
#95 = ORIENTED_EDGE ( 'NONE', *, *, #46, .T. ) ;
#96 = DIRECTION ( 'NONE',  ( 1.000000000000000000, 0.0000000000000000000, 0.0000000000000000000 ) ) ;
#97 = ORIENTED_EDGE ( 'NONE', *, *, #250, .F. ) ;
#98 = DIRECTION ( 'NONE',  ( -1.000000000000000000, 0.0000000000000000000, 0.0000000000000000000 ) ) ;
#99 = ORIENTED_EDGE ( 'NONE', *, *, #191, .F. ) ;
#100 = CARTESIAN_POINT ( 'NONE',  ( 0.01558440000000001387, 0.0000000000000000000, 0.07800000000000009703 ) ) ;
#101 = CONICAL_SURFACE ( 'NONE', #146, 0.04750000000000064587, 0.7853981633974466137 ) ;
#102 = EDGE_CURVE ( 'NONE', #50, #72, #241, .T. ) ;
#103 = CARTESIAN_POINT ( 'NONE',  ( -0.01058440000000000943, 1.602376857876363853E-18, 0.0000000000000000000 ) ) ;
#104 = UNCERTAINTY_MEASURE_WITH_UNIT (LENGTH_MEASURE( 1.000000000000000082E-05 ), #21, 'distance_accuracy_value', 'NONE');
#105 = DIRECTION ( 'NONE',  ( 1.000000000000000000, 0.0000000000000000000, 0.0000000000000000000 ) ) ;
#106 = ADVANCED_FACE ( 'NONE', ( #303 ), #26, .T. ) ;
#107 = TOROIDAL_SURFACE ( 'NONE', #350, 0.01058440000000000943, 0.005000000000000000104 ) ;
#108 = PRESENTATION_STYLE_ASSIGNMENT (( #189 ) ) ;
#109 = EDGE_CURVE ( 'NONE', #20, #151, #62, .T. ) ;
#110 = CARTESIAN_POINT ( 'NONE',  ( -0.06249999999999997918, 0.0000000000000000000, 0.3440715893364548750 ) ) ;
#111 = APPLICATION_CONTEXT ( 'automotive_design' ) ;
#112 = ORIENTED_EDGE ( 'NONE', *, *, #333, .F. ) ;
#113 = CARTESIAN_POINT ( 'NONE',  ( -0.01558439999999999652, 1.908538557663201862E-18, 0.07800000000000009703 ) ) ;
#114 = CIRCLE ( 'NONE', #83, 0.01058440000000000943 ) ;
#115 = EDGE_LOOP ( 'NONE', ( #177, #278, #89, #258 ) ) ;
#116 = AXIS2_PLACEMENT_3D ( 'NONE', #311, #144, #173 ) ;
#117 = CARTESIAN_POINT ( 'NONE',  ( 0.01558440000000000866, 1.908538557663202247E-18, -1.908538557663203017E-18 ) ) ;
#118 = AXIS2_PLACEMENT_3D ( 'NONE', #161, #245, #81 ) ;
#119 = VERTEX_POINT ( 'NONE', #12 ) ;
#120 = DIRECTION ( 'NONE',  ( 1.224646799147353207E-16, 1.000000000000000000, -0.0000000000000000000 ) ) ;
#121 = ORIENTED_EDGE ( 'NONE', *, *, #244, .F. ) ;
#122 = CARTESIAN_POINT ( 'NONE',  ( 0.04750000000000064587, 5.817072295950006528E-18, 1.500000000000000222 ) ) ;
#123 = VERTEX_POINT ( 'NONE', #10 ) ;
#124 = CARTESIAN_POINT ( 'NONE',  ( -0.06250000000000002776, 0.0000000000000000000, 1.500000000000000222 ) ) ;
#125 = CIRCLE ( 'NONE', #234, 0.04750000000000064587 ) ;
#126 = ORIENTED_EDGE ( 'NONE', *, *, #109, .T. ) ;
#127 = DIRECTION ( 'NONE',  ( 0.0000000000000000000, 0.0000000000000000000, -1.000000000000000000 ) ) ;
#128 = DIRECTION ( 'NONE',  ( -0.0000000000000000000, -0.0000000000000000000, -1.000000000000000000 ) ) ;
#129 = ADVANCED_FACE ( 'NONE', ( #224 ), #84, .T. ) ;
#130 = DIRECTION ( 'NONE',  ( 1.000000000000000000, 0.0000000000000000000, 0.0000000000000000000 ) ) ;
#131 = CYLINDRICAL_SURFACE ( 'NONE', #204, 0.06250000000000002776 ) ;
#132 = AXIS2_PLACEMENT_3D ( 'NONE', #342, #143, #63 ) ;
#133 = DIRECTION ( 'NONE',  ( -0.0000000000000000000, -0.0000000000000000000, -1.000000000000000000 ) ) ;
#134 = MANIFOLD_SOLID_BREP ( 'Fillet1', #172 ) ;
#135 = EDGE_CURVE ( 'NONE', #72, #147, #25, .T. ) ;
#136 = FILL_AREA_STYLE_COLOUR ( '', #188 ) ;
#137 = AXIS2_PLACEMENT_3D ( 'NONE', #269, #22, #130 ) ;
#138 =( GEOMETRIC_REPRESENTATION_CONTEXT ( 3 ) GLOBAL_UNCERTAINTY_ASSIGNED_CONTEXT ( ( #328 ) ) GLOBAL_UNIT_ASSIGNED_CONTEXT ( ( #59, #160, #82 ) ) REPRESENTATION_CONTEXT ( 'NONE', 'WORKASPACE' ) );
#139 = EDGE_CURVE ( 'NONE', #317, #38, #309, .T. ) ;
#140 = CIRCLE ( 'NONE', #24, 0.06250000000000002776 ) ;
#141 = ORIENTED_EDGE ( 'NONE', *, *, #79, .F. ) ;
#142 = DIRECTION ( 'NONE',  ( -0.7071067811865462405, 0.0000000000000000000, -0.7071067811865486830 ) ) ;
#143 = DIRECTION ( 'NONE',  ( 0.0000000000000000000, 0.0000000000000000000, 1.000000000000000000 ) ) ;
#144 = DIRECTION ( 'NONE',  ( 0.0000000000000000000, 0.0000000000000000000, 1.000000000000000000 ) ) ;
#145 = ADVANCED_BREP_SHAPE_REPRESENTATION ( 'Micro_GEC-031-2-005', ( #134, #118 ), #304 ) ;
#146 = AXIS2_PLACEMENT_3D ( 'NONE', #78, #180, #202 ) ;
#147 = VERTEX_POINT ( 'NONE', #92 ) ;
#148 = CARTESIAN_POINT ( 'NONE',  ( -0.04750000000000064587, 0.0000000000000000000, 1.500000000000000222 ) ) ;
#149 = EDGE_CURVE ( 'NONE', #147, #320, #215, .T. ) ;
#150 = DIRECTION ( 'NONE',  ( 0.0000000000000000000, 0.0000000000000000000, 1.000000000000000000 ) ) ;
#151 = VERTEX_POINT ( 'NONE', #110 ) ;
#152 = CYLINDRICAL_SURFACE ( 'NONE', #33, 0.06250000000000002776 ) ;
#153 = VECTOR ( 'NONE', #142, 39.37007874015748854 ) ;
#154 = CARTESIAN_POINT ( 'NONE',  ( 0.0000000000000000000, 0.0000000000000000000, 1.500000000000000222 ) ) ;
#155 = LINE ( 'NONE', #122, #248 ) ;
#156 = DIRECTION ( 'NONE',  ( 1.000000000000000000, 0.0000000000000000000, 0.0000000000000000000 ) ) ;
#157 = DIRECTION ( 'NONE',  ( -1.000000000000000000, 0.0000000000000000000, 0.0000000000000000000 ) ) ;
#158 = DIRECTION ( 'NONE',  ( -1.224646799147353700E-16, -0.0000000000000000000, -1.000000000000000000 ) ) ;
#159 =( NAMED_UNIT ( * ) PLANE_ANGLE_UNIT ( ) SI_UNIT ( $, .RADIAN. ) );
#160 =( NAMED_UNIT ( * ) PLANE_ANGLE_UNIT ( ) SI_UNIT ( $, .RADIAN. ) );
#161 = CARTESIAN_POINT ( 'NONE',  ( 0.0000000000000000000, 0.0000000000000000000, 0.0000000000000000000 ) ) ;
#162 = DIMENSIONAL_EXPONENTS ( 1.000000000000000000, 0.0000000000000000000, 0.0000000000000000000, 0.0000000000000000000, 0.0000000000000000000, 0.0000000000000000000, 0.0000000000000000000 ) ;
#163 = VECTOR ( 'NONE', #299, 39.37007874015748854 ) ;
#164 = EDGE_CURVE ( 'NONE', #228, #123, #167, .T. ) ;
#165 = ORIENTED_EDGE ( 'NONE', *, *, #338, .F. ) ;
#166 = SURFACE_STYLE_FILL_AREA ( #289 ) ;
#167 = LINE ( 'NONE', #281, #331 ) ;
#168 = EDGE_CURVE ( 'NONE', #317, #119, #253, .T. ) ;
#169 = PRESENTATION_LAYER_ASSIGNMENT (  '', '', ( #257 ) ) ;
#170 = ORIENTED_EDGE ( 'NONE', *, *, #301, .F. ) ;
#171 = DIRECTION ( 'NONE',  ( 1.000000000000000000, 0.0000000000000000000, 0.0000000000000000000 ) ) ;
#172 = CLOSED_SHELL ( 'NONE', ( #313, #106, #176, #31, #286, #256, #227, #271, #71, #329, #305, #129 ) ) ;
#173 = DIRECTION ( 'NONE',  ( 1.000000000000000000, 0.0000000000000000000, 0.0000000000000000000 ) ) ;
#174 = FACE_OUTER_BOUND ( 'NONE', #115, .T. ) ;
#175 =( LENGTH_UNIT ( ) NAMED_UNIT ( * ) SI_UNIT ( $, .METRE. ) );
#176 = ADVANCED_FACE ( 'NONE', ( #198 ), #212, .T. ) ;
#177 = ORIENTED_EDGE ( 'NONE', *, *, #85, .F. ) ;
#178 = DIRECTION ( 'NONE',  ( -1.000000000000000000, 0.0000000000000000000, 0.0000000000000000000 ) ) ;
#179 = EDGE_LOOP ( 'NONE', ( #13, #284, #29, #15 ) ) ;
#180 = DIRECTION ( 'NONE',  ( 0.0000000000000000000, 0.0000000000000000000, -1.000000000000000000 ) ) ;
#181 = PRODUCT_RELATED_PRODUCT_CATEGORY ( 'part', '', ( #332 ) ) ;
#182 = ORIENTED_EDGE ( 'NONE', *, *, #333, .T. ) ;
#183 = DIRECTION ( 'NONE',  ( 1.000000000000000000, 0.0000000000000000000, 0.0000000000000000000 ) ) ;
#184 = DIRECTION ( 'NONE',  ( 0.0000000000000000000, 0.0000000000000000000, -1.000000000000000000 ) ) ;
#185 = CARTESIAN_POINT ( 'NONE',  ( 0.0000000000000000000, 0.0000000000000000000, 1.500000000000000222 ) ) ;
#186 = CARTESIAN_POINT ( 'NONE',  ( 0.0000000000000000000, 0.0000000000000000000, 0.0000000000000000000 ) ) ;
#187 = CONICAL_SURFACE ( 'NONE', #137, 0.01558440000000000519, 0.1745329251994342246 ) ;
#188 = COLOUR_RGB ( '',0.7921568627450980005, 0.8196078431372548767, 0.9333333333333333481 ) ;
#189 = SURFACE_STYLE_USAGE ( .BOTH. , #307 ) ;
#190 = SURFACE_STYLE_FILL_AREA ( #217 ) ;
#191 = EDGE_CURVE ( 'NONE', #47, #320, #255, .T. ) ;
#192 = AXIS2_PLACEMENT_3D ( 'NONE', #316, #48, #45 ) ;
#193 =( LENGTH_UNIT ( ) NAMED_UNIT ( * ) SI_UNIT ( $, .METRE. ) );
#194 = PRODUCT_DEFINITION_SHAPE ( 'NONE', 'NONE',  #40 ) ;
#195 = DIRECTION ( 'NONE',  ( -1.000000000000000000, 1.224646799147353454E-16, 0.0000000000000000000 ) ) ;
#196 = CIRCLE ( 'NONE', #274, 0.06250000000000002776 ) ;
#197 = ORIENTED_EDGE ( 'NONE', *, *, #102, .T. ) ;
#198 = FACE_OUTER_BOUND ( 'NONE', #252, .T. ) ;
#199 = ORIENTED_EDGE ( 'NONE', *, *, #235, .F. ) ;
#200 = PLANE ( 'NONE',  #69 ) ;
#201 = ORIENTED_EDGE ( 'NONE', *, *, #164, .T. ) ;
#202 = DIRECTION ( 'NONE',  ( -1.000000000000000000, 0.0000000000000000000, 0.0000000000000000000 ) ) ;
#203 = DIRECTION ( 'NONE',  ( 1.000000000000000000, 0.0000000000000000000, 0.0000000000000000000 ) ) ;
#204 = AXIS2_PLACEMENT_3D ( 'NONE', #185, #302, #157 ) ;
#205 = CARTESIAN_POINT ( 'NONE',  ( 0.0000000000000000000, 0.0000000000000000000, 0.0000000000000000000 ) ) ;
#206 = EDGE_LOOP ( 'NONE', ( #197, #95 ) ) ;
#207 = DIRECTION ( 'NONE',  ( 0.0000000000000000000, 0.0000000000000000000, 1.000000000000000000 ) ) ;
#208 = LINE ( 'NONE', #70, #218 ) ;
#209 = DIRECTION ( 'NONE',  ( -1.224646799147353700E-16, -0.0000000000000000000, -1.000000000000000000 ) ) ;
#210 = DIRECTION ( 'NONE',  ( -0.0000000000000000000, -0.0000000000000000000, -1.000000000000000000 ) ) ;
#211 = DIRECTION ( 'NONE',  ( -1.224646799147353700E-16, -0.0000000000000000000, -1.000000000000000000 ) ) ;
#212 = CONICAL_SURFACE ( 'NONE', #64, 0.01558440000000000519, 0.1745329251994342246 ) ;
#213 = CARTESIAN_POINT ( 'NONE',  ( 6.123233995736768848E-19, 0.0000000000000000000, 0.0000000000000000000 ) ) ;
#214 = PRODUCT_CONTEXT ( 'NONE', #111, 'mechanical' ) ;
#215 = CIRCLE ( 'NONE', #132, 0.01558440000000000866 ) ;
#216 = APPLICATION_PROTOCOL_DEFINITION ( 'draft international standard', 'automotive_design', 1998, #111 ) ;
#217 = FILL_AREA_STYLE ('',( #136 ) ) ;
#218 = VECTOR ( 'NONE', #351, 39.37007874015748143 ) ;
#219 = AXIS2_PLACEMENT_3D ( 'NONE', #186, #158, #272 ) ;
#220 = PRESENTATION_STYLE_ASSIGNMENT (( #86 ) ) ;
#221 = APPLICATION_CONTEXT ( 'automotive_design' ) ;
#222 =( NAMED_UNIT ( * ) SI_UNIT ( $, .STERADIAN. ) SOLID_ANGLE_UNIT ( ) );
#223 = ORIENTED_EDGE ( 'NONE', *, *, #109, .F. ) ;
#224 = FACE_OUTER_BOUND ( 'NONE', #179, .T. ) ;
#225 = ORIENTED_EDGE ( 'NONE', *, *, #85, .T. ) ;
#226 = DIRECTION ( 'NONE',  ( -1.224646799147353700E-16, -0.0000000000000000000, -1.000000000000000000 ) ) ;
#227 = ADVANCED_FACE ( 'NONE', ( #90 ), #200, .T. ) ;
#228 = VERTEX_POINT ( 'NONE', #259 ) ;
#229 = LINE ( 'NONE', #100, #163 ) ;
#230 = CONICAL_SURFACE ( 'NONE', #279, 0.04750000000000064587, 0.7853981633974466137 ) ;
#231 = CARTESIAN_POINT ( 'NONE',  ( 0.01058440000000000943, 0.0000000000000000000, 0.005000000000000000104 ) ) ;
#232 = PLANE ( 'NONE',  #308 ) ;
#233 = ORIENTED_EDGE ( 'NONE', *, *, #58, .F. ) ;
#234 = AXIS2_PLACEMENT_3D ( 'NONE', #2, #327, #105 ) ;
#235 = EDGE_CURVE ( 'NONE', #47, #123, #229, .T. ) ;
#236 = FACE_OUTER_BOUND ( 'NONE', #18, .T. ) ;
#237 = ORIENTED_EDGE ( 'NONE', *, *, #319, .F. ) ;
#238 = DIRECTION ( 'NONE',  ( -1.000000000000000000, 0.0000000000000000000, 0.0000000000000000000 ) ) ;
#239 = ORIENTED_EDGE ( 'NONE', *, *, #6, .T. ) ;
#240 = CYLINDRICAL_SURFACE ( 'NONE', #192, 0.01558440000000000866 ) ;
#241 = CIRCLE ( 'NONE', #80, 0.01058440000000000943 ) ;
#242 = DIRECTION ( 'NONE',  ( 1.000000000000000000, 0.0000000000000000000, 0.0000000000000000000 ) ) ;
#243 = APPLICATION_PROTOCOL_DEFINITION ( 'draft international standard', 'automotive_design', 1998, #221 ) ;
#244 = EDGE_CURVE ( 'NONE', #151, #123, #60, .T. ) ;
#245 = DIRECTION ( 'NONE',  ( 0.0000000000000000000, 0.0000000000000000000, 1.000000000000000000 ) ) ;
#246 = ORIENTED_EDGE ( 'NONE', *, *, #139, .F. ) ;
#247 = DIRECTION ( 'NONE',  ( 0.0000000000000000000, 0.0000000000000000000, 1.000000000000000000 ) ) ;
#248 = VECTOR ( 'NONE', #43, 39.37007874015748854 ) ;
#249 = PRODUCT_DEFINITION_FORMATION_WITH_SPECIFIED_SOURCE ( 'ANY', '', #332, .NOT_KNOWN. ) ;
#250 = EDGE_CURVE ( 'NONE', #123, #151, #196, .T. ) ;
#251 = CARTESIAN_POINT ( 'NONE',  ( 6.123233995736768848E-19, 0.0000000000000000000, 0.005000000000000000104 ) ) ;
#252 = EDGE_LOOP ( 'NONE', ( #112, #126, #32, #199 ) ) ;
#253 = LINE ( 'NONE', #34, #153 ) ;
#254 = EDGE_LOOP ( 'NONE', ( #343, #339, #165, #141 ) ) ;
#255 = LINE ( 'NONE', #117, #3 ) ;
#256 = ADVANCED_FACE ( 'NONE', ( #326 ), #152, .T. ) ;
#257 = STYLED_ITEM ( 'NONE', ( #220 ), #134 ) ;
#258 = ORIENTED_EDGE ( 'NONE', *, *, #168, .F. ) ;
#259 = CARTESIAN_POINT ( 'NONE',  ( 0.06250000000000002776, 7.654042494670959086E-18, 1.485000000000000764 ) ) ;
#260 = ORIENTED_EDGE ( 'NONE', *, *, #55, .T. ) ;
#261 = DIRECTION ( 'NONE',  ( -1.000000000000000000, 0.0000000000000000000, 0.0000000000000000000 ) ) ;
#262 = EDGE_CURVE ( 'NONE', #119, #151, #16, .T. ) ;
#263 = FACE_OUTER_BOUND ( 'NONE', #91, .T. ) ;
#264 = CARTESIAN_POINT ( 'NONE',  ( 0.0000000000000000000, 0.0000000000000000000, 1.500000000000000222 ) ) ;
#265 = ORIENTED_EDGE ( 'NONE', *, *, #191, .T. ) ;
#266 = CIRCLE ( 'NONE', #298, 0.01558440000000000866 ) ;
#267 = DIRECTION ( 'NONE',  ( 1.000000000000000000, 0.0000000000000000000, 0.0000000000000000000 ) ) ;
#268 = EDGE_LOOP ( 'NONE', ( #99, #347, #239, #287 ) ) ;
#269 = CARTESIAN_POINT ( 'NONE',  ( 9.552245033349369302E-18, 0.0000000000000000000, 0.07800000000000009703 ) ) ;
#270 = CARTESIAN_POINT ( 'NONE',  ( 6.123233995736768848E-19, 0.0000000000000000000, 0.005000000000000000104 ) ) ;
#271 = ADVANCED_FACE ( 'NONE', ( #14 ), #101, .T. ) ;
#272 = DIRECTION ( 'NONE',  ( -1.000000000000000000, 0.0000000000000000000, 1.224646799147353700E-16 ) ) ;
#273 = LENGTH_MEASURE_WITH_UNIT ( LENGTH_MEASURE( 0.02539999999999999897 ), #306 );
#274 = AXIS2_PLACEMENT_3D ( 'NONE', #75, #346, #96 ) ;
#275 = AXIS2_PLACEMENT_3D ( 'NONE', #337, #120, #195 ) ;
#276 = SHAPE_DEFINITION_REPRESENTATION ( #194, #145 ) ;
#277 = DIMENSIONAL_EXPONENTS ( 1.000000000000000000, 0.0000000000000000000, 0.0000000000000000000, 0.0000000000000000000, 0.0000000000000000000, 0.0000000000000000000, 0.0000000000000000000 ) ;
#278 = ORIENTED_EDGE ( 'NONE', *, *, #301, .T. ) ;
#279 = AXIS2_PLACEMENT_3D ( 'NONE', #154, #127, #238 ) ;
#280 = ORIENTED_EDGE ( 'NONE', *, *, #6, .F. ) ;
#281 = CARTESIAN_POINT ( 'NONE',  ( 0.06250000000000002776, 7.654042494670959086E-18, 1.500000000000000222 ) ) ;
#282 = AXIS2_PLACEMENT_3D ( 'NONE', #77, #184, #300 ) ;
#283 = VECTOR ( 'NONE', #128, 39.37007874015748143 ) ;
#284 = ORIENTED_EDGE ( 'NONE', *, *, #102, .F. ) ;
#285 = DIRECTION ( 'NONE',  ( -0.1736481776669314414, 2.126576849575786706E-17, 0.9848077530122077983 ) ) ;
#286 = ADVANCED_FACE ( 'NONE', ( #236 ), #131, .T. ) ;
#287 = ORIENTED_EDGE ( 'NONE', *, *, #149, .T. ) ;
#288 = DIRECTION ( 'NONE',  ( 1.224646799147353700E-16, 0.0000000000000000000, 1.000000000000000000 ) ) ;
#289 = FILL_AREA_STYLE ('',( #35 ) ) ;
#290 = AXIS2_PLACEMENT_3D ( 'NONE', #251, #247, #171 ) ;
#291 = DIRECTION ( 'NONE',  ( 0.0000000000000000000, -1.000000000000000000, 0.0000000000000000000 ) ) ;
#292 = LENGTH_MEASURE_WITH_UNIT ( LENGTH_MEASURE( 0.02539999999999999897 ), #175 );
#293 = CARTESIAN_POINT ( 'NONE',  ( 0.01058440000000000943, 0.0000000000000000000, 0.0000000000000000000 ) ) ;
#294 = DIRECTION ( 'NONE',  ( 1.000000000000000000, 0.0000000000000000000, -0.0000000000000000000 ) ) ;
#295 = ORIENTED_EDGE ( 'NONE', *, *, #338, .T. ) ;
#296 = DIRECTION ( 'NONE',  ( 1.000000000000000000, 0.0000000000000000000, 0.0000000000000000000 ) ) ;
#297 = ORIENTED_EDGE ( 'NONE', *, *, #250, .T. ) ;
#298 = AXIS2_PLACEMENT_3D ( 'NONE', #270, #150, #183 ) ;
#299 = DIRECTION ( 'NONE',  ( 0.1736481776669316635, 0.0000000000000000000, 0.9848077530122077983 ) ) ;
#300 = DIRECTION ( 'NONE',  ( 1.000000000000000000, 0.0000000000000000000, 0.0000000000000000000 ) ) ;
#301 = EDGE_CURVE ( 'NONE', #38, #228, #155, .T. ) ;
#302 = DIRECTION ( 'NONE',  ( -0.0000000000000000000, -0.0000000000000000000, -1.000000000000000000 ) ) ;
#303 = FACE_OUTER_BOUND ( 'NONE', #74, .T. ) ;
#304 =( GEOMETRIC_REPRESENTATION_CONTEXT ( 3 ) GLOBAL_UNCERTAINTY_ASSIGNED_CONTEXT ( ( #104 ) ) GLOBAL_UNIT_ASSIGNED_CONTEXT ( ( #21, #159, #330 ) ) REPRESENTATION_CONTEXT ( 'NONE', 'WORKASPACE' ) );
#305 = ADVANCED_FACE ( 'NONE', ( #349 ), #232, .F. ) ;
#306 =( LENGTH_UNIT ( ) NAMED_UNIT ( * ) SI_UNIT ( $, .METRE. ) );
#307 = SURFACE_SIDE_STYLE ('',( #190 ) ) ;
#308 = AXIS2_PLACEMENT_3D ( 'NONE', #205, #207, #294 ) ;
#309 = CIRCLE ( 'NONE', #116, 0.04750000000000064587 ) ;
#310 = EDGE_LOOP ( 'NONE', ( #9, #68, #345, #97 ) ) ;
#311 = CARTESIAN_POINT ( 'NONE',  ( 0.0000000000000000000, 0.0000000000000000000, 1.500000000000000222 ) ) ;
#312 = CIRCLE ( 'NONE', #5, 0.01558440000000000519 ) ;
#313 = ADVANCED_FACE ( 'NONE', ( #321 ), #107, .T. ) ;
#314 = CARTESIAN_POINT ( 'NONE',  ( 0.0000000000000000000, 0.0000000000000000000, 1.500000000000000222 ) ) ;
#315 = EDGE_LOOP ( 'NONE', ( #170, #246, #87, #233 ) ) ;
#316 = CARTESIAN_POINT ( 'NONE',  ( 0.0000000000000000000, 0.0000000000000000000, 0.0000000000000000000 ) ) ;
#317 = VERTEX_POINT ( 'NONE', #148 ) ;
#318 = DIRECTION ( 'NONE',  ( -1.224646799147353700E-16, -0.0000000000000000000, -1.000000000000000000 ) ) ;
#319 = EDGE_CURVE ( 'NONE', #47, #20, #312, .T. ) ;
#320 = VERTEX_POINT ( 'NONE', #94 ) ;
#321 = FACE_OUTER_BOUND ( 'NONE', #254, .T. ) ;
#322 = CARTESIAN_POINT ( 'NONE',  ( -0.01558439999999999652, 4.781290526167081051E-18, 0.07800000000000009703 ) ) ;
#323 = CIRCLE ( 'NONE', #282, 0.06250000000000002776 ) ;
#324 = CARTESIAN_POINT ( 'NONE',  ( 0.01558440000000001387, 0.0000000000000000000, 0.07800000000000009703 ) ) ;
#325 = COLOUR_RGB ( '',0.7921568627450980005, 0.8196078431372548767, 0.9333333333333333481 ) ;
#326 = FACE_OUTER_BOUND ( 'NONE', #310, .T. ) ;
#327 = DIRECTION ( 'NONE',  ( 0.0000000000000000000, 0.0000000000000000000, 1.000000000000000000 ) ) ;
#328 = UNCERTAINTY_MEASURE_WITH_UNIT (LENGTH_MEASURE( 1.000000000000000082E-05 ), #59, 'distance_accuracy_value', 'NONE');
#329 = ADVANCED_FACE ( 'NONE', ( #23 ), #240, .T. ) ;
#330 =( NAMED_UNIT ( * ) SI_UNIT ( $, .STERADIAN. ) SOLID_ANGLE_UNIT ( ) );
#331 = VECTOR ( 'NONE', #65, 39.37007874015748143 ) ;
#332 = PRODUCT ( 'Micro_GEC-031-2-005', 'Micro_GEC-031-2-005', '', ( #214 ) ) ;
#333 = EDGE_CURVE ( 'NONE', #20, #47, #41, .T. ) ;
#334 = VECTOR ( 'NONE', #285, 39.37007874015748854 ) ;
#335 = DIMENSIONAL_EXPONENTS ( 1.000000000000000000, 0.0000000000000000000, 0.0000000000000000000, 0.0000000000000000000, 0.0000000000000000000, 0.0000000000000000000, 0.0000000000000000000 ) ;
#336 = EDGE_LOOP ( 'NONE', ( #7, #225 ) ) ;
#337 = CARTESIAN_POINT ( 'NONE',  ( -0.01058440000000000943, 1.296215158089525459E-18, 0.005000000000000000104 ) ) ;
#338 = EDGE_CURVE ( 'NONE', #320, #147, #266, .T. ) ;
#339 = ORIENTED_EDGE ( 'NONE', *, *, #135, .T. ) ;
#340 = LENGTH_MEASURE_WITH_UNIT ( LENGTH_MEASURE( 0.02539999999999999897 ), #193 );
#341 = STYLED_ITEM ( 'NONE', ( #108 ), #145 ) ;
#342 = CARTESIAN_POINT ( 'NONE',  ( 6.123233995736768848E-19, 0.0000000000000000000, 0.005000000000000000104 ) ) ;
#343 = ORIENTED_EDGE ( 'NONE', *, *, #46, .F. ) ;
#344 = CARTESIAN_POINT ( 'NONE',  ( 6.123233995736768848E-19, 0.0000000000000000000, 0.005000000000000000104 ) ) ;
#345 = ORIENTED_EDGE ( 'NONE', *, *, #262, .T. ) ;
#346 = DIRECTION ( 'NONE',  ( -1.224646799147353700E-16, -0.0000000000000000000, -1.000000000000000000 ) ) ;
#347 = ORIENTED_EDGE ( 'NONE', *, *, #319, .T. ) ;
#348 = CARTESIAN_POINT ( 'NONE',  ( 0.04750000000000064587, 6.735557395310483192E-18, 1.500000000000000222 ) ) ;
#349 = FACE_OUTER_BOUND ( 'NONE', #206, .T. ) ;
#350 = AXIS2_PLACEMENT_3D ( 'NONE', #344, #73, #296 ) ;
#351 = DIRECTION ( 'NONE',  ( -1.224646799147353700E-16, -0.0000000000000000000, -1.000000000000000000 ) ) ;
ENDSEC;
END-ISO-10303-21;
