ISO-10303-21;
HEADER;
FILE_DESCRIPTION (( 'STEP AP214' ),
    '1' );
FILE_NAME ('Micro_RSC-250-14.STEP',
    '2021-09-03T17:47:36',
    ( '' ),
    ( '' ),
    'SwSTEP 2.0',
    'SolidWorks 2020',
    '' );
FILE_SCHEMA (( 'AUTOMOTIVE_DESIGN' ));
ENDSEC;

DATA;
#1 = AXIS2_PLACEMENT_3D ( 'NONE', #123, #121, #111 ) ;
#2 =( GEOMETRIC_REPRESENTATION_CONTEXT ( 3 ) GLOBAL_UNCERTAINTY_ASSIGNED_CONTEXT ( ( #139 ) ) GLOBAL_UNIT_ASSIGNED_CONTEXT ( ( #194, #223, #190 ) ) REPRESENTATION_CONTEXT ( 'NONE', 'WORKASPACE' ) );
#3 =( NAMED_UNIT ( * ) SI_UNIT ( $, .STERADIAN. ) SOLID_ANGLE_UNIT ( ) );
#4 = FILL_AREA_STYLE ('',( #196 ) ) ;
#5 = SURFACE_STYLE_FILL_AREA ( #4 ) ;
#6 = VECTOR ( 'NONE', #82, 39.37007874015748143 ) ;
#7 = DIRECTION ( 'NONE',  ( -0.0000000000000000000, -0.0000000000000000000, -1.000000000000000000 ) ) ;
#8 = CYLINDRICAL_SURFACE ( 'NONE', #115, 0.1250000000000000000 ) ;
#9 = DIRECTION ( 'NONE',  ( 0.0000000000000000000, 0.0000000000000000000, -1.000000000000000000 ) ) ;
#10 = VECTOR ( 'NONE', #120, 39.37007874015748143 ) ;
#11 = CARTESIAN_POINT ( 'NONE',  ( 0.0000000000000000000, 0.0000000000000000000, 0.0000000000000000000 ) ) ;
#12 = ORIENTED_EDGE ( 'NONE', *, *, #152, .T. ) ;
#13 = VERTEX_POINT ( 'NONE', #33 ) ;
#14 = CARTESIAN_POINT ( 'NONE',  ( 0.0000000000000000000, 0.0000000000000000000, 3.985000000000000320 ) ) ;
#15 = CARTESIAN_POINT ( 'NONE',  ( 0.003999999999999994879, 0.0000000000000000000, 0.0000000000000000000 ) ) ;
#16 = VERTEX_POINT ( 'NONE', #225 ) ;
#17 = AXIS2_PLACEMENT_3D ( 'NONE', #176, #236, #125 ) ;
#18 = CARTESIAN_POINT ( 'NONE',  ( 0.0000000000000000000, 0.0000000000000000000, 4.000000000000000000 ) ) ;
#19 = ADVANCED_FACE ( 'NONE', ( #112 ), #189, .T. ) ;
#20 = SURFACE_STYLE_USAGE ( .BOTH. , #76 ) ;
#21 = CONICAL_SURFACE ( 'NONE', #100, 0.003999999999999994879, 0.5235987755983003700 ) ;
#22 = COLOUR_RGB ( '',0.7921568627450980005, 0.8196078431372548767, 0.9333333333333333481 ) ;
#23 = ADVANCED_FACE ( 'NONE', ( #148 ), #21, .T. ) ;
#24 = LENGTH_MEASURE_WITH_UNIT ( LENGTH_MEASURE( 0.02539999999999999897 ), #81 );
#25 = DIMENSIONAL_EXPONENTS ( 1.000000000000000000, 0.0000000000000000000, 0.0000000000000000000, 0.0000000000000000000, 0.0000000000000000000, 0.0000000000000000000, 0.0000000000000000000 ) ;
#26 = LINE ( 'NONE', #135, #10 ) ;
#27 = COLOUR_RGB ( '',0.7921568627450980005, 0.8196078431372548767, 0.9333333333333333481 ) ;
#28 = CARTESIAN_POINT ( 'NONE',  ( 0.0000000000000000000, 0.0000000000000000000, 4.000000000000000000 ) ) ;
#29 =( CONVERSION_BASED_UNIT ( 'INCH', #136 ) LENGTH_UNIT ( ) NAMED_UNIT ( #171 ) );
#30 = PLANE ( 'NONE',  #1 ) ;
#31 = AXIS2_PLACEMENT_3D ( 'NONE', #14, #215, #184 ) ;
#32 = CARTESIAN_POINT ( 'NONE',  ( 0.0000000000000000000, 0.0000000000000000000, 0.0000000000000000000 ) ) ;
#33 = CARTESIAN_POINT ( 'NONE',  ( 0.003999999999999994879, 0.0000000000000000000, 0.0000000000000000000 ) ) ;
#34 = FACE_OUTER_BOUND ( 'NONE', #186, .T. ) ;
#35 = DIRECTION ( 'NONE',  ( -0.0000000000000000000, -0.0000000000000000000, -1.000000000000000000 ) ) ;
#36 =( NAMED_UNIT ( * ) SI_UNIT ( $, .STERADIAN. ) SOLID_ANGLE_UNIT ( ) );
#37 = ORIENTED_EDGE ( 'NONE', *, *, #209, .T. ) ;
#38 = DIMENSIONAL_EXPONENTS ( 1.000000000000000000, 0.0000000000000000000, 0.0000000000000000000, 0.0000000000000000000, 0.0000000000000000000, 0.0000000000000000000, 0.0000000000000000000 ) ;
#39 = AXIS2_PLACEMENT_3D ( 'NONE', #18, #35, #116 ) ;
#40 = PRODUCT_RELATED_PRODUCT_CATEGORY ( 'part', '', ( #210 ) ) ;
#41 = LINE ( 'NONE', #248, #6 ) ;
#42 = APPLICATION_CONTEXT ( 'automotive_design' ) ;
#43 = CARTESIAN_POINT ( 'NONE',  ( 0.0000000000000000000, 0.0000000000000000000, 4.000000000000000000 ) ) ;
#44 = CIRCLE ( 'NONE', #145, 0.003999999999999994879 ) ;
#45 = DIRECTION ( 'NONE',  ( -1.000000000000000000, 0.0000000000000000000, 0.0000000000000000000 ) ) ;
#46 =( CONVERSION_BASED_UNIT ( 'INCH', #24 ) LENGTH_UNIT ( ) NAMED_UNIT ( #25 ) );
#47 = ADVANCED_BREP_SHAPE_REPRESENTATION ( 'Micro_RSC-250-14', ( #88, #133 ), #242 ) ;
#48 = FACE_OUTER_BOUND ( 'NONE', #94, .T. ) ;
#49 = CONICAL_SURFACE ( 'NONE', #78, 0.1100000000000001948, 0.7853981633974517207 ) ;
#50 = CARTESIAN_POINT ( 'NONE',  ( 0.0000000000000000000, 0.0000000000000000000, 4.000000000000000000 ) ) ;
#51 = DIRECTION ( 'NONE',  ( 1.000000000000000000, 0.0000000000000000000, 0.0000000000000000000 ) ) ;
#52 = PRODUCT_DEFINITION_CONTEXT ( 'detailed design', #167, 'design' ) ;
#53 = DIRECTION ( 'NONE',  ( 0.0000000000000000000, 0.0000000000000000000, 1.000000000000000000 ) ) ;
#54 = DIRECTION ( 'NONE',  ( 1.000000000000000000, 0.0000000000000000000, 0.0000000000000000000 ) ) ;
#55 = ORIENTED_EDGE ( 'NONE', *, *, #173, .T. ) ;
#56 = LINE ( 'NONE', #15, #228 ) ;
#57 = ORIENTED_EDGE ( 'NONE', *, *, #217, .T. ) ;
#58 = ORIENTED_EDGE ( 'NONE', *, *, #227, .T. ) ;
#59 = VERTEX_POINT ( 'NONE', #79 ) ;
#60 = APPLICATION_PROTOCOL_DEFINITION ( 'draft international standard', 'automotive_design', 1998, #42 ) ;
#61 = EDGE_CURVE ( 'NONE', #59, #13, #74, .T. ) ;
#62 = CIRCLE ( 'NONE', #131, 0.1100000000000001948 ) ;
#63 = PRODUCT_DEFINITION_FORMATION_WITH_SPECIFIED_SOURCE ( 'ANY', '', #210, .NOT_KNOWN. ) ;
#64 = VECTOR ( 'NONE', #181, 39.37007874015748143 ) ;
#65 = SURFACE_STYLE_USAGE ( .BOTH. , #197 ) ;
#66 = CARTESIAN_POINT ( 'NONE',  ( 0.1250000000000000000, 1.530808498934191509E-17, 3.985000000000000320 ) ) ;
#67 = DIRECTION ( 'NONE',  ( 0.0000000000000000000, 0.0000000000000000000, -1.000000000000000000 ) ) ;
#68 = DIRECTION ( 'NONE',  ( 1.000000000000000000, 0.0000000000000000000, -0.0000000000000000000 ) ) ;
#69 = CARTESIAN_POINT ( 'NONE',  ( 0.0000000000000000000, 0.0000000000000000000, 0.0000000000000000000 ) ) ;
#70 = ORIENTED_EDGE ( 'NONE', *, *, #229, .T. ) ;
#71 = CARTESIAN_POINT ( 'NONE',  ( 0.0000000000000000000, 0.0000000000000000000, 3.985000000000000320 ) ) ;
#72 = VERTEX_POINT ( 'NONE', #108 ) ;
#73 = CIRCLE ( 'NONE', #17, 0.1250000000000000000 ) ;
#74 = CIRCLE ( 'NONE', #98, 0.003999999999999994879 ) ;
#75 = CARTESIAN_POINT ( 'NONE',  ( 0.0000000000000000000, 0.0000000000000000000, 0.0000000000000000000 ) ) ;
#76 = SURFACE_SIDE_STYLE ('',( #77 ) ) ;
#77 = SURFACE_STYLE_FILL_AREA ( #149 ) ;
#78 = AXIS2_PLACEMENT_3D ( 'NONE', #238, #67, #175 ) ;
#79 = CARTESIAN_POINT ( 'NONE',  ( -0.003999999999999994879, 7.898971854500427644E-18, 0.0000000000000000000 ) ) ;
#80 = ADVANCED_FACE ( 'NONE', ( #34 ), #169, .T. ) ;
#81 =( LENGTH_UNIT ( ) NAMED_UNIT ( * ) SI_UNIT ( $, .METRE. ) );
#82 = DIRECTION ( 'NONE',  ( -0.0000000000000000000, -0.0000000000000000000, -1.000000000000000000 ) ) ;
#83 = DIRECTION ( 'NONE',  ( -0.5000000000000012212, 6.123233995736780827E-17, 0.8660254037844377084 ) ) ;
#84 = CARTESIAN_POINT ( 'NONE',  ( 0.0000000000000000000, 0.0000000000000000000, 0.0000000000000000000 ) ) ;
#85 = CARTESIAN_POINT ( 'NONE',  ( 0.0000000000000000000, 0.0000000000000000000, 4.000000000000000000 ) ) ;
#86 = EDGE_CURVE ( 'NONE', #235, #16, #62, .T. ) ;
#87 = DIRECTION ( 'NONE',  ( 0.0000000000000000000, 0.0000000000000000000, 1.000000000000000000 ) ) ;
#88 = MANIFOLD_SOLID_BREP ( 'Cut-Revolve1', #198 ) ;
#89 = PLANE ( 'NONE',  #118 ) ;
#90 = DIRECTION ( 'NONE',  ( 0.0000000000000000000, 0.0000000000000000000, 1.000000000000000000 ) ) ;
#91 = ORIENTED_EDGE ( 'NONE', *, *, #152, .F. ) ;
#92 = CARTESIAN_POINT ( 'NONE',  ( -0.1250000000000000000, 0.0000000000000000000, 4.000000000000000000 ) ) ;
#93 = STYLED_ITEM ( 'NONE', ( #154 ), #88 ) ;
#94 = EDGE_LOOP ( 'NONE', ( #127, #147, #222, #141 ) ) ;
#95 = ORIENTED_EDGE ( 'NONE', *, *, #165, .F. ) ;
#96 = EDGE_CURVE ( 'NONE', #237, #244, #41, .T. ) ;
#97 = APPLICATION_PROTOCOL_DEFINITION ( 'draft international standard', 'automotive_design', 1998, #167 ) ;
#98 = AXIS2_PLACEMENT_3D ( 'NONE', #11, #113, #143 ) ;
#99 = DIRECTION ( 'NONE',  ( -0.0000000000000000000, -0.0000000000000000000, -1.000000000000000000 ) ) ;
#100 = AXIS2_PLACEMENT_3D ( 'NONE', #69, #53, #126 ) ;
#101 = STYLED_ITEM ( 'NONE', ( #207 ), #47 ) ;
#102 = CARTESIAN_POINT ( 'NONE',  ( 0.1250000000000000000, 1.530808498934191509E-17, 0.2095781477158334405 ) ) ;
#103 = CARTESIAN_POINT ( 'NONE',  ( -0.003999999999999994879, 4.898587196589406797E-19, 0.0000000000000000000 ) ) ;
#104 = UNCERTAINTY_MEASURE_WITH_UNIT (LENGTH_MEASURE( 1.000000000000000082E-05 ), #29, 'distance_accuracy_value', 'NONE');
#105 = CARTESIAN_POINT ( 'NONE',  ( 0.0000000000000000000, 0.0000000000000000000, 0.2095781477158334405 ) ) ;
#106 = LINE ( 'NONE', #92, #64 ) ;
#107 = VECTOR ( 'NONE', #241, 39.37007874015748143 ) ;
#108 = CARTESIAN_POINT ( 'NONE',  ( -0.1250000000000000000, 0.0000000000000000000, 0.2095781477158334405 ) ) ;
#109 = EDGE_LOOP ( 'NONE', ( #239, #245, #182, #129 ) ) ;
#110 = EDGE_LOOP ( 'NONE', ( #201, #37, #57, #224 ) ) ;
#111 = DIRECTION ( 'NONE',  ( 1.000000000000000000, 0.0000000000000000000, -0.0000000000000000000 ) ) ;
#112 = FACE_OUTER_BOUND ( 'NONE', #243, .T. ) ;
#113 = DIRECTION ( 'NONE',  ( -0.0000000000000000000, -0.0000000000000000000, -1.000000000000000000 ) ) ;
#114 = DIRECTION ( 'NONE',  ( 0.0000000000000000000, 0.0000000000000000000, 1.000000000000000000 ) ) ;
#115 = AXIS2_PLACEMENT_3D ( 'NONE', #43, #99, #45 ) ;
#116 = DIRECTION ( 'NONE',  ( -1.000000000000000000, 0.0000000000000000000, 0.0000000000000000000 ) ) ;
#117 = ADVANCED_FACE ( 'NONE', ( #214 ), #8, .T. ) ;
#118 = AXIS2_PLACEMENT_3D ( 'NONE', #240, #90, #68 ) ;
#119 = PRESENTATION_LAYER_ASSIGNMENT (  '', '', ( #101 ) ) ;
#120 = DIRECTION ( 'NONE',  ( 0.7071067811865499042, 8.659560562354961208E-17, -0.7071067811865451302 ) ) ;
#121 = DIRECTION ( 'NONE',  ( 0.0000000000000000000, 0.0000000000000000000, 1.000000000000000000 ) ) ;
#122 = ADVANCED_FACE ( 'NONE', ( #220 ), #89, .F. ) ;
#123 = CARTESIAN_POINT ( 'NONE',  ( 0.0000000000000000000, 0.0000000000000000000, 4.000000000000000000 ) ) ;
#124 = EDGE_LOOP ( 'NONE', ( #128, #12, #146, #180 ) ) ;
#125 = DIRECTION ( 'NONE',  ( -1.000000000000000000, 0.0000000000000000000, 0.0000000000000000000 ) ) ;
#126 = DIRECTION ( 'NONE',  ( 1.000000000000000000, 0.0000000000000000000, 0.0000000000000000000 ) ) ;
#127 = ORIENTED_EDGE ( 'NONE', *, *, #209, .F. ) ;
#128 = ORIENTED_EDGE ( 'NONE', *, *, #173, .F. ) ;
#129 = ORIENTED_EDGE ( 'NONE', *, *, #229, .F. ) ;
#130 =( LENGTH_UNIT ( ) NAMED_UNIT ( * ) SI_UNIT ( $, .METRE. ) );
#131 = AXIS2_PLACEMENT_3D ( 'NONE', #50, #87, #54 ) ;
#132 = PRODUCT_DEFINITION ( 'UNKNOWN', '', #63, #52 ) ;
#133 = AXIS2_PLACEMENT_3D ( 'NONE', #75, #114, #144 ) ;
#134 =( NAMED_UNIT ( * ) PLANE_ANGLE_UNIT ( ) SI_UNIT ( $, .RADIAN. ) );
#135 = CARTESIAN_POINT ( 'NONE',  ( 0.1100000000000001948, 1.347111479062090784E-17, 4.000000000000000000 ) ) ;
#136 = LENGTH_MEASURE_WITH_UNIT ( LENGTH_MEASURE( 0.02539999999999999897 ), #205 );
#137 = ORIENTED_EDGE ( 'NONE', *, *, #86, .T. ) ;
#138 = DIRECTION ( 'NONE',  ( 0.0000000000000000000, 0.0000000000000000000, 1.000000000000000000 ) ) ;
#139 = UNCERTAINTY_MEASURE_WITH_UNIT (LENGTH_MEASURE( 1.000000000000000082E-05 ), #194, 'distance_accuracy_value', 'NONE');
#140 = CARTESIAN_POINT ( 'NONE',  ( -0.1100000000000001948, 0.0000000000000000000, 4.000000000000000000 ) ) ;
#141 = ORIENTED_EDGE ( 'NONE', *, *, #165, .T. ) ;
#142 = ADVANCED_FACE ( 'NONE', ( #48 ), #151, .T. ) ;
#143 = DIRECTION ( 'NONE',  ( -1.000000000000000000, 0.0000000000000000000, 0.0000000000000000000 ) ) ;
#144 = DIRECTION ( 'NONE',  ( 1.000000000000000000, 0.0000000000000000000, 0.0000000000000000000 ) ) ;
#145 = AXIS2_PLACEMENT_3D ( 'NONE', #84, #7, #155 ) ;
#146 = ORIENTED_EDGE ( 'NONE', *, *, #246, .F. ) ;
#147 = ORIENTED_EDGE ( 'NONE', *, *, #227, .F. ) ;
#148 = FACE_OUTER_BOUND ( 'NONE', #110, .T. ) ;
#149 = FILL_AREA_STYLE ('',( #168 ) ) ;
#150 = AXIS2_PLACEMENT_3D ( 'NONE', #105, #159, #219 ) ;
#151 = CONICAL_SURFACE ( 'NONE', #211, 0.003999999999999994879, 0.5235987755983003700 ) ;
#152 = EDGE_CURVE ( 'NONE', #16, #237, #26, .T. ) ;
#153 =( GEOMETRIC_REPRESENTATION_CONTEXT ( 3 ) GLOBAL_UNCERTAINTY_ASSIGNED_CONTEXT ( ( #163 ) ) GLOBAL_UNIT_ASSIGNED_CONTEXT ( ( #46, #134, #3 ) ) REPRESENTATION_CONTEXT ( 'NONE', 'WORKASPACE' ) );
#154 = PRESENTATION_STYLE_ASSIGNMENT (( #65 ) ) ;
#155 = DIRECTION ( 'NONE',  ( -1.000000000000000000, 0.0000000000000000000, 0.0000000000000000000 ) ) ;
#156 = DIRECTION ( 'NONE',  ( 0.5000000000000012212, 0.0000000000000000000, 0.8660254037844377084 ) ) ;
#157 = PRESENTATION_LAYER_ASSIGNMENT (  '', '', ( #93 ) ) ;
#158 = DIRECTION ( 'NONE',  ( 0.0000000000000000000, 0.0000000000000000000, 1.000000000000000000 ) ) ;
#159 = DIRECTION ( 'NONE',  ( -0.0000000000000000000, -0.0000000000000000000, -1.000000000000000000 ) ) ;
#160 = FACE_OUTER_BOUND ( 'NONE', #124, .T. ) ;
#161 = AXIS2_PLACEMENT_3D ( 'NONE', #28, #158, #51 ) ;
#162 = LENGTH_MEASURE_WITH_UNIT ( LENGTH_MEASURE( 0.02539999999999999897 ), #130 );
#163 = UNCERTAINTY_MEASURE_WITH_UNIT (LENGTH_MEASURE( 1.000000000000000082E-05 ), #46, 'distance_accuracy_value', 'NONE');
#164 = ORIENTED_EDGE ( 'NONE', *, *, #86, .F. ) ;
#165 = EDGE_CURVE ( 'NONE', #244, #72, #226, .T. ) ;
#166 = SHAPE_DEFINITION_REPRESENTATION ( #170, #47 ) ;
#167 = APPLICATION_CONTEXT ( 'automotive_design' ) ;
#168 = FILL_AREA_STYLE_COLOUR ( '', #27 ) ;
#169 = CONICAL_SURFACE ( 'NONE', #233, 0.1100000000000001948, 0.7853981633974517207 ) ;
#170 = PRODUCT_DEFINITION_SHAPE ( 'NONE', 'NONE',  #132 ) ;
#171 = DIMENSIONAL_EXPONENTS ( 1.000000000000000000, 0.0000000000000000000, 0.0000000000000000000, 0.0000000000000000000, 0.0000000000000000000, 0.0000000000000000000, 0.0000000000000000000 ) ;
#172 = MECHANICAL_DESIGN_GEOMETRIC_PRESENTATION_REPRESENTATION (  '', ( #101 ), #2 ) ;
#173 = EDGE_CURVE ( 'NONE', #16, #235, #174, .T. ) ;
#174 = CIRCLE ( 'NONE', #161, 0.1100000000000001948 ) ;
#175 = DIRECTION ( 'NONE',  ( -1.000000000000000000, 0.0000000000000000000, 0.0000000000000000000 ) ) ;
#176 = CARTESIAN_POINT ( 'NONE',  ( 0.0000000000000000000, 0.0000000000000000000, 0.2095781477158334405 ) ) ;
#177 =( NAMED_UNIT ( * ) PLANE_ANGLE_UNIT ( ) SI_UNIT ( $, .RADIAN. ) );
#178 = VECTOR ( 'NONE', #83, 39.37007874015748854 ) ;
#179 = ADVANCED_FACE ( 'NONE', ( #230 ), #30, .T. ) ;
#180 = ORIENTED_EDGE ( 'NONE', *, *, #249, .F. ) ;
#181 = DIRECTION ( 'NONE',  ( -0.0000000000000000000, -0.0000000000000000000, -1.000000000000000000 ) ) ;
#182 = ORIENTED_EDGE ( 'NONE', *, *, #217, .F. ) ;
#183 = EDGE_LOOP ( 'NONE', ( #58, #191 ) ) ;
#184 = DIRECTION ( 'NONE',  ( 1.000000000000000000, 0.0000000000000000000, 0.0000000000000000000 ) ) ;
#185 = ORIENTED_EDGE ( 'NONE', *, *, #193, .T. ) ;
#186 = EDGE_LOOP ( 'NONE', ( #91, #164, #206, #204 ) ) ;
#187 = VERTEX_POINT ( 'NONE', #216 ) ;
#188 = CIRCLE ( 'NONE', #212, 0.1250000000000000000 ) ;
#189 = CYLINDRICAL_SURFACE ( 'NONE', #39, 0.1250000000000000000 ) ;
#190 =( NAMED_UNIT ( * ) SI_UNIT ( $, .STERADIAN. ) SOLID_ANGLE_UNIT ( ) );
#191 = ORIENTED_EDGE ( 'NONE', *, *, #61, .T. ) ;
#192 = CIRCLE ( 'NONE', #31, 0.1250000000000000000 ) ;
#193 = EDGE_CURVE ( 'NONE', #237, #187, #192, .T. ) ;
#194 =( CONVERSION_BASED_UNIT ( 'INCH', #162 ) LENGTH_UNIT ( ) NAMED_UNIT ( #38 ) );
#195 = MECHANICAL_DESIGN_GEOMETRIC_PRESENTATION_REPRESENTATION (  '', ( #93 ), #153 ) ;
#196 = FILL_AREA_STYLE_COLOUR ( '', #22 ) ;
#197 = SURFACE_SIDE_STYLE ('',( #5 ) ) ;
#198 = CLOSED_SHELL ( 'NONE', ( #23, #231, #117, #19, #179, #80, #142, #122 ) ) ;
#199 = LINE ( 'NONE', #103, #178 ) ;
#200 = LINE ( 'NONE', #221, #107 ) ;
#201 = ORIENTED_EDGE ( 'NONE', *, *, #61, .F. ) ;
#202 = DIRECTION ( 'NONE',  ( 1.000000000000000000, 0.0000000000000000000, 0.0000000000000000000 ) ) ;
#203 = ORIENTED_EDGE ( 'NONE', *, *, #96, .F. ) ;
#204 = ORIENTED_EDGE ( 'NONE', *, *, #193, .F. ) ;
#205 =( LENGTH_UNIT ( ) NAMED_UNIT ( * ) SI_UNIT ( $, .METRE. ) );
#206 = ORIENTED_EDGE ( 'NONE', *, *, #249, .T. ) ;
#207 = PRESENTATION_STYLE_ASSIGNMENT (( #20 ) ) ;
#208 = EDGE_LOOP ( 'NONE', ( #137, #55 ) ) ;
#209 = EDGE_CURVE ( 'NONE', #59, #72, #199, .T. ) ;
#210 = PRODUCT ( 'Micro_RSC-250-14', 'Micro_RSC-250-14', '', ( #247 ) ) ;
#211 = AXIS2_PLACEMENT_3D ( 'NONE', #32, #138, #202 ) ;
#212 = AXIS2_PLACEMENT_3D ( 'NONE', #71, #9, #232 ) ;
#213 = EDGE_CURVE ( 'NONE', #13, #244, #56, .T. ) ;
#214 = FACE_OUTER_BOUND ( 'NONE', #109, .T. ) ;
#215 = DIRECTION ( 'NONE',  ( 0.0000000000000000000, 0.0000000000000000000, -1.000000000000000000 ) ) ;
#216 = CARTESIAN_POINT ( 'NONE',  ( -0.1250000000000000000, 0.0000000000000000000, 3.985000000000000320 ) ) ;
#217 = EDGE_CURVE ( 'NONE', #72, #244, #73, .T. ) ;
#218 = DIRECTION ( 'NONE',  ( -1.000000000000000000, 0.0000000000000000000, 0.0000000000000000000 ) ) ;
#219 = DIRECTION ( 'NONE',  ( -1.000000000000000000, 0.0000000000000000000, 0.0000000000000000000 ) ) ;
#220 = FACE_OUTER_BOUND ( 'NONE', #183, .T. ) ;
#221 = CARTESIAN_POINT ( 'NONE',  ( -0.1100000000000001948, 0.0000000000000000000, 4.000000000000000000 ) ) ;
#222 = ORIENTED_EDGE ( 'NONE', *, *, #213, .T. ) ;
#223 =( NAMED_UNIT ( * ) PLANE_ANGLE_UNIT ( ) SI_UNIT ( $, .RADIAN. ) );
#224 = ORIENTED_EDGE ( 'NONE', *, *, #213, .F. ) ;
#225 = CARTESIAN_POINT ( 'NONE',  ( 0.1100000000000001948, 1.438959988998141146E-17, 4.000000000000000000 ) ) ;
#226 = CIRCLE ( 'NONE', #150, 0.1250000000000000000 ) ;
#227 = EDGE_CURVE ( 'NONE', #13, #59, #44, .T. ) ;
#228 = VECTOR ( 'NONE', #156, 39.37007874015748854 ) ;
#229 = EDGE_CURVE ( 'NONE', #187, #72, #106, .T. ) ;
#230 = FACE_OUTER_BOUND ( 'NONE', #208, .T. ) ;
#231 = ADVANCED_FACE ( 'NONE', ( #160 ), #49, .T. ) ;
#232 = DIRECTION ( 'NONE',  ( 1.000000000000000000, 0.0000000000000000000, 0.0000000000000000000 ) ) ;
#233 = AXIS2_PLACEMENT_3D ( 'NONE', #85, #234, #218 ) ;
#234 = DIRECTION ( 'NONE',  ( 0.0000000000000000000, 0.0000000000000000000, -1.000000000000000000 ) ) ;
#235 = VERTEX_POINT ( 'NONE', #140 ) ;
#236 = DIRECTION ( 'NONE',  ( -0.0000000000000000000, -0.0000000000000000000, -1.000000000000000000 ) ) ;
#237 = VERTEX_POINT ( 'NONE', #66 ) ;
#238 = CARTESIAN_POINT ( 'NONE',  ( 0.0000000000000000000, 0.0000000000000000000, 4.000000000000000000 ) ) ;
#239 = ORIENTED_EDGE ( 'NONE', *, *, #246, .T. ) ;
#240 = CARTESIAN_POINT ( 'NONE',  ( 0.0000000000000000000, 0.0000000000000000000, 0.0000000000000000000 ) ) ;
#241 = DIRECTION ( 'NONE',  ( -0.7071067811865499042, 0.0000000000000000000, -0.7071067811865451302 ) ) ;
#242 =( GEOMETRIC_REPRESENTATION_CONTEXT ( 3 ) GLOBAL_UNCERTAINTY_ASSIGNED_CONTEXT ( ( #104 ) ) GLOBAL_UNIT_ASSIGNED_CONTEXT ( ( #29, #177, #36 ) ) REPRESENTATION_CONTEXT ( 'NONE', 'WORKASPACE' ) );
#243 = EDGE_LOOP ( 'NONE', ( #203, #185, #70, #95 ) ) ;
#244 = VERTEX_POINT ( 'NONE', #102 ) ;
#245 = ORIENTED_EDGE ( 'NONE', *, *, #96, .T. ) ;
#246 = EDGE_CURVE ( 'NONE', #187, #237, #188, .T. ) ;
#247 = PRODUCT_CONTEXT ( 'NONE', #42, 'mechanical' ) ;
#248 = CARTESIAN_POINT ( 'NONE',  ( 0.1250000000000000000, 1.530808498934191509E-17, 4.000000000000000000 ) ) ;
#249 = EDGE_CURVE ( 'NONE', #235, #187, #200, .T. ) ;
ENDSEC;
END-ISO-10303-21;
