ISO-10303-21;
HEADER;
FILE_DESCRIPTION (( 'STEP AP214' ),
    '1' );
FILE_NAME ('Micro_RTC-187-1.STEP',
    '2021-09-03T18:05:17',
    ( '' ),
    ( '' ),
    'SwSTEP 2.0',
    'SolidWorks 2020',
    '' );
FILE_SCHEMA (( 'AUTOMOTIVE_DESIGN' ));
ENDSEC;

DATA;
#1 =( LENGTH_UNIT ( ) NAMED_UNIT ( * ) SI_UNIT ( $, .METRE. ) );
#2 = APPLICATION_CONTEXT ( 'automotive_design' ) ;
#3 = ORIENTED_EDGE ( 'NONE', *, *, #28, .F. ) ;
#4 = FILL_AREA_STYLE ('',( #82 ) ) ;
#5 = ORIENTED_EDGE ( 'NONE', *, *, #203, .T. ) ;
#6 = ADVANCED_FACE ( 'NONE', ( #231 ), #246, .T. ) ;
#7 = SURFACE_STYLE_FILL_AREA ( #4 ) ;
#8 = DIRECTION ( 'NONE',  ( -1.000000000000000000, 0.0000000000000000000, 0.0000000000000000000 ) ) ;
#9 = LINE ( 'NONE', #134, #137 ) ;
#10 = DIRECTION ( 'NONE',  ( 0.0000000000000000000, 0.0000000000000000000, -1.000000000000000000 ) ) ;
#11 = DIRECTION ( 'NONE',  ( 1.000000000000000000, 0.0000000000000000000, -0.0000000000000000000 ) ) ;
#12 = LINE ( 'NONE', #135, #99 ) ;
#13 = CARTESIAN_POINT ( 'NONE',  ( 0.07874999999999980627, 1.056257864264590573E-17, 2.000000000000000000 ) ) ;
#14 = STYLED_ITEM ( 'NONE', ( #143 ), #151 ) ;
#15 = DIRECTION ( 'NONE',  ( 1.000000000000000000, 0.0000000000000000000, 0.0000000000000000000 ) ) ;
#16 = CIRCLE ( 'NONE', #150, 0.003999999999999999216 ) ;
#17 = VERTEX_POINT ( 'NONE', #239 ) ;
#18 = EDGE_CURVE ( 'NONE', #105, #102, #86, .T. ) ;
#19 = PRESENTATION_STYLE_ASSIGNMENT (( #185 ) ) ;
#20 = ORIENTED_EDGE ( 'NONE', *, *, #68, .F. ) ;
#21 = AXIS2_PLACEMENT_3D ( 'NONE', #70, #124, #186 ) ;
#22 = CARTESIAN_POINT ( 'NONE',  ( 0.0000000000000000000, 0.0000000000000000000, 0.0000000000000000000 ) ) ;
#23 = VERTEX_POINT ( 'NONE', #27 ) ;
#24 = ORIENTED_EDGE ( 'NONE', *, *, #35, .F. ) ;
#25 = CARTESIAN_POINT ( 'NONE',  ( 0.0000000000000000000, 0.0000000000000000000, 2.000000000000000000 ) ) ;
#26 = CARTESIAN_POINT ( 'NONE',  ( 0.0000000000000000000, 0.0000000000000000000, 0.3349515599793054799 ) ) ;
#27 = CARTESIAN_POINT ( 'NONE',  ( -0.07874999999999980627, 0.0000000000000000000, 2.000000000000000000 ) ) ;
#28 = EDGE_CURVE ( 'NONE', #40, #102, #12, .T. ) ;
#29 = CARTESIAN_POINT ( 'NONE',  ( 0.0000000000000000000, 0.0000000000000000000, 1.984999999999999654 ) ) ;
#30 = ADVANCED_BREP_SHAPE_REPRESENTATION ( 'Micro_RTC-187-1', ( #151, #178 ), #66 ) ;
#31 = ADVANCED_FACE ( 'NONE', ( #44 ), #180, .T. ) ;
#32 = VECTOR ( 'NONE', #204, 39.37007874015748143 ) ;
#33 = PRODUCT_CONTEXT ( 'NONE', #45, 'mechanical' ) ;
#34 = EDGE_LOOP ( 'NONE', ( #192, #107, #75, #190 ) ) ;
#35 = EDGE_CURVE ( 'NONE', #71, #105, #9, .T. ) ;
#36 = SURFACE_STYLE_USAGE ( .BOTH. , #248 ) ;
#37 = AXIS2_PLACEMENT_3D ( 'NONE', #194, #153, #237 ) ;
#38 = DIRECTION ( 'NONE',  ( -1.000000000000000000, 0.0000000000000000000, 0.0000000000000000000 ) ) ;
#39 = AXIS2_PLACEMENT_3D ( 'NONE', #25, #91, #8 ) ;
#40 = VERTEX_POINT ( 'NONE', #64 ) ;
#41 = CARTESIAN_POINT ( 'NONE',  ( -0.003999999999999999216, 5.985461230832687873E-18, 0.0000000000000000000 ) ) ;
#42 = EDGE_LOOP ( 'NONE', ( #5, #188 ) ) ;
#43 = FACE_OUTER_BOUND ( 'NONE', #42, .T. ) ;
#44 = FACE_OUTER_BOUND ( 'NONE', #139, .T. ) ;
#45 = APPLICATION_CONTEXT ( 'automotive_design' ) ;
#46 = DIRECTION ( 'NONE',  ( 0.7071067811865463515, 8.659560562354916834E-17, -0.7071067811865486830 ) ) ;
#47 = CARTESIAN_POINT ( 'NONE',  ( 0.07874999999999980627, 9.644093543285380530E-18, 2.000000000000000000 ) ) ;
#48 = CIRCLE ( 'NONE', #50, 0.09375000000000001388 ) ;
#49 = CIRCLE ( 'NONE', #201, 0.09375000000000001388 ) ;
#50 = AXIS2_PLACEMENT_3D ( 'NONE', #29, #219, #238 ) ;
#51 =( NAMED_UNIT ( * ) PLANE_ANGLE_UNIT ( ) SI_UNIT ( $, .RADIAN. ) );
#52 = ORIENTED_EDGE ( 'NONE', *, *, #141, .F. ) ;
#53 = DIRECTION ( 'NONE',  ( -0.2588190451025216832, 3.169619151431776035E-17, 0.9659258262890679791 ) ) ;
#54 = EDGE_LOOP ( 'NONE', ( #89, #166, #145, #24 ) ) ;
#55 = ADVANCED_FACE ( 'NONE', ( #115 ), #76, .T. ) ;
#56 = CARTESIAN_POINT ( 'NONE',  ( 0.0000000000000000000, 0.0000000000000000000, 0.3349515599793054799 ) ) ;
#57 = PRESENTATION_LAYER_ASSIGNMENT (  '', '', ( #14 ) ) ;
#58 = LINE ( 'NONE', #164, #32 ) ;
#59 = CARTESIAN_POINT ( 'NONE',  ( -0.07874999999999980627, 0.0000000000000000000, 2.000000000000000000 ) ) ;
#60 = CARTESIAN_POINT ( 'NONE',  ( 0.0000000000000000000, 0.0000000000000000000, 1.984999999999999654 ) ) ;
#61 = EDGE_CURVE ( 'NONE', #147, #23, #158, .T. ) ;
#62 = MECHANICAL_DESIGN_GEOMETRIC_PRESENTATION_REPRESENTATION (  '', ( #138 ), #226 ) ;
#63 = DIRECTION ( 'NONE',  ( -0.0000000000000000000, -0.0000000000000000000, -1.000000000000000000 ) ) ;
#64 = CARTESIAN_POINT ( 'NONE',  ( 0.09375000000000001388, 1.148106374200643863E-17, 1.984999999999999654 ) ) ;
#65 = AXIS2_PLACEMENT_3D ( 'NONE', #26, #77, #98 ) ;
#66 =( GEOMETRIC_REPRESENTATION_CONTEXT ( 3 ) GLOBAL_UNCERTAINTY_ASSIGNED_CONTEXT ( ( #88 ) ) GLOBAL_UNIT_ASSIGNED_CONTEXT ( ( #193, #51, #220 ) ) REPRESENTATION_CONTEXT ( 'NONE', 'WORKASPACE' ) );
#67 =( NAMED_UNIT ( * ) SI_UNIT ( $, .STERADIAN. ) SOLID_ANGLE_UNIT ( ) );
#68 = EDGE_CURVE ( 'NONE', #23, #71, #132, .T. ) ;
#69 = EDGE_LOOP ( 'NONE', ( #249, #85, #92, #20 ) ) ;
#70 = CARTESIAN_POINT ( 'NONE',  ( 0.0000000000000000000, 0.0000000000000000000, 2.000000000000000000 ) ) ;
#71 = VERTEX_POINT ( 'NONE', #97 ) ;
#72 = FACE_OUTER_BOUND ( 'NONE', #69, .T. ) ;
#73 = ORIENTED_EDGE ( 'NONE', *, *, #203, .F. ) ;
#74 = LENGTH_MEASURE_WITH_UNIT ( LENGTH_MEASURE( 0.02539999999999999897 ), #1 );
#75 = ORIENTED_EDGE ( 'NONE', *, *, #183, .T. ) ;
#76 = CONICAL_SURFACE ( 'NONE', #210, 0.003999999999999999216, 0.2617993877991502960 ) ;
#77 = DIRECTION ( 'NONE',  ( -0.0000000000000000000, -0.0000000000000000000, -1.000000000000000000 ) ) ;
#78 = CARTESIAN_POINT ( 'NONE',  ( 0.09375000000000001388, 1.148106374200643863E-17, 0.3349515599793054799 ) ) ;
#79 = DIRECTION ( 'NONE',  ( -0.7071067811865463515, 0.0000000000000000000, -0.7071067811865486830 ) ) ;
#80 = FACE_OUTER_BOUND ( 'NONE', #163, .T. ) ;
#81 = AXIS2_PLACEMENT_3D ( 'NONE', #177, #94, #116 ) ;
#82 = FILL_AREA_STYLE_COLOUR ( '', #234 ) ;
#83 = ORIENTED_EDGE ( 'NONE', *, *, #159, .T. ) ;
#84 = SURFACE_STYLE_FILL_AREA ( #212 ) ;
#85 = ORIENTED_EDGE ( 'NONE', *, *, #119, .T. ) ;
#86 = CIRCLE ( 'NONE', #65, 0.09375000000000001388 ) ;
#87 = DIRECTION ( 'NONE',  ( 0.0000000000000000000, 0.0000000000000000000, 1.000000000000000000 ) ) ;
#88 = UNCERTAINTY_MEASURE_WITH_UNIT (LENGTH_MEASURE( 1.000000000000000082E-05 ), #193, 'distance_accuracy_value', 'NONE');
#89 = ORIENTED_EDGE ( 'NONE', *, *, #156, .T. ) ;
#90 = DIRECTION ( 'NONE',  ( -1.000000000000000000, 0.0000000000000000000, 0.0000000000000000000 ) ) ;
#91 = DIRECTION ( 'NONE',  ( -0.0000000000000000000, -0.0000000000000000000, -1.000000000000000000 ) ) ;
#92 = ORIENTED_EDGE ( 'NONE', *, *, #156, .F. ) ;
#93 = DIRECTION ( 'NONE',  ( -1.000000000000000000, 0.0000000000000000000, 0.0000000000000000000 ) ) ;
#94 = DIRECTION ( 'NONE',  ( -0.0000000000000000000, -0.0000000000000000000, -1.000000000000000000 ) ) ;
#95 = SURFACE_SIDE_STYLE ('',( #7 ) ) ;
#96 = ADVANCED_FACE ( 'NONE', ( #43 ), #155, .T. ) ;
#97 = CARTESIAN_POINT ( 'NONE',  ( -0.09375000000000001388, 0.0000000000000000000, 1.984999999999999654 ) ) ;
#98 = DIRECTION ( 'NONE',  ( -1.000000000000000000, 0.0000000000000000000, 0.0000000000000000000 ) ) ;
#99 = VECTOR ( 'NONE', #215, 39.37007874015748143 ) ;
#100 = DIMENSIONAL_EXPONENTS ( 1.000000000000000000, 0.0000000000000000000, 0.0000000000000000000, 0.0000000000000000000, 0.0000000000000000000, 0.0000000000000000000, 0.0000000000000000000 ) ;
#101 = AXIS2_PLACEMENT_3D ( 'NONE', #198, #112, #93 ) ;
#102 = VERTEX_POINT ( 'NONE', #78 ) ;
#103 = DIMENSIONAL_EXPONENTS ( 1.000000000000000000, 0.0000000000000000000, 0.0000000000000000000, 0.0000000000000000000, 0.0000000000000000000, 0.0000000000000000000, 0.0000000000000000000 ) ;
#104 = CARTESIAN_POINT ( 'NONE',  ( 0.0000000000000000000, 0.0000000000000000000, 0.0000000000000000000 ) ) ;
#105 = VERTEX_POINT ( 'NONE', #154 ) ;
#106 = PRODUCT_DEFINITION ( 'UNKNOWN', '', #172, #136 ) ;
#107 = ORIENTED_EDGE ( 'NONE', *, *, #181, .F. ) ;
#108 = FACE_OUTER_BOUND ( 'NONE', #211, .T. ) ;
#109 = ORIENTED_EDGE ( 'NONE', *, *, #18, .T. ) ;
#110 = EDGE_CURVE ( 'NONE', #40, #71, #48, .T. ) ;
#111 = LENGTH_MEASURE_WITH_UNIT ( LENGTH_MEASURE( 0.02539999999999999897 ), #236 );
#112 = DIRECTION ( 'NONE',  ( 0.0000000000000000000, 0.0000000000000000000, -1.000000000000000000 ) ) ;
#113 = CONICAL_SURFACE ( 'NONE', #161, 0.003999999999999999216, 0.2617993877991502960 ) ;
#114 = APPLICATION_PROTOCOL_DEFINITION ( 'draft international standard', 'automotive_design', 1998, #45 ) ;
#115 = FACE_OUTER_BOUND ( 'NONE', #34, .T. ) ;
#116 = DIRECTION ( 'NONE',  ( -1.000000000000000000, 0.0000000000000000000, 0.0000000000000000000 ) ) ;
#117 = DIRECTION ( 'NONE',  ( 1.000000000000000000, 0.0000000000000000000, 0.0000000000000000000 ) ) ;
#118 = AXIS2_PLACEMENT_3D ( 'NONE', #60, #10, #123 ) ;
#119 = EDGE_CURVE ( 'NONE', #147, #40, #196, .T. ) ;
#120 = CLOSED_SHELL ( 'NONE', ( #148, #229, #6, #244, #96, #31, #55, #223 ) ) ;
#121 = CARTESIAN_POINT ( 'NONE',  ( 0.0000000000000000000, 0.0000000000000000000, 0.0000000000000000000 ) ) ;
#122 = DIMENSIONAL_EXPONENTS ( 1.000000000000000000, 0.0000000000000000000, 0.0000000000000000000, 0.0000000000000000000, 0.0000000000000000000, 0.0000000000000000000, 0.0000000000000000000 ) ;
#123 = DIRECTION ( 'NONE',  ( 1.000000000000000000, 0.0000000000000000000, 0.0000000000000000000 ) ) ;
#124 = DIRECTION ( 'NONE',  ( 0.0000000000000000000, 0.0000000000000000000, 1.000000000000000000 ) ) ;
#125 = UNCERTAINTY_MEASURE_WITH_UNIT (LENGTH_MEASURE( 1.000000000000000082E-05 ), #227, 'distance_accuracy_value', 'NONE');
#126 = ORIENTED_EDGE ( 'NONE', *, *, #110, .T. ) ;
#127 = DIRECTION ( 'NONE',  ( -0.0000000000000000000, -0.0000000000000000000, -1.000000000000000000 ) ) ;
#128 = ORIENTED_EDGE ( 'NONE', *, *, #141, .T. ) ;
#129 = VECTOR ( 'NONE', #46, 39.37007874015748143 ) ;
#130 = CARTESIAN_POINT ( 'NONE',  ( 0.0000000000000000000, 0.0000000000000000000, 2.000000000000000000 ) ) ;
#131 = DIRECTION ( 'NONE',  ( -1.000000000000000000, 0.0000000000000000000, 0.0000000000000000000 ) ) ;
#132 = LINE ( 'NONE', #59, #243 ) ;
#133 = VECTOR ( 'NONE', #53, 39.37007874015748143 ) ;
#134 = CARTESIAN_POINT ( 'NONE',  ( -0.09375000000000001388, 0.0000000000000000000, 2.000000000000000000 ) ) ;
#135 = CARTESIAN_POINT ( 'NONE',  ( 0.09375000000000001388, 1.148106374200643863E-17, 2.000000000000000000 ) ) ;
#136 = PRODUCT_DEFINITION_CONTEXT ( 'detailed design', #2, 'design' ) ;
#137 = VECTOR ( 'NONE', #63, 39.37007874015748143 ) ;
#138 = STYLED_ITEM ( 'NONE', ( #19 ), #30 ) ;
#139 = EDGE_LOOP ( 'NONE', ( #228, #73, #207, #205 ) ) ;
#140 = CARTESIAN_POINT ( 'NONE',  ( -0.003999999999999999216, 4.898587196589411612E-19, 0.0000000000000000000 ) ) ;
#141 = EDGE_CURVE ( 'NONE', #235, #17, #195, .T. ) ;
#142 = AXIS2_PLACEMENT_3D ( 'NONE', #225, #176, #131 ) ;
#143 = PRESENTATION_STYLE_ASSIGNMENT (( #36 ) ) ;
#144 =( CONVERSION_BASED_UNIT ( 'INCH', #224 ) LENGTH_UNIT ( ) NAMED_UNIT ( #122 ) );
#145 = ORIENTED_EDGE ( 'NONE', *, *, #18, .F. ) ;
#146 =( NAMED_UNIT ( * ) PLANE_ANGLE_UNIT ( ) SI_UNIT ( $, .RADIAN. ) );
#147 = VERTEX_POINT ( 'NONE', #13 ) ;
#148 = ADVANCED_FACE ( 'NONE', ( #80 ), #113, .T. ) ;
#149 = ORIENTED_EDGE ( 'NONE', *, *, #35, .T. ) ;
#150 = AXIS2_PLACEMENT_3D ( 'NONE', #104, #232, #90 ) ;
#151 = MANIFOLD_SOLID_BREP ( 'Cut-Revolve1', #120 ) ;
#152 = SHAPE_DEFINITION_REPRESENTATION ( #200, #30 ) ;
#153 = DIRECTION ( 'NONE',  ( 0.0000000000000000000, 0.0000000000000000000, 1.000000000000000000 ) ) ;
#154 = CARTESIAN_POINT ( 'NONE',  ( -0.09375000000000001388, 0.0000000000000000000, 0.3349515599793054799 ) ) ;
#155 = PLANE ( 'NONE',  #187 ) ;
#156 = EDGE_CURVE ( 'NONE', #71, #40, #233, .T. ) ;
#157 = CARTESIAN_POINT ( 'NONE',  ( 0.0000000000000000000, 0.0000000000000000000, 0.0000000000000000000 ) ) ;
#158 = CIRCLE ( 'NONE', #37, 0.07874999999999980627 ) ;
#159 = EDGE_CURVE ( 'NONE', #235, #105, #206, .T. ) ;
#160 =( NAMED_UNIT ( * ) PLANE_ANGLE_UNIT ( ) SI_UNIT ( $, .RADIAN. ) );
#161 = AXIS2_PLACEMENT_3D ( 'NONE', #157, #242, #117 ) ;
#162 =( LENGTH_UNIT ( ) NAMED_UNIT ( * ) SI_UNIT ( $, .METRE. ) );
#163 = EDGE_LOOP ( 'NONE', ( #52, #83, #109, #168 ) ) ;
#164 = CARTESIAN_POINT ( 'NONE',  ( 0.003999999999999999216, 0.0000000000000000000, 0.0000000000000000000 ) ) ;
#165 = CIRCLE ( 'NONE', #21, 0.07874999999999980627 ) ;
#166 = ORIENTED_EDGE ( 'NONE', *, *, #28, .T. ) ;
#167 = DIRECTION ( 'NONE',  ( 0.0000000000000000000, 0.0000000000000000000, -1.000000000000000000 ) ) ;
#168 = ORIENTED_EDGE ( 'NONE', *, *, #183, .F. ) ;
#169 = EDGE_LOOP ( 'NONE', ( #184, #128 ) ) ;
#170 = DIRECTION ( 'NONE',  ( 1.000000000000000000, 0.0000000000000000000, -0.0000000000000000000 ) ) ;
#171 = DIRECTION ( 'NONE',  ( 1.000000000000000000, 0.0000000000000000000, 0.0000000000000000000 ) ) ;
#172 = PRODUCT_DEFINITION_FORMATION_WITH_SPECIFIED_SOURCE ( 'ANY', '', #173, .NOT_KNOWN. ) ;
#173 = PRODUCT ( 'Micro_RTC-187-1', 'Micro_RTC-187-1', '', ( #33 ) ) ;
#174 = CARTESIAN_POINT ( 'NONE',  ( 0.0000000000000000000, 0.0000000000000000000, 2.000000000000000000 ) ) ;
#175 = APPLICATION_PROTOCOL_DEFINITION ( 'draft international standard', 'automotive_design', 1998, #2 ) ;
#176 = DIRECTION ( 'NONE',  ( -0.0000000000000000000, -0.0000000000000000000, -1.000000000000000000 ) ) ;
#177 = CARTESIAN_POINT ( 'NONE',  ( 0.0000000000000000000, 0.0000000000000000000, 0.0000000000000000000 ) ) ;
#178 = AXIS2_PLACEMENT_3D ( 'NONE', #121, #202, #15 ) ;
#179 = CARTESIAN_POINT ( 'NONE',  ( 0.0000000000000000000, 0.0000000000000000000, 0.0000000000000000000 ) ) ;
#180 = CONICAL_SURFACE ( 'NONE', #101, 0.07874999999999980627, 0.7853981633974466137 ) ;
#181 = EDGE_CURVE ( 'NONE', #17, #235, #16, .T. ) ;
#182 = MECHANICAL_DESIGN_GEOMETRIC_PRESENTATION_REPRESENTATION (  '', ( #14 ), #247 ) ;
#183 = EDGE_CURVE ( 'NONE', #17, #102, #58, .T. ) ;
#184 = ORIENTED_EDGE ( 'NONE', *, *, #181, .T. ) ;
#185 = SURFACE_STYLE_USAGE ( .BOTH. , #95 ) ;
#186 = DIRECTION ( 'NONE',  ( 1.000000000000000000, 0.0000000000000000000, 0.0000000000000000000 ) ) ;
#187 = AXIS2_PLACEMENT_3D ( 'NONE', #174, #218, #11 ) ;
#188 = ORIENTED_EDGE ( 'NONE', *, *, #61, .T. ) ;
#189 =( NAMED_UNIT ( * ) SI_UNIT ( $, .STERADIAN. ) SOLID_ANGLE_UNIT ( ) );
#190 = ORIENTED_EDGE ( 'NONE', *, *, #241, .T. ) ;
#191 = CYLINDRICAL_SURFACE ( 'NONE', #39, 0.09375000000000001388 ) ;
#192 = ORIENTED_EDGE ( 'NONE', *, *, #159, .F. ) ;
#193 =( CONVERSION_BASED_UNIT ( 'INCH', #111 ) LENGTH_UNIT ( ) NAMED_UNIT ( #100 ) );
#194 = CARTESIAN_POINT ( 'NONE',  ( 0.0000000000000000000, 0.0000000000000000000, 2.000000000000000000 ) ) ;
#195 = CIRCLE ( 'NONE', #81, 0.003999999999999999216 ) ;
#196 = LINE ( 'NONE', #47, #129 ) ;
#197 = PRODUCT_RELATED_PRODUCT_CATEGORY ( 'part', '', ( #173 ) ) ;
#198 = CARTESIAN_POINT ( 'NONE',  ( 0.0000000000000000000, 0.0000000000000000000, 2.000000000000000000 ) ) ;
#199 = DIRECTION ( 'NONE',  ( 0.0000000000000000000, 0.0000000000000000000, 1.000000000000000000 ) ) ;
#200 = PRODUCT_DEFINITION_SHAPE ( 'NONE', 'NONE',  #106 ) ;
#201 = AXIS2_PLACEMENT_3D ( 'NONE', #56, #127, #38 ) ;
#202 = DIRECTION ( 'NONE',  ( 0.0000000000000000000, 0.0000000000000000000, 1.000000000000000000 ) ) ;
#203 = EDGE_CURVE ( 'NONE', #23, #147, #165, .T. ) ;
#204 = DIRECTION ( 'NONE',  ( 0.2588190451025216832, 0.0000000000000000000, 0.9659258262890679791 ) ) ;
#205 = ORIENTED_EDGE ( 'NONE', *, *, #110, .F. ) ;
#206 = LINE ( 'NONE', #140, #133 ) ;
#207 = ORIENTED_EDGE ( 'NONE', *, *, #68, .T. ) ;
#208 = FACE_OUTER_BOUND ( 'NONE', #169, .T. ) ;
#209 = UNCERTAINTY_MEASURE_WITH_UNIT (LENGTH_MEASURE( 1.000000000000000082E-05 ), #144, 'distance_accuracy_value', 'NONE');
#210 = AXIS2_PLACEMENT_3D ( 'NONE', #179, #199, #171 ) ;
#211 = EDGE_LOOP ( 'NONE', ( #3, #126, #149, #213 ) ) ;
#212 = FILL_AREA_STYLE ('',( #216 ) ) ;
#213 = ORIENTED_EDGE ( 'NONE', *, *, #241, .F. ) ;
#214 = PLANE ( 'NONE',  #240 ) ;
#215 = DIRECTION ( 'NONE',  ( -0.0000000000000000000, -0.0000000000000000000, -1.000000000000000000 ) ) ;
#216 = FILL_AREA_STYLE_COLOUR ( '', #217 ) ;
#217 = COLOUR_RGB ( '',0.7921568627450980005, 0.8196078431372548767, 0.9333333333333333481 ) ;
#218 = DIRECTION ( 'NONE',  ( 0.0000000000000000000, 0.0000000000000000000, 1.000000000000000000 ) ) ;
#219 = DIRECTION ( 'NONE',  ( 0.0000000000000000000, 0.0000000000000000000, -1.000000000000000000 ) ) ;
#220 =( NAMED_UNIT ( * ) SI_UNIT ( $, .STERADIAN. ) SOLID_ANGLE_UNIT ( ) );
#221 = AXIS2_PLACEMENT_3D ( 'NONE', #130, #167, #230 ) ;
#222 = CONICAL_SURFACE ( 'NONE', #221, 0.07874999999999980627, 0.7853981633974466137 ) ;
#223 = ADVANCED_FACE ( 'NONE', ( #208 ), #214, .F. ) ;
#224 = LENGTH_MEASURE_WITH_UNIT ( LENGTH_MEASURE( 0.02539999999999999897 ), #162 );
#225 = CARTESIAN_POINT ( 'NONE',  ( 0.0000000000000000000, 0.0000000000000000000, 2.000000000000000000 ) ) ;
#226 =( GEOMETRIC_REPRESENTATION_CONTEXT ( 3 ) GLOBAL_UNCERTAINTY_ASSIGNED_CONTEXT ( ( #209 ) ) GLOBAL_UNIT_ASSIGNED_CONTEXT ( ( #144, #160, #67 ) ) REPRESENTATION_CONTEXT ( 'NONE', 'WORKASPACE' ) );
#227 =( CONVERSION_BASED_UNIT ( 'INCH', #74 ) LENGTH_UNIT ( ) NAMED_UNIT ( #103 ) );
#228 = ORIENTED_EDGE ( 'NONE', *, *, #119, .F. ) ;
#229 = ADVANCED_FACE ( 'NONE', ( #72 ), #222, .T. ) ;
#230 = DIRECTION ( 'NONE',  ( -1.000000000000000000, 0.0000000000000000000, 0.0000000000000000000 ) ) ;
#231 = FACE_OUTER_BOUND ( 'NONE', #54, .T. ) ;
#232 = DIRECTION ( 'NONE',  ( -0.0000000000000000000, -0.0000000000000000000, -1.000000000000000000 ) ) ;
#233 = CIRCLE ( 'NONE', #118, 0.09375000000000001388 ) ;
#234 = COLOUR_RGB ( '',0.7921568627450980005, 0.8196078431372548767, 0.9333333333333333481 ) ;
#235 = VERTEX_POINT ( 'NONE', #41 ) ;
#236 =( LENGTH_UNIT ( ) NAMED_UNIT ( * ) SI_UNIT ( $, .METRE. ) );
#237 = DIRECTION ( 'NONE',  ( 1.000000000000000000, 0.0000000000000000000, 0.0000000000000000000 ) ) ;
#238 = DIRECTION ( 'NONE',  ( 1.000000000000000000, 0.0000000000000000000, 0.0000000000000000000 ) ) ;
#239 = CARTESIAN_POINT ( 'NONE',  ( 0.003999999999999999216, 0.0000000000000000000, 0.0000000000000000000 ) ) ;
#240 = AXIS2_PLACEMENT_3D ( 'NONE', #22, #87, #170 ) ;
#241 = EDGE_CURVE ( 'NONE', #102, #105, #49, .T. ) ;
#242 = DIRECTION ( 'NONE',  ( 0.0000000000000000000, 0.0000000000000000000, 1.000000000000000000 ) ) ;
#243 = VECTOR ( 'NONE', #79, 39.37007874015748143 ) ;
#244 = ADVANCED_FACE ( 'NONE', ( #108 ), #191, .T. ) ;
#245 = PRESENTATION_LAYER_ASSIGNMENT (  '', '', ( #138 ) ) ;
#246 = CYLINDRICAL_SURFACE ( 'NONE', #142, 0.09375000000000001388 ) ;
#247 =( GEOMETRIC_REPRESENTATION_CONTEXT ( 3 ) GLOBAL_UNCERTAINTY_ASSIGNED_CONTEXT ( ( #125 ) ) GLOBAL_UNIT_ASSIGNED_CONTEXT ( ( #227, #146, #189 ) ) REPRESENTATION_CONTEXT ( 'NONE', 'WORKASPACE' ) );
#248 = SURFACE_SIDE_STYLE ('',( #84 ) ) ;
#249 = ORIENTED_EDGE ( 'NONE', *, *, #61, .F. ) ;
ENDSEC;
END-ISO-10303-21;
