ISO-10303-21;
HEADER;
FILE_DESCRIPTION (( 'STEP AP214' ),
    '1' );
FILE_NAME ('82398.STEP',
    '2023-06-23T05:46:55',
    ( '' ),
    ( '' ),
    'SwSTEP 2.0',
    'SolidWorks 2023',
    '' );
FILE_SCHEMA (( 'AUTOMOTIVE_DESIGN' ));
ENDSEC;

DATA;
#1 =( NAMED_UNIT ( * ) PLANE_ANGLE_UNIT ( ) SI_UNIT ( $, .RADIAN. ) );
#2 =( LENGTH_UNIT ( ) NAMED_UNIT ( * ) SI_UNIT ( $, .METRE. ) );
#3 = AXIS2_PLACEMENT_3D ( 'NONE', #228, #176, #10 ) ;
#4 = DIMENSIONAL_EXPONENTS ( 1.000000000000000000, 0.000000000000000000, 0.000000000000000000, 0.000000000000000000, 0.000000000000000000, 0.000000000000000000, 0.000000000000000000 ) ;
#5 = PRODUCT_RELATED_PRODUCT_CATEGORY ( 'part', '', ( #147 ) ) ;
#6 = CARTESIAN_POINT ( 'NONE',  ( 0.000000000000000000, 0.000000000000000000, 0.000000000000000000 ) ) ;
#7 = LENGTH_MEASURE_WITH_UNIT ( LENGTH_MEASURE( 0.02539999999999999897 ), #151 );
#8 = EDGE_CURVE ( 'NONE', #37, #35, #159, .T. ) ;
#9 = SURFACE_STYLE_USAGE ( .BOTH. , #222 ) ;
#10 = DIRECTION ( 'NONE',  ( -1.000000000000000000, 0.000000000000000000, 0.000000000000000000 ) ) ;
#11 = CARTESIAN_POINT ( 'NONE',  ( -2.449293598294707400E-16, 6.000000000000000888, 0.000000000000000000 ) ) ;
#12 = ORIENTED_EDGE ( 'NONE', *, *, #246, .F. ) ;
#13 =( NAMED_UNIT ( * ) SI_UNIT ( $, .STERADIAN. ) SOLID_ANGLE_UNIT ( ) );
#14 =( LENGTH_UNIT ( ) NAMED_UNIT ( * ) SI_UNIT ( $, .METRE. ) );
#15 = COLOUR_RGB ( '',0.7921568627450980005, 0.8196078431372548767, 0.9333333333333333481 ) ;
#16 = DIRECTION ( 'NONE',  ( 0.000000000000000000, 1.000000000000000000, 0.000000000000000000 ) ) ;
#17 = VERTEX_POINT ( 'NONE', #111 ) ;
#18 =( NAMED_UNIT ( * ) PLANE_ANGLE_UNIT ( ) SI_UNIT ( $, .RADIAN. ) );
#19 =( CONVERSION_BASED_UNIT ( 'INCH', #80 ) LENGTH_UNIT ( ) NAMED_UNIT ( #54 ) );
#20 = CIRCLE ( 'NONE', #112, 0.2500000000000002220 ) ;
#21 = PLANE ( 'NONE',  #53 ) ;
#22 = DIRECTION ( 'NONE',  ( 0.000000000000000000, 0.000000000000000000, -1.000000000000000000 ) ) ;
#23 = EDGE_LOOP ( 'NONE', ( #100, #116 ) ) ;
#24 = CARTESIAN_POINT ( 'NONE',  ( -0.2500000000000000000, 3.125000000000000000, 0.000000000000000000 ) ) ;
#25 = DIMENSIONAL_EXPONENTS ( 1.000000000000000000, 0.000000000000000000, 0.000000000000000000, 0.000000000000000000, 0.000000000000000000, 0.000000000000000000, 0.000000000000000000 ) ;
#26 = LINE ( 'NONE', #262, #239 ) ;
#27 = PRESENTATION_LAYER_ASSIGNMENT (  '', '', ( #106 ) ) ;
#28 =( GEOMETRIC_REPRESENTATION_CONTEXT ( 3 ) GLOBAL_UNCERTAINTY_ASSIGNED_CONTEXT ( ( #74 ) ) GLOBAL_UNIT_ASSIGNED_CONTEXT ( ( #309, #50, #118 ) ) REPRESENTATION_CONTEXT ( 'NONE', 'WORKASPACE' ) );
#29 = ADVANCED_FACE ( 'NONE', ( #59 ), #161, .T. ) ;
#30 = MECHANICAL_DESIGN_GEOMETRIC_PRESENTATION_REPRESENTATION (  '', ( #78 ), #28 ) ;
#31 = CARTESIAN_POINT ( 'NONE',  ( -0.2500000000000003886, 6.000000000000000888, 0.000000000000000000 ) ) ;
#32 = SURFACE_STYLE_FILL_AREA ( #243 ) ;
#33 = MANIFOLD_SOLID_BREP ( 'Revolve - Tool Body (Straight Shanked)', #205 ) ;
#34 = LENGTH_MEASURE_WITH_UNIT ( LENGTH_MEASURE( 0.02539999999999999897 ), #178 );
#35 = VERTEX_POINT ( 'NONE', #40 ) ;
#36 = PLANE ( 'NONE',  #88 ) ;
#37 = VERTEX_POINT ( 'NONE', #98 ) ;
#38 = AXIS2_PLACEMENT_3D ( 'NONE', #189, #76, #282 ) ;
#39 = EDGE_LOOP ( 'NONE', ( #164, #12 ) ) ;
#40 = CARTESIAN_POINT ( 'NONE',  ( -0.2500000000000004996, 6.000000000000000888, 0.000000000000000000 ) ) ;
#41 = ORIENTED_EDGE ( 'NONE', *, *, #177, .T. ) ;
#42 = SURFACE_STYLE_FILL_AREA ( #227 ) ;
#43 = SURFACE_STYLE_USAGE ( .BOTH. , #237 ) ;
#44 = ORIENTED_EDGE ( 'NONE', *, *, #277, .T. ) ;
#45 = SHAPE_DEFINITION_REPRESENTATION ( #73, #170 ) ;
#46 = AXIS2_PLACEMENT_3D ( 'NONE', #143, #127, #148 ) ;
#47 = VECTOR ( 'NONE', #117, 39.37007874015748143 ) ;
#48 = SURFACE_STYLE_FILL_AREA ( #308 ) ;
#49 = CARTESIAN_POINT ( 'NONE',  ( 0.000000000000000000, 0.000000000000000000, 0.000000000000000000 ) ) ;
#50 =( NAMED_UNIT ( * ) PLANE_ANGLE_UNIT ( ) SI_UNIT ( $, .RADIAN. ) );
#51 = AXIS2_PLACEMENT_3D ( 'NONE', #260, #95, #123 ) ;
#52 = MECHANICAL_DESIGN_GEOMETRIC_PRESENTATION_REPRESENTATION (  '', ( #108 ), #291 ) ;
#53 = AXIS2_PLACEMENT_3D ( 'NONE', #91, #16, #274 ) ;
#54 = DIMENSIONAL_EXPONENTS ( 1.000000000000000000, 0.000000000000000000, 0.000000000000000000, 0.000000000000000000, 0.000000000000000000, 0.000000000000000000, 0.000000000000000000 ) ;
#55 = FILL_AREA_STYLE ('',( #82 ) ) ;
#56 =( GEOMETRIC_REPRESENTATION_CONTEXT ( 3 ) GLOBAL_UNCERTAINTY_ASSIGNED_CONTEXT ( ( #115 ) ) GLOBAL_UNIT_ASSIGNED_CONTEXT ( ( #109, #160, #113 ) ) REPRESENTATION_CONTEXT ( 'NONE', 'WORKASPACE' ) );
#57 = CARTESIAN_POINT ( 'NONE',  ( 3.061616997868383018E-17, 3.125000000000000000, 0.2500000000000000000 ) ) ;
#58 = ORIENTED_EDGE ( 'NONE', *, *, #104, .T. ) ;
#59 = FACE_OUTER_BOUND ( 'NONE', #142, .T. ) ;
#60 = DIRECTION ( 'NONE',  ( -1.000000000000000000, 0.000000000000000000, 0.000000000000000000 ) ) ;
#61 = ORIENTED_EDGE ( 'NONE', *, *, #246, .T. ) ;
#62 = PRODUCT_DEFINITION ( 'UNKNOWN', '', #259, #155 ) ;
#63 = DIRECTION ( 'NONE',  ( -8.519282081025069112E-17, 1.000000000000000000, 0.000000000000000000 ) ) ;
#64 = FILL_AREA_STYLE ('',( #90 ) ) ;
#65 = ORIENTED_EDGE ( 'NONE', *, *, #201, .F. ) ;
#66 = CARTESIAN_POINT ( 'NONE',  ( 0.000000000000000000, 3.125000000000000000, 0.000000000000000000 ) ) ;
#67 =( GEOMETRIC_REPRESENTATION_CONTEXT ( 3 ) GLOBAL_UNCERTAINTY_ASSIGNED_CONTEXT ( ( #187 ) ) GLOBAL_UNIT_ASSIGNED_CONTEXT ( ( #133, #295, #167 ) ) REPRESENTATION_CONTEXT ( 'NONE', 'WORKASPACE' ) );
#68 = CARTESIAN_POINT ( 'NONE',  ( 0.000000000000000000, 3.125000000000000000, -0.2500000000000000000 ) ) ;
#69 = PRESENTATION_LAYER_ASSIGNMENT (  '', '', ( #78 ) ) ;
#70 = VERTEX_POINT ( 'NONE', #57 ) ;
#71 = CARTESIAN_POINT ( 'NONE',  ( 0.000000000000000000, 3.125000000000000000, 0.000000000000000000 ) ) ;
#72 = CYLINDRICAL_SURFACE ( 'NONE', #46, 0.2500000000000000000 ) ;
#73 = PRODUCT_DEFINITION_SHAPE ( 'NONE', 'NONE',  #62 ) ;
#74 = UNCERTAINTY_MEASURE_WITH_UNIT (LENGTH_MEASURE( 1.000000000000000082E-05 ), #309, 'distance_accuracy_value', 'NONE');
#75 =( NAMED_UNIT ( * ) SI_UNIT ( $, .STERADIAN. ) SOLID_ANGLE_UNIT ( ) );
#76 = DIRECTION ( 'NONE',  ( -8.519282081025069112E-17, 1.000000000000000000, -0.000000000000000000 ) ) ;
#77 = STYLED_ITEM ( 'NONE', ( #179 ), #29 ) ;
#78 = STYLED_ITEM ( 'NONE', ( #216 ), #158 ) ;
#79 = ADVANCED_FACE ( 'NONE', ( #119 ), #283, .T. ) ;
#80 = LENGTH_MEASURE_WITH_UNIT ( LENGTH_MEASURE( 0.02539999999999999897 ), #141 );
#81 = COLOUR_RGB ( '',1.000000000000000000, 0.000000000000000000, 0.000000000000000000 ) ;
#82 = FILL_AREA_STYLE_COLOUR ( '', #220 ) ;
#83 = DIMENSIONAL_EXPONENTS ( 1.000000000000000000, 0.000000000000000000, 0.000000000000000000, 0.000000000000000000, 0.000000000000000000, 0.000000000000000000, 0.000000000000000000 ) ;
#84 =( GEOMETRIC_REPRESENTATION_CONTEXT ( 3 ) GLOBAL_UNCERTAINTY_ASSIGNED_CONTEXT ( ( #253 ) ) GLOBAL_UNIT_ASSIGNED_CONTEXT ( ( #19, #18, #75 ) ) REPRESENTATION_CONTEXT ( 'NONE', 'WORKASPACE' ) );
#85 = DIRECTION ( 'NONE',  ( 0.000000000000000000, -1.000000000000000000, -0.000000000000000000 ) ) ;
#86 = CARTESIAN_POINT ( 'NONE',  ( 0.000000000000000000, 3.125000000000000000, 0.000000000000000000 ) ) ;
#87 = SURFACE_SIDE_STYLE ('',( #245 ) ) ;
#88 = AXIS2_PLACEMENT_3D ( 'NONE', #275, #63, #163 ) ;
#89 = ADVANCED_FACE ( 'NONE', ( #233 ), #285, .F. ) ;
#90 = FILL_AREA_STYLE_COLOUR ( '', #153 ) ;
#91 = CARTESIAN_POINT ( 'NONE',  ( 0.000000000000000000, 3.125000000000000000, 0.000000000000000000 ) ) ;
#92 = DIRECTION ( 'NONE',  ( -0.000000000000000000, -1.000000000000000000, -0.000000000000000000 ) ) ;
#93 =( NAMED_UNIT ( * ) PLANE_ANGLE_UNIT ( ) SI_UNIT ( $, .RADIAN. ) );
#94 = DIRECTION ( 'NONE',  ( -1.000000000000000000, 0.000000000000000000, 0.000000000000000000 ) ) ;
#95 = DIRECTION ( 'NONE',  ( -0.000000000000000000, -1.000000000000000000, -0.000000000000000000 ) ) ;
#96 = VERTEX_POINT ( 'NONE', #68 ) ;
#97 = DIRECTION ( 'NONE',  ( -0.000000000000000000, -1.000000000000000000, -0.000000000000000000 ) ) ;
#98 = CARTESIAN_POINT ( 'NONE',  ( 0.2500000000000000000, 6.000000000000000888, 3.061616997868385483E-17 ) ) ;
#99 = APPLICATION_PROTOCOL_DEFINITION ( 'draft international standard', 'automotive_design', 1998, #219 ) ;
#100 = ORIENTED_EDGE ( 'NONE', *, *, #177, .F. ) ;
#101 = CYLINDRICAL_SURFACE ( 'NONE', #194, 0.2500000000000001110 ) ;
#102 = SURFACE_SIDE_STYLE ('',( #42 ) ) ;
#103 = AXIS2_PLACEMENT_3D ( 'NONE', #169, #250, #22 ) ;
#104 = EDGE_CURVE ( 'NONE', #188, #307, #107, .T. ) ;
#105 = AXIS2_PLACEMENT_3D ( 'NONE', #86, #92, #181 ) ;
#106 = STYLED_ITEM ( 'NONE', ( #203 ), #33 ) ;
#107 = CIRCLE ( 'NONE', #103, 0.2500000000000000000 ) ;
#108 = STYLED_ITEM ( 'NONE', ( #289 ), #266 ) ;
#109 =( CONVERSION_BASED_UNIT ( 'INCH', #206 ) LENGTH_UNIT ( ) NAMED_UNIT ( #149 ) );
#110 = SURFACE_STYLE_USAGE ( .BOTH. , #132 ) ;
#111 = CARTESIAN_POINT ( 'NONE',  ( 0.2500000000000000000, 3.125000000000000000, 3.061616997868385483E-17 ) ) ;
#112 = AXIS2_PLACEMENT_3D ( 'NONE', #11, #180, #60 ) ;
#113 =( NAMED_UNIT ( * ) SI_UNIT ( $, .STERADIAN. ) SOLID_ANGLE_UNIT ( ) );
#114 = LENGTH_MEASURE_WITH_UNIT ( LENGTH_MEASURE( 0.02539999999999999897 ), #299 );
#115 = UNCERTAINTY_MEASURE_WITH_UNIT (LENGTH_MEASURE( 1.000000000000000082E-05 ), #109, 'distance_accuracy_value', 'NONE');
#116 = ORIENTED_EDGE ( 'NONE', *, *, #154, .F. ) ;
#117 = DIRECTION ( 'NONE',  ( -8.519282081025069112E-17, 1.000000000000000000, -0.000000000000000000 ) ) ;
#118 =( NAMED_UNIT ( * ) SI_UNIT ( $, .STERADIAN. ) SOLID_ANGLE_UNIT ( ) );
#119 = FACE_OUTER_BOUND ( 'NONE', #280, .T. ) ;
#120 = PRESENTATION_LAYER_ASSIGNMENT (  '', '', ( #244 ) ) ;
#121 = ORIENTED_EDGE ( 'NONE', *, *, #221, .F. ) ;
#122 = FACE_OUTER_BOUND ( 'NONE', #23, .T. ) ;
#123 = DIRECTION ( 'NONE',  ( 0.000000000000000000, 0.000000000000000000, -1.000000000000000000 ) ) ;
#124 = ORIENTED_EDGE ( 'NONE', *, *, #287, .T. ) ;
#125 = SURFACE_SIDE_STYLE ('',( #48 ) ) ;
#126 = SURFACE_STYLE_FILL_AREA ( #208 ) ;
#127 = DIRECTION ( 'NONE',  ( -0.000000000000000000, -1.000000000000000000, -0.000000000000000000 ) ) ;
#128 = CLOSED_SHELL ( 'NONE', ( #175, #266, #158, #29 ) ) ;
#129 = DIRECTION ( 'NONE',  ( -8.519282081025069112E-17, 1.000000000000000000, -0.000000000000000000 ) ) ;
#130 = EDGE_CURVE ( 'NONE', #307, #188, #279, .T. ) ;
#131 = COLOUR_RGB ( '',0.7921568627450980005, 0.8196078431372548767, 0.9333333333333333481 ) ;
#132 = SURFACE_SIDE_STYLE ('',( #32 ) ) ;
#133 =( CONVERSION_BASED_UNIT ( 'INCH', #34 ) LENGTH_UNIT ( ) NAMED_UNIT ( #4 ) );
#134 =( CONVERSION_BASED_UNIT ( 'INCH', #114 ) LENGTH_UNIT ( ) NAMED_UNIT ( #25 ) );
#135 = PRESENTATION_STYLE_ASSIGNMENT (( #9 ) ) ;
#136 = ORIENTED_EDGE ( 'NONE', *, *, #284, .T. ) ;
#137 = PRESENTATION_LAYER_ASSIGNMENT (  '', '', ( #256 ) ) ;
#138 = VERTEX_POINT ( 'NONE', #24 ) ;
#139 = CARTESIAN_POINT ( 'NONE',  ( 0.2499999999999998890, 6.000000000000000888, 3.061616997868384251E-17 ) ) ;
#140 = LINE ( 'NONE', #139, #47 ) ;
#141 =( LENGTH_UNIT ( ) NAMED_UNIT ( * ) SI_UNIT ( $, .METRE. ) );
#142 = EDGE_LOOP ( 'NONE', ( #207, #58 ) ) ;
#143 = CARTESIAN_POINT ( 'NONE',  ( 0.000000000000000000, 0.000000000000000000, 0.000000000000000000 ) ) ;
#144 = PRESENTATION_STYLE_ASSIGNMENT (( #182 ) ) ;
#145 = DIRECTION ( 'NONE',  ( -0.000000000000000000, -1.000000000000000000, -0.000000000000000000 ) ) ;
#146 = CARTESIAN_POINT ( 'NONE',  ( 0.000000000000000000, 0.000000000000000000, -0.2500000000000000000 ) ) ;
#147 = PRODUCT ( '82398', '82398', '', ( #236 ) ) ;
#148 = DIRECTION ( 'NONE',  ( 0.000000000000000000, 0.000000000000000000, -1.000000000000000000 ) ) ;
#149 = DIMENSIONAL_EXPONENTS ( 1.000000000000000000, 0.000000000000000000, 0.000000000000000000, 0.000000000000000000, 0.000000000000000000, 0.000000000000000000, 0.000000000000000000 ) ;
#150 = DIMENSIONAL_EXPONENTS ( 1.000000000000000000, 0.000000000000000000, 0.000000000000000000, 0.000000000000000000, 0.000000000000000000, 0.000000000000000000, 0.000000000000000000 ) ;
#151 =( LENGTH_UNIT ( ) NAMED_UNIT ( * ) SI_UNIT ( $, .METRE. ) );
#152 = SURFACE_STYLE_FILL_AREA ( #55 ) ;
#153 = COLOUR_RGB ( '',1.000000000000000000, 0.000000000000000000, 0.000000000000000000 ) ;
#154 = EDGE_CURVE ( 'NONE', #70, #96, #302, .T. ) ;
#155 = PRODUCT_DEFINITION_CONTEXT ( 'detailed design', #219, 'design' ) ;
#156 = FILL_AREA_STYLE_COLOUR ( '', #15 ) ;
#157 = CARTESIAN_POINT ( 'NONE',  ( 0.000000000000000000, 0.000000000000000000, 0.000000000000000000 ) ) ;
#158 = ADVANCED_FACE ( 'NONE', ( #255 ), #72, .T. ) ;
#159 = CIRCLE ( 'NONE', #3, 0.2500000000000002220 ) ;
#160 =( NAMED_UNIT ( * ) PLANE_ANGLE_UNIT ( ) SI_UNIT ( $, .RADIAN. ) );
#161 = PLANE ( 'NONE',  #232 ) ;
#162 = ORIENTED_EDGE ( 'NONE', *, *, #154, .T. ) ;
#163 = DIRECTION ( 'NONE',  ( -1.000000000000000000, -8.519282081025069112E-17, 0.000000000000000000 ) ) ;
#164 = ORIENTED_EDGE ( 'NONE', *, *, #225, .F. ) ;
#165 = AXIS2_PLACEMENT_3D ( 'NONE', #71, #258, #94 ) ;
#166 = DIRECTION ( 'NONE',  ( -1.000000000000000000, 0.000000000000000000, 0.000000000000000000 ) ) ;
#167 =( NAMED_UNIT ( * ) SI_UNIT ( $, .STERADIAN. ) SOLID_ANGLE_UNIT ( ) );
#168 = ORIENTED_EDGE ( 'NONE', *, *, #287, .F. ) ;
#169 = CARTESIAN_POINT ( 'NONE',  ( 0.000000000000000000, 0.000000000000000000, 0.000000000000000000 ) ) ;
#170 = ADVANCED_BREP_SHAPE_REPRESENTATION ( '82398', ( #241, #33, #211 ), #173 ) ;
#171 = ORIENTED_EDGE ( 'NONE', *, *, #221, .T. ) ;
#172 = CARTESIAN_POINT ( 'NONE',  ( 0.2500000000000000000, 6.000000000000000888, 0.000000000000000000 ) ) ;
#173 =( GEOMETRIC_REPRESENTATION_CONTEXT ( 3 ) GLOBAL_UNCERTAINTY_ASSIGNED_CONTEXT ( ( #261 ) ) GLOBAL_UNIT_ASSIGNED_CONTEXT ( ( #286, #1, #254 ) ) REPRESENTATION_CONTEXT ( 'NONE', 'WORKASPACE' ) );
#174 = DIRECTION ( 'NONE',  ( 1.000000000000000000, 0.000000000000000000, 0.000000000000000000 ) ) ;
#175 = ADVANCED_FACE ( 'NONE', ( #265 ), #197, .T. ) ;
#176 = DIRECTION ( 'NONE',  ( -8.519282081025069112E-17, 1.000000000000000000, -0.000000000000000000 ) ) ;
#177 = EDGE_CURVE ( 'NONE', #96, #70, #288, .T. ) ;
#178 =( LENGTH_UNIT ( ) NAMED_UNIT ( * ) SI_UNIT ( $, .METRE. ) );
#179 = PRESENTATION_STYLE_ASSIGNMENT (( #223 ) ) ;
#180 = DIRECTION ( 'NONE',  ( -8.519282081025069112E-17, 1.000000000000000000, -0.000000000000000000 ) ) ;
#181 = DIRECTION ( 'NONE',  ( 0.000000000000000000, 0.000000000000000000, -1.000000000000000000 ) ) ;
#182 = SURFACE_STYLE_USAGE ( .BOTH. , #102 ) ;
#183 = LINE ( 'NONE', #230, #304 ) ;
#184 = EDGE_LOOP ( 'NONE', ( #300, #204 ) ) ;
#185 = PRESENTATION_LAYER_ASSIGNMENT (  '', '', ( #108 ) ) ;
#186 = DIRECTION ( 'NONE',  ( -8.519282081025069112E-17, 1.000000000000000000, -0.000000000000000000 ) ) ;
#187 = UNCERTAINTY_MEASURE_WITH_UNIT (LENGTH_MEASURE( 1.000000000000000082E-05 ), #133, 'distance_accuracy_value', 'NONE');
#188 = VERTEX_POINT ( 'NONE', #271 ) ;
#189 = CARTESIAN_POINT ( 'NONE',  ( -2.449293598294707400E-16, 6.000000000000000888, 0.000000000000000000 ) ) ;
#190 = ORIENTED_EDGE ( 'NONE', *, *, #8, .F. ) ;
#191 = CARTESIAN_POINT ( 'NONE',  ( -2.449293598294707400E-16, 6.000000000000000888, 0.000000000000000000 ) ) ;
#192 = MECHANICAL_DESIGN_GEOMETRIC_PRESENTATION_REPRESENTATION (  '', ( #106 ), #67 ) ;
#193 = LENGTH_MEASURE_WITH_UNIT ( LENGTH_MEASURE( 0.02539999999999999897 ), #2 );
#194 = AXIS2_PLACEMENT_3D ( 'NONE', #191, #129, #212 ) ;
#195 = DIRECTION ( 'NONE',  ( -0.000000000000000000, -1.000000000000000000, -0.000000000000000000 ) ) ;
#196 = DIMENSIONAL_EXPONENTS ( 1.000000000000000000, 0.000000000000000000, 0.000000000000000000, 0.000000000000000000, 0.000000000000000000, 0.000000000000000000, 0.000000000000000000 ) ;
#197 = CYLINDRICAL_SURFACE ( 'NONE', #303, 0.2500000000000000000 ) ;
#198 = MECHANICAL_DESIGN_GEOMETRIC_PRESENTATION_REPRESENTATION (  '', ( #77 ), #290 ) ;
#199 = CIRCLE ( 'NONE', #257, 0.2500000000000000000 ) ;
#200 = SURFACE_STYLE_USAGE ( .BOTH. , #125 ) ;
#201 = EDGE_CURVE ( 'NONE', #35, #37, #20, .T. ) ;
#202 = COLOUR_RGB ( '',1.000000000000000000, 0.000000000000000000, 0.000000000000000000 ) ;
#203 = PRESENTATION_STYLE_ASSIGNMENT (( #110 ) ) ;
#204 = ORIENTED_EDGE ( 'NONE', *, *, #8, .T. ) ;
#205 = CLOSED_SHELL ( 'NONE', ( #79, #210, #293, #89 ) ) ;
#206 = LENGTH_MEASURE_WITH_UNIT ( LENGTH_MEASURE( 0.02539999999999999897 ), #14 );
#207 = ORIENTED_EDGE ( 'NONE', *, *, #130, .T. ) ;
#208 = FILL_AREA_STYLE ('',( #278 ) ) ;
#209 = DIRECTION ( 'NONE',  ( 8.519282081025069112E-17, -1.000000000000000000, 0.000000000000000000 ) ) ;
#210 = ADVANCED_FACE ( 'NONE', ( #247 ), #36, .F. ) ;
#211 = AXIS2_PLACEMENT_3D ( 'NONE', #49, #306, #174 ) ;
#212 = DIRECTION ( 'NONE',  ( -1.000000000000000000, 0.000000000000000000, 0.000000000000000000 ) ) ;
#213 = ORIENTED_EDGE ( 'NONE', *, *, #225, .T. ) ;
#214 = FILL_AREA_STYLE_COLOUR ( '', #202 ) ;
#215 = APPLICATION_CONTEXT ( 'automotive_design' ) ;
#216 = PRESENTATION_STYLE_ASSIGNMENT (( #43 ) ) ;
#217 = FACE_OUTER_BOUND ( 'NONE', #272, .T. ) ;
#218 = MECHANICAL_DESIGN_GEOMETRIC_PRESENTATION_REPRESENTATION (  '', ( #244 ), #56 ) ;
#219 = APPLICATION_CONTEXT ( 'automotive_design' ) ;
#220 = COLOUR_RGB ( '',1.000000000000000000, 0.000000000000000000, 0.000000000000000000 ) ;
#221 = EDGE_CURVE ( 'NONE', #138, #35, #226, .T. ) ;
#222 = SURFACE_SIDE_STYLE ('',( #152 ) ) ;
#223 = SURFACE_STYLE_USAGE ( .BOTH. , #87 ) ;
#224 =( NAMED_UNIT ( * ) SI_UNIT ( $, .STERADIAN. ) SOLID_ANGLE_UNIT ( ) );
#225 = EDGE_CURVE ( 'NONE', #138, #17, #199, .T. ) ;
#226 = LINE ( 'NONE', #31, #268 ) ;
#227 = FILL_AREA_STYLE ('',( #252 ) ) ;
#228 = CARTESIAN_POINT ( 'NONE',  ( -2.449293598294707400E-16, 6.000000000000000888, 0.000000000000000000 ) ) ;
#229 = UNCERTAINTY_MEASURE_WITH_UNIT (LENGTH_MEASURE( 1.000000000000000082E-05 ), #292, 'distance_accuracy_value', 'NONE');
#230 = CARTESIAN_POINT ( 'NONE',  ( 3.061616997868383018E-17, 0.000000000000000000, 0.2500000000000000000 ) ) ;
#231 = CARTESIAN_POINT ( 'NONE',  ( 0.000000000000000000, 3.125000000000000000, 0.000000000000000000 ) ) ;
#232 = AXIS2_PLACEMENT_3D ( 'NONE', #6, #85, #269 ) ;
#233 = FACE_OUTER_BOUND ( 'NONE', #184, .T. ) ;
#234 = ORIENTED_EDGE ( 'NONE', *, *, #104, .F. ) ;
#235 = DIRECTION ( 'NONE',  ( 1.000000000000000000, 8.519282081025069112E-17, 0.000000000000000000 ) ) ;
#236 = PRODUCT_CONTEXT ( 'NONE', #215, 'mechanical' ) ;
#237 = SURFACE_SIDE_STYLE ('',( #126 ) ) ;
#238 = AXIS2_PLACEMENT_3D ( 'NONE', #172, #209, #235 ) ;
#239 = VECTOR ( 'NONE', #195, 39.37007874015748143 ) ;
#240 = LENGTH_MEASURE_WITH_UNIT ( LENGTH_MEASURE( 0.02539999999999999897 ), #264 );
#241 = MANIFOLD_SOLID_BREP ( 'Revolve - Cutting Edge', #128 ) ;
#242 = PRESENTATION_LAYER_ASSIGNMENT (  '', '', ( #77 ) ) ;
#243 = FILL_AREA_STYLE ('',( #156 ) ) ;
#244 = STYLED_ITEM ( 'NONE', ( #135 ), #175 ) ;
#245 = SURFACE_STYLE_FILL_AREA ( #64 ) ;
#246 = EDGE_CURVE ( 'NONE', #17, #138, #249, .T. ) ;
#247 = FACE_OUTER_BOUND ( 'NONE', #39, .T. ) ;
#248 = EDGE_LOOP ( 'NONE', ( #276, #162, #124, #234 ) ) ;
#249 = CIRCLE ( 'NONE', #165, 0.2500000000000000000 ) ;
#250 = DIRECTION ( 'NONE',  ( -0.000000000000000000, -1.000000000000000000, -0.000000000000000000 ) ) ;
#251 = EDGE_LOOP ( 'NONE', ( #41, #136, #297, #168 ) ) ;
#252 = FILL_AREA_STYLE_COLOUR ( '', #131 ) ;
#253 = UNCERTAINTY_MEASURE_WITH_UNIT (LENGTH_MEASURE( 1.000000000000000082E-05 ), #19, 'distance_accuracy_value', 'NONE');
#254 =( NAMED_UNIT ( * ) SI_UNIT ( $, .STERADIAN. ) SOLID_ANGLE_UNIT ( ) );
#255 = FACE_OUTER_BOUND ( 'NONE', #248, .T. ) ;
#256 = STYLED_ITEM ( 'NONE', ( #144 ), #241 ) ;
#257 = AXIS2_PLACEMENT_3D ( 'NONE', #66, #186, #166 ) ;
#258 = DIRECTION ( 'NONE',  ( -8.519282081025069112E-17, 1.000000000000000000, -0.000000000000000000 ) ) ;
#259 = PRODUCT_DEFINITION_FORMATION_WITH_SPECIFIED_SOURCE ( 'ANY', '', #147, .NOT_KNOWN. ) ;
#260 = CARTESIAN_POINT ( 'NONE',  ( 0.000000000000000000, 0.000000000000000000, 0.000000000000000000 ) ) ;
#261 = UNCERTAINTY_MEASURE_WITH_UNIT (LENGTH_MEASURE( 1.000000000000000082E-05 ), #286, 'distance_accuracy_value', 'NONE');
#262 = CARTESIAN_POINT ( 'NONE',  ( 0.000000000000000000, 0.000000000000000000, -0.2500000000000000000 ) ) ;
#263 = APPLICATION_PROTOCOL_DEFINITION ( 'draft international standard', 'automotive_design', 1998, #215 ) ;
#264 =( LENGTH_UNIT ( ) NAMED_UNIT ( * ) SI_UNIT ( $, .METRE. ) );
#265 = FACE_OUTER_BOUND ( 'NONE', #251, .T. ) ;
#266 = ADVANCED_FACE ( 'NONE', ( #122 ), #21, .T. ) ;
#267 =( NAMED_UNIT ( * ) PLANE_ANGLE_UNIT ( ) SI_UNIT ( $, .RADIAN. ) );
#268 = VECTOR ( 'NONE', #305, 39.37007874015748143 ) ;
#269 = DIRECTION ( 'NONE',  ( 0.000000000000000000, 0.000000000000000000, -1.000000000000000000 ) ) ;
#270 = AXIS2_PLACEMENT_3D ( 'NONE', #231, #145, #281 ) ;
#271 = CARTESIAN_POINT ( 'NONE',  ( 3.061616997868383018E-17, 0.000000000000000000, 0.2500000000000000000 ) ) ;
#272 = EDGE_LOOP ( 'NONE', ( #301, #61, #171, #190 ) ) ;
#273 = UNCERTAINTY_MEASURE_WITH_UNIT (LENGTH_MEASURE( 1.000000000000000082E-05 ), #134, 'distance_accuracy_value', 'NONE');
#274 = DIRECTION ( 'NONE',  ( 0.000000000000000000, -0.000000000000000000, 1.000000000000000000 ) ) ;
#275 = CARTESIAN_POINT ( 'NONE',  ( 9.072270897009353870E-34, 3.125000000000000000, 0.000000000000000000 ) ) ;
#276 = ORIENTED_EDGE ( 'NONE', *, *, #284, .F. ) ;
#277 = EDGE_CURVE ( 'NONE', #17, #37, #140, .T. ) ;
#278 = FILL_AREA_STYLE_COLOUR ( '', #81 ) ;
#279 = CIRCLE ( 'NONE', #51, 0.2500000000000000000 ) ;
#280 = EDGE_LOOP ( 'NONE', ( #213, #44, #65, #121 ) ) ;
#281 = DIRECTION ( 'NONE',  ( 0.000000000000000000, 0.000000000000000000, -1.000000000000000000 ) ) ;
#282 = DIRECTION ( 'NONE',  ( -1.000000000000000000, 0.000000000000000000, 0.000000000000000000 ) ) ;
#283 = CYLINDRICAL_SURFACE ( 'NONE', #38, 0.2500000000000001110 ) ;
#284 = EDGE_CURVE ( 'NONE', #70, #188, #183, .T. ) ;
#285 = PLANE ( 'NONE',  #238 ) ;
#286 =( CONVERSION_BASED_UNIT ( 'INCH', #240 ) LENGTH_UNIT ( ) NAMED_UNIT ( #150 ) );
#287 = EDGE_CURVE ( 'NONE', #96, #307, #26, .T. ) ;
#288 = CIRCLE ( 'NONE', #105, 0.2500000000000000000 ) ;
#289 = PRESENTATION_STYLE_ASSIGNMENT (( #200 ) ) ;
#290 =( GEOMETRIC_REPRESENTATION_CONTEXT ( 3 ) GLOBAL_UNCERTAINTY_ASSIGNED_CONTEXT ( ( #273 ) ) GLOBAL_UNIT_ASSIGNED_CONTEXT ( ( #134, #93, #224 ) ) REPRESENTATION_CONTEXT ( 'NONE', 'WORKASPACE' ) );
#291 =( GEOMETRIC_REPRESENTATION_CONTEXT ( 3 ) GLOBAL_UNCERTAINTY_ASSIGNED_CONTEXT ( ( #229 ) ) GLOBAL_UNIT_ASSIGNED_CONTEXT ( ( #292, #267, #13 ) ) REPRESENTATION_CONTEXT ( 'NONE', 'WORKASPACE' ) );
#292 =( CONVERSION_BASED_UNIT ( 'INCH', #7 ) LENGTH_UNIT ( ) NAMED_UNIT ( #83 ) );
#293 = ADVANCED_FACE ( 'NONE', ( #217 ), #101, .T. ) ;
#294 = DIRECTION ( 'NONE',  ( 0.000000000000000000, 0.000000000000000000, -1.000000000000000000 ) ) ;
#295 =( NAMED_UNIT ( * ) PLANE_ANGLE_UNIT ( ) SI_UNIT ( $, .RADIAN. ) );
#296 = DIRECTION ( 'NONE',  ( -0.000000000000000000, -1.000000000000000000, -0.000000000000000000 ) ) ;
#297 = ORIENTED_EDGE ( 'NONE', *, *, #130, .F. ) ;
#298 = MECHANICAL_DESIGN_GEOMETRIC_PRESENTATION_REPRESENTATION (  '', ( #256 ), #84 ) ;
#299 =( LENGTH_UNIT ( ) NAMED_UNIT ( * ) SI_UNIT ( $, .METRE. ) );
#300 = ORIENTED_EDGE ( 'NONE', *, *, #201, .T. ) ;
#301 = ORIENTED_EDGE ( 'NONE', *, *, #277, .F. ) ;
#302 = CIRCLE ( 'NONE', #270, 0.2500000000000000000 ) ;
#303 = AXIS2_PLACEMENT_3D ( 'NONE', #157, #296, #294 ) ;
#304 = VECTOR ( 'NONE', #97, 39.37007874015748143 ) ;
#305 = DIRECTION ( 'NONE',  ( -8.519282081025069112E-17, 1.000000000000000000, -0.000000000000000000 ) ) ;
#306 = DIRECTION ( 'NONE',  ( 0.000000000000000000, 0.000000000000000000, 1.000000000000000000 ) ) ;
#307 = VERTEX_POINT ( 'NONE', #146 ) ;
#308 = FILL_AREA_STYLE ('',( #214 ) ) ;
#309 =( CONVERSION_BASED_UNIT ( 'INCH', #193 ) LENGTH_UNIT ( ) NAMED_UNIT ( #196 ) );
ENDSEC;
END-ISO-10303-21;
