ISO-10303-21;
HEADER;
FILE_DESCRIPTION (( 'STEP AP214' ),
    '1' );
FILE_NAME ('59275.STEP',
    '2023-06-22T22:47:11',
    ( '' ),
    ( '' ),
    'SwSTEP 2.0',
    'SolidWorks 2023',
    '' );
FILE_SCHEMA (( 'AUTOMOTIVE_DESIGN' ));
ENDSEC;

DATA;
#1 = PRODUCT_DEFINITION_CONTEXT ( 'detailed design', #154, 'design' ) ;
#2 = AXIS2_PLACEMENT_3D ( 'NONE', #242, #20, #264 ) ;
#3 = DIRECTION ( 'NONE',  ( -1.000000000000000000, 0.000000000000000000, 0.000000000000000000 ) ) ;
#4 = CARTESIAN_POINT ( 'NONE',  ( 0.000000000000000000, 0.000000000000000000, 0.000000000000000000 ) ) ;
#5 = DIRECTION ( 'NONE',  ( -5.442874662877125708E-17, 1.000000000000000000, -0.000000000000000000 ) ) ;
#6 = DIRECTION ( 'NONE',  ( -1.000000000000000000, 0.000000000000000000, 0.000000000000000000 ) ) ;
#7 = DIRECTION ( 'NONE',  ( -5.442874662877125091E-17, 1.000000000000000000, -0.000000000000000000 ) ) ;
#8 = AXIS2_PLACEMENT_3D ( 'NONE', #195, #84, #134 ) ;
#9 = EDGE_CURVE ( 'NONE', #45, #73, #254, .T. ) ;
#10 = CYLINDRICAL_SURFACE ( 'NONE', #269, 0.3750000000000001110 ) ;
#11 = VERTEX_POINT ( 'NONE', #133 ) ;
#12 = CARTESIAN_POINT ( 'NONE',  ( 0.000000000000000000, 2.750000000000000000, 0.000000000000000000 ) ) ;
#13 = FILL_AREA_STYLE ('',( #59 ) ) ;
#14 =( NAMED_UNIT ( * ) PLANE_ANGLE_UNIT ( ) SI_UNIT ( $, .RADIAN. ) );
#15 = MANIFOLD_SOLID_BREP ( 'Revolve - Tool Body (Straight Shanked)', #190 ) ;
#16 = ORIENTED_EDGE ( 'NONE', *, *, #146, .F. ) ;
#17 =( LENGTH_UNIT ( ) NAMED_UNIT ( * ) SI_UNIT ( $, .METRE. ) );
#18 = AXIS2_PLACEMENT_3D ( 'NONE', #159, #54, #32 ) ;
#19 = FACE_OUTER_BOUND ( 'NONE', #38, .T. ) ;
#20 = DIRECTION ( 'NONE',  ( -5.442874662877125708E-17, 1.000000000000000000, -0.000000000000000000 ) ) ;
#21 = ADVANCED_FACE ( 'NONE', ( #280 ), #277, .F. ) ;
#22 = STYLED_ITEM ( 'NONE', ( #183 ), #237 ) ;
#23 = ADVANCED_FACE ( 'NONE', ( #184 ), #140, .T. ) ;
#24 = DIRECTION ( 'NONE',  ( -5.442874662877125708E-17, 1.000000000000000000, -0.000000000000000000 ) ) ;
#25 = VERTEX_POINT ( 'NONE', #80 ) ;
#26 = FACE_OUTER_BOUND ( 'NONE', #248, .T. ) ;
#27 = AXIS2_PLACEMENT_3D ( 'NONE', #148, #58, #239 ) ;
#28 =( NAMED_UNIT ( * ) SI_UNIT ( $, .STERADIAN. ) SOLID_ANGLE_UNIT ( ) );
#29 = ADVANCED_FACE ( 'NONE', ( #111 ), #282, .T. ) ;
#30 = VERTEX_POINT ( 'NONE', #60 ) ;
#31 = PRESENTATION_LAYER_ASSIGNMENT (  '', '', ( #180 ) ) ;
#32 = DIRECTION ( 'NONE',  ( -1.000000000000000000, -5.442874662877125091E-17, 0.000000000000000000 ) ) ;
#33 = DIRECTION ( 'NONE',  ( -5.442874662877125708E-17, 1.000000000000000000, -0.000000000000000000 ) ) ;
#34 = CARTESIAN_POINT ( 'NONE',  ( 0.000000000000000000, 0.000000000000000000, 0.000000000000000000 ) ) ;
#35 = ORIENTED_EDGE ( 'NONE', *, *, #185, .T. ) ;
#36 = LENGTH_MEASURE_WITH_UNIT ( LENGTH_MEASURE( 0.02539999999999999897 ), #17 );
#37 =( GEOMETRIC_REPRESENTATION_CONTEXT ( 3 ) GLOBAL_UNCERTAINTY_ASSIGNED_CONTEXT ( ( #71 ) ) GLOBAL_UNIT_ASSIGNED_CONTEXT ( ( #164, #193, #119 ) ) REPRESENTATION_CONTEXT ( 'NONE', 'WORKASPACE' ) );
#38 = EDGE_LOOP ( 'NONE', ( #68, #293, #233, #240 ) ) ;
#39 = FACE_OUTER_BOUND ( 'NONE', #287, .T. ) ;
#40 = VERTEX_POINT ( 'NONE', #173 ) ;
#41 = ADVANCED_FACE ( 'NONE', ( #39 ), #150, .T. ) ;
#42 = PRODUCT ( '59275', '59275', '', ( #300 ) ) ;
#43 = CARTESIAN_POINT ( 'NONE',  ( 0.000000000000000000, 2.750000000000000000, -0.3750000000000000555 ) ) ;
#44 = PRESENTATION_LAYER_ASSIGNMENT (  '', '', ( #125 ) ) ;
#45 = VERTEX_POINT ( 'NONE', #43 ) ;
#46 = PRODUCT_DEFINITION_SHAPE ( 'NONE', 'NONE',  #297 ) ;
#47 = PRESENTATION_LAYER_ASSIGNMENT (  '', '', ( #238 ) ) ;
#48 = SURFACE_STYLE_USAGE ( .BOTH. , #67 ) ;
#49 = LENGTH_MEASURE_WITH_UNIT ( LENGTH_MEASURE( 0.02539999999999999897 ), #157 );
#50 = UNCERTAINTY_MEASURE_WITH_UNIT (LENGTH_MEASURE( 1.000000000000000082E-05 ), #113, 'distance_accuracy_value', 'NONE');
#51 = VECTOR ( 'NONE', #7, 39.37007874015748143 ) ;
#52 =( NAMED_UNIT ( * ) PLANE_ANGLE_UNIT ( ) SI_UNIT ( $, .RADIAN. ) );
#53 = APPLICATION_PROTOCOL_DEFINITION ( 'draft international standard', 'automotive_design', 1998, #249 ) ;
#54 = DIRECTION ( 'NONE',  ( -5.442874662877125091E-17, 1.000000000000000000, 0.000000000000000000 ) ) ;
#55 = DIRECTION ( 'NONE',  ( 5.442874662877125091E-17, -1.000000000000000000, 0.000000000000000000 ) ) ;
#56 = SURFACE_SIDE_STYLE ('',( #82 ) ) ;
#57 = PRODUCT_DEFINITION_FORMATION_WITH_SPECIFIED_SOURCE ( 'ANY', '', #42, .NOT_KNOWN. ) ;
#58 = DIRECTION ( 'NONE',  ( -0.000000000000000000, -1.000000000000000000, -0.000000000000000000 ) ) ;
#59 = FILL_AREA_STYLE_COLOUR ( '', #72 ) ;
#60 = CARTESIAN_POINT ( 'NONE',  ( 4.592425496802575451E-17, 2.750000000000000000, 0.3750000000000000555 ) ) ;
#61 = ORIENTED_EDGE ( 'NONE', *, *, #217, .T. ) ;
#62 = CYLINDRICAL_SURFACE ( 'NONE', #63, 0.3750000000000000555 ) ;
#63 = AXIS2_PLACEMENT_3D ( 'NONE', #188, #252, #152 ) ;
#64 = APPLICATION_PROTOCOL_DEFINITION ( 'draft international standard', 'automotive_design', 1998, #154 ) ;
#65 = AXIS2_PLACEMENT_3D ( 'NONE', #4, #128, #228 ) ;
#66 = ORIENTED_EDGE ( 'NONE', *, *, #163, .T. ) ;
#67 = SURFACE_SIDE_STYLE ('',( #92 ) ) ;
#68 = ORIENTED_EDGE ( 'NONE', *, *, #163, .F. ) ;
#69 = ORIENTED_EDGE ( 'NONE', *, *, #85, .T. ) ;
#70 = ORIENTED_EDGE ( 'NONE', *, *, #308, .F. ) ;
#71 = UNCERTAINTY_MEASURE_WITH_UNIT (LENGTH_MEASURE( 1.000000000000000082E-05 ), #164, 'distance_accuracy_value', 'NONE');
#72 = COLOUR_RGB ( '',1.000000000000000000, 0.000000000000000000, 0.000000000000000000 ) ;
#73 = VERTEX_POINT ( 'NONE', #202 ) ;
#74 =( NAMED_UNIT ( * ) PLANE_ANGLE_UNIT ( ) SI_UNIT ( $, .RADIAN. ) );
#75 =( CONVERSION_BASED_UNIT ( 'INCH', #49 ) LENGTH_UNIT ( ) NAMED_UNIT ( #200 ) );
#76 = UNCERTAINTY_MEASURE_WITH_UNIT (LENGTH_MEASURE( 1.000000000000000082E-05 ), #149, 'distance_accuracy_value', 'NONE');
#77 = CIRCLE ( 'NONE', #100, 0.3750000000000001665 ) ;
#78 =( NAMED_UNIT ( * ) PLANE_ANGLE_UNIT ( ) SI_UNIT ( $, .RADIAN. ) );
#79 = DIRECTION ( 'NONE',  ( -1.000000000000000000, 0.000000000000000000, 0.000000000000000000 ) ) ;
#80 = CARTESIAN_POINT ( 'NONE',  ( 4.592425496802575451E-17, 0.000000000000000000, 0.3750000000000000555 ) ) ;
#81 = PLANE ( 'NONE',  #221 ) ;
#82 = SURFACE_STYLE_FILL_AREA ( #189 ) ;
#83 = FILL_AREA_STYLE_COLOUR ( '', #223 ) ;
#84 = DIRECTION ( 'NONE',  ( -0.000000000000000000, -1.000000000000000000, -0.000000000000000000 ) ) ;
#85 = EDGE_CURVE ( 'NONE', #11, #40, #167, .T. ) ;
#86 =( GEOMETRIC_REPRESENTATION_CONTEXT ( 3 ) GLOBAL_UNCERTAINTY_ASSIGNED_CONTEXT ( ( #106 ) ) GLOBAL_UNIT_ASSIGNED_CONTEXT ( ( #204, #78, #129 ) ) REPRESENTATION_CONTEXT ( 'NONE', 'WORKASPACE' ) );
#87 = CARTESIAN_POINT ( 'NONE',  ( 0.000000000000000000, 2.750000000000000000, 0.000000000000000000 ) ) ;
#88 = LINE ( 'NONE', #109, #208 ) ;
#89 = EDGE_LOOP ( 'NONE', ( #70, #307 ) ) ;
#90 =( LENGTH_UNIT ( ) NAMED_UNIT ( * ) SI_UNIT ( $, .METRE. ) );
#91 = EDGE_CURVE ( 'NONE', #73, #25, #271, .T. ) ;
#92 = SURFACE_STYLE_FILL_AREA ( #283 ) ;
#93 = ORIENTED_EDGE ( 'NONE', *, *, #91, .T. ) ;
#94 = EDGE_CURVE ( 'NONE', #11, #174, #110, .T. ) ;
#95 =( GEOMETRIC_REPRESENTATION_CONTEXT ( 3 ) GLOBAL_UNCERTAINTY_ASSIGNED_CONTEXT ( ( #76 ) ) GLOBAL_UNIT_ASSIGNED_CONTEXT ( ( #149, #14, #295 ) ) REPRESENTATION_CONTEXT ( 'NONE', 'WORKASPACE' ) );
#96 = MECHANICAL_DESIGN_GEOMETRIC_PRESENTATION_REPRESENTATION (  '', ( #180 ), #209 ) ;
#97 = CARTESIAN_POINT ( 'NONE',  ( 3.032960542342103792E-32, 2.750000000000000000, 0.000000000000000000 ) ) ;
#98 = EDGE_CURVE ( 'NONE', #30, #45, #153, .T. ) ;
#99 = LENGTH_MEASURE_WITH_UNIT ( LENGTH_MEASURE( 0.02539999999999999897 ), #105 );
#100 = AXIS2_PLACEMENT_3D ( 'NONE', #196, #258, #168 ) ;
#101 = CARTESIAN_POINT ( 'NONE',  ( 0.000000000000000000, 0.000000000000000000, 0.000000000000000000 ) ) ;
#102 = DIMENSIONAL_EXPONENTS ( 1.000000000000000000, 0.000000000000000000, 0.000000000000000000, 0.000000000000000000, 0.000000000000000000, 0.000000000000000000, 0.000000000000000000 ) ;
#103 = LENGTH_MEASURE_WITH_UNIT ( LENGTH_MEASURE( 0.02539999999999999897 ), #215 );
#104 = SURFACE_STYLE_FILL_AREA ( #236 ) ;
#105 =( LENGTH_UNIT ( ) NAMED_UNIT ( * ) SI_UNIT ( $, .METRE. ) );
#106 = UNCERTAINTY_MEASURE_WITH_UNIT (LENGTH_MEASURE( 1.000000000000000082E-05 ), #204, 'distance_accuracy_value', 'NONE');
#107 = ORIENTED_EDGE ( 'NONE', *, *, #118, .T. ) ;
#108 = PRESENTATION_LAYER_ASSIGNMENT (  '', '', ( #22 ) ) ;
#109 = CARTESIAN_POINT ( 'NONE',  ( -0.3750000000000002220, 5.000000000000000000, 0.000000000000000000 ) ) ;
#110 = LINE ( 'NONE', #304, #51 ) ;
#111 = FACE_OUTER_BOUND ( 'NONE', #151, .T. ) ;
#112 = DIRECTION ( 'NONE',  ( 0.000000000000000000, 0.000000000000000000, 1.000000000000000000 ) ) ;
#113 =( CONVERSION_BASED_UNIT ( 'INCH', #251 ) LENGTH_UNIT ( ) NAMED_UNIT ( #102 ) );
#114 = SURFACE_SIDE_STYLE ('',( #104 ) ) ;
#115 = MECHANICAL_DESIGN_GEOMETRIC_PRESENTATION_REPRESENTATION (  '', ( #22 ), #86 ) ;
#116 = SURFACE_STYLE_FILL_AREA ( #13 ) ;
#117 = CARTESIAN_POINT ( 'NONE',  ( -0.3750000000000002776, 5.000000000000000000, 0.000000000000000000 ) ) ;
#118 = EDGE_CURVE ( 'NONE', #25, #73, #244, .T. ) ;
#119 =( NAMED_UNIT ( * ) SI_UNIT ( $, .STERADIAN. ) SOLID_ANGLE_UNIT ( ) );
#120 = ORIENTED_EDGE ( 'NONE', *, *, #94, .F. ) ;
#121 = MECHANICAL_DESIGN_GEOMETRIC_PRESENTATION_REPRESENTATION (  '', ( #238 ), #95 ) ;
#122 = ADVANCED_BREP_SHAPE_REPRESENTATION ( '59275', ( #237, #15, #291 ), #203 ) ;
#123 = UNCERTAINTY_MEASURE_WITH_UNIT (LENGTH_MEASURE( 1.000000000000000082E-05 ), #298, 'distance_accuracy_value', 'NONE');
#124 = EDGE_LOOP ( 'NONE', ( #35, #61 ) ) ;
#125 = STYLED_ITEM ( 'NONE', ( #192 ), #225 ) ;
#126 = EDGE_CURVE ( 'NONE', #40, #198, #88, .T. ) ;
#127 = SURFACE_STYLE_FILL_AREA ( #243 ) ;
#128 = DIRECTION ( 'NONE',  ( 0.000000000000000000, -1.000000000000000000, -0.000000000000000000 ) ) ;
#129 =( NAMED_UNIT ( * ) SI_UNIT ( $, .STERADIAN. ) SOLID_ANGLE_UNIT ( ) );
#130 = AXIS2_PLACEMENT_3D ( 'NONE', #87, #176, #305 ) ;
#131 = DIMENSIONAL_EXPONENTS ( 1.000000000000000000, 0.000000000000000000, 0.000000000000000000, 0.000000000000000000, 0.000000000000000000, 0.000000000000000000, 0.000000000000000000 ) ;
#132 = PLANE ( 'NONE',  #65 ) ;
#133 = CARTESIAN_POINT ( 'NONE',  ( 0.3750000000000000555, 2.750000000000000000, 4.592425496802576684E-17 ) ) ;
#134 = DIRECTION ( 'NONE',  ( 0.000000000000000000, 0.000000000000000000, -1.000000000000000000 ) ) ;
#135 =( CONVERSION_BASED_UNIT ( 'INCH', #99 ) LENGTH_UNIT ( ) NAMED_UNIT ( #234 ) );
#136 = MECHANICAL_DESIGN_GEOMETRIC_PRESENTATION_REPRESENTATION (  '', ( #165 ), #147 ) ;
#137 =( NAMED_UNIT ( * ) PLANE_ANGLE_UNIT ( ) SI_UNIT ( $, .RADIAN. ) );
#138 = COLOUR_RGB ( '',1.000000000000000000, 0.000000000000000000, 0.000000000000000000 ) ;
#139 =( NAMED_UNIT ( * ) PLANE_ANGLE_UNIT ( ) SI_UNIT ( $, .RADIAN. ) );
#140 = CYLINDRICAL_SURFACE ( 'NONE', #253, 0.3750000000000000555 ) ;
#141 = DIRECTION ( 'NONE',  ( -0.000000000000000000, -1.000000000000000000, -0.000000000000000000 ) ) ;
#142 = LENGTH_MEASURE_WITH_UNIT ( LENGTH_MEASURE( 0.02539999999999999897 ), #90 );
#143 = DIRECTION ( 'NONE',  ( -0.000000000000000000, -1.000000000000000000, -0.000000000000000000 ) ) ;
#144 = DIRECTION ( 'NONE',  ( 1.000000000000000000, 0.000000000000000000, 0.000000000000000000 ) ) ;
#145 = CLOSED_SHELL ( 'NONE', ( #23, #29, #225, #268 ) ) ;
#146 = EDGE_CURVE ( 'NONE', #45, #30, #226, .T. ) ;
#147 =( GEOMETRIC_REPRESENTATION_CONTEXT ( 3 ) GLOBAL_UNCERTAINTY_ASSIGNED_CONTEXT ( ( #50 ) ) GLOBAL_UNIT_ASSIGNED_CONTEXT ( ( #113, #137, #230 ) ) REPRESENTATION_CONTEXT ( 'NONE', 'WORKASPACE' ) );
#148 = CARTESIAN_POINT ( 'NONE',  ( 0.000000000000000000, 2.750000000000000000, 0.000000000000000000 ) ) ;
#149 =( CONVERSION_BASED_UNIT ( 'INCH', #142 ) LENGTH_UNIT ( ) NAMED_UNIT ( #265 ) );
#150 = CYLINDRICAL_SURFACE ( 'NONE', #2, 0.3750000000000001110 ) ;
#151 = EDGE_LOOP ( 'NONE', ( #16, #170 ) ) ;
#152 = DIRECTION ( 'NONE',  ( 0.000000000000000000, 0.000000000000000000, -1.000000000000000000 ) ) ;
#153 = CIRCLE ( 'NONE', #27, 0.3750000000000000555 ) ;
#154 = APPLICATION_CONTEXT ( 'automotive_design' ) ;
#155 = CIRCLE ( 'NONE', #191, 0.3750000000000001665 ) ;
#156 = PRESENTATION_STYLE_ASSIGNMENT (( #48 ) ) ;
#157 =( LENGTH_UNIT ( ) NAMED_UNIT ( * ) SI_UNIT ( $, .METRE. ) );
#158 = VECTOR ( 'NONE', #141, 39.37007874015748143 ) ;
#159 = CARTESIAN_POINT ( 'NONE',  ( 5.554665861710585348E-34, 2.750000000000000000, 0.000000000000000000 ) ) ;
#160 = UNCERTAINTY_MEASURE_WITH_UNIT (LENGTH_MEASURE( 1.000000000000000082E-05 ), #135, 'distance_accuracy_value', 'NONE');
#161 = SURFACE_STYLE_USAGE ( .BOTH. , #181 ) ;
#162 = CARTESIAN_POINT ( 'NONE',  ( 0.000000000000000000, 0.000000000000000000, -0.3750000000000000555 ) ) ;
#163 = EDGE_CURVE ( 'NONE', #30, #25, #213, .T. ) ;
#164 =( CONVERSION_BASED_UNIT ( 'INCH', #279 ) LENGTH_UNIT ( ) NAMED_UNIT ( #131 ) );
#165 = STYLED_ITEM ( 'NONE', ( #274 ), #15 ) ;
#166 =( LENGTH_UNIT ( ) NAMED_UNIT ( * ) SI_UNIT ( $, .METRE. ) );
#167 = CIRCLE ( 'NONE', #178, 0.3750000000000000555 ) ;
#168 = DIRECTION ( 'NONE',  ( -1.000000000000000000, 0.000000000000000000, 0.000000000000000000 ) ) ;
#169 = SURFACE_STYLE_USAGE ( .BOTH. , #56 ) ;
#170 = ORIENTED_EDGE ( 'NONE', *, *, #98, .F. ) ;
#171 = DIRECTION ( 'NONE',  ( 0.000000000000000000, 0.000000000000000000, -1.000000000000000000 ) ) ;
#172 = DIRECTION ( 'NONE',  ( 0.000000000000000000, 0.000000000000000000, -1.000000000000000000 ) ) ;
#173 = CARTESIAN_POINT ( 'NONE',  ( -0.3750000000000000555, 2.750000000000000000, 0.000000000000000000 ) ) ;
#174 = VERTEX_POINT ( 'NONE', #278 ) ;
#175 =( GEOMETRIC_REPRESENTATION_CONTEXT ( 3 ) GLOBAL_UNCERTAINTY_ASSIGNED_CONTEXT ( ( #123 ) ) GLOBAL_UNIT_ASSIGNED_CONTEXT ( ( #298, #139, #216 ) ) REPRESENTATION_CONTEXT ( 'NONE', 'WORKASPACE' ) );
#176 = DIRECTION ( 'NONE',  ( 0.000000000000000000, 1.000000000000000000, 0.000000000000000000 ) ) ;
#177 = FILL_AREA_STYLE_COLOUR ( '', #290 ) ;
#178 = AXIS2_PLACEMENT_3D ( 'NONE', #97, #24, #3 ) ;
#179 = DIMENSIONAL_EXPONENTS ( 1.000000000000000000, 0.000000000000000000, 0.000000000000000000, 0.000000000000000000, 0.000000000000000000, 0.000000000000000000, 0.000000000000000000 ) ;
#180 = STYLED_ITEM ( 'NONE', ( #247 ), #268 ) ;
#181 = SURFACE_SIDE_STYLE ('',( #206 ) ) ;
#182 = DIMENSIONAL_EXPONENTS ( 1.000000000000000000, 0.000000000000000000, 0.000000000000000000, 0.000000000000000000, 0.000000000000000000, 0.000000000000000000, 0.000000000000000000 ) ;
#183 = PRESENTATION_STYLE_ASSIGNMENT (( #302 ) ) ;
#184 = FACE_OUTER_BOUND ( 'NONE', #288, .T. ) ;
#185 = EDGE_CURVE ( 'NONE', #198, #174, #77, .T. ) ;
#186 = SURFACE_SIDE_STYLE ('',( #116 ) ) ;
#187 = PRESENTATION_STYLE_ASSIGNMENT (( #169 ) ) ;
#188 = CARTESIAN_POINT ( 'NONE',  ( 0.000000000000000000, 0.000000000000000000, 0.000000000000000000 ) ) ;
#189 = FILL_AREA_STYLE ('',( #257 ) ) ;
#190 = CLOSED_SHELL ( 'NONE', ( #41, #21, #241, #219 ) ) ;
#191 = AXIS2_PLACEMENT_3D ( 'NONE', #255, #33, #79 ) ;
#192 = PRESENTATION_STYLE_ASSIGNMENT (( #275 ) ) ;
#193 =( NAMED_UNIT ( * ) PLANE_ANGLE_UNIT ( ) SI_UNIT ( $, .RADIAN. ) );
#194 = SURFACE_STYLE_USAGE ( .BOTH. , #114 ) ;
#195 = CARTESIAN_POINT ( 'NONE',  ( 0.000000000000000000, 0.000000000000000000, 0.000000000000000000 ) ) ;
#196 = CARTESIAN_POINT ( 'NONE',  ( -1.224646799147353207E-16, 5.000000000000000000, 0.000000000000000000 ) ) ;
#197 = PRESENTATION_LAYER_ASSIGNMENT (  '', '', ( #262 ) ) ;
#198 = VERTEX_POINT ( 'NONE', #117 ) ;
#199 = ORIENTED_EDGE ( 'NONE', *, *, #185, .F. ) ;
#200 = DIMENSIONAL_EXPONENTS ( 1.000000000000000000, 0.000000000000000000, 0.000000000000000000, 0.000000000000000000, 0.000000000000000000, 0.000000000000000000, 0.000000000000000000 ) ;
#201 = AXIS2_PLACEMENT_3D ( 'NONE', #101, #205, #172 ) ;
#202 = CARTESIAN_POINT ( 'NONE',  ( 0.000000000000000000, 0.000000000000000000, -0.3750000000000000555 ) ) ;
#203 =( GEOMETRIC_REPRESENTATION_CONTEXT ( 3 ) GLOBAL_UNCERTAINTY_ASSIGNED_CONTEXT ( ( #160 ) ) GLOBAL_UNIT_ASSIGNED_CONTEXT ( ( #135, #52, #296 ) ) REPRESENTATION_CONTEXT ( 'NONE', 'WORKASPACE' ) );
#204 =( CONVERSION_BASED_UNIT ( 'INCH', #103 ) LENGTH_UNIT ( ) NAMED_UNIT ( #182 ) );
#205 = DIRECTION ( 'NONE',  ( -0.000000000000000000, -1.000000000000000000, -0.000000000000000000 ) ) ;
#206 = SURFACE_STYLE_FILL_AREA ( #250 ) ;
#207 = SURFACE_SIDE_STYLE ('',( #127 ) ) ;
#208 = VECTOR ( 'NONE', #211, 39.37007874015748143 ) ;
#209 =( GEOMETRIC_REPRESENTATION_CONTEXT ( 3 ) GLOBAL_UNCERTAINTY_ASSIGNED_CONTEXT ( ( #266 ) ) GLOBAL_UNIT_ASSIGNED_CONTEXT ( ( #75, #74, #28 ) ) REPRESENTATION_CONTEXT ( 'NONE', 'WORKASPACE' ) );
#210 = DIRECTION ( 'NONE',  ( -0.000000000000000000, -1.000000000000000000, -0.000000000000000000 ) ) ;
#211 = DIRECTION ( 'NONE',  ( -5.442874662877125091E-17, 1.000000000000000000, -0.000000000000000000 ) ) ;
#212 = ORIENTED_EDGE ( 'NONE', *, *, #126, .T. ) ;
#213 = LINE ( 'NONE', #231, #158 ) ;
#214 = CARTESIAN_POINT ( 'NONE',  ( 0.000000000000000000, 0.000000000000000000, 0.000000000000000000 ) ) ;
#215 =( LENGTH_UNIT ( ) NAMED_UNIT ( * ) SI_UNIT ( $, .METRE. ) );
#216 =( NAMED_UNIT ( * ) SI_UNIT ( $, .STERADIAN. ) SOLID_ANGLE_UNIT ( ) );
#217 = EDGE_CURVE ( 'NONE', #174, #198, #155, .T. ) ;
#218 = FILL_AREA_STYLE_COLOUR ( '', #138 ) ;
#219 = ADVANCED_FACE ( 'NONE', ( #301 ), #81, .F. ) ;
#220 = ORIENTED_EDGE ( 'NONE', *, *, #126, .F. ) ;
#221 = AXIS2_PLACEMENT_3D ( 'NONE', #294, #55, #284 ) ;
#222 = ORIENTED_EDGE ( 'NONE', *, *, #217, .F. ) ;
#223 = COLOUR_RGB ( '',0.7921568627450980005, 0.8196078431372548767, 0.9333333333333333481 ) ;
#224 = AXIS2_PLACEMENT_3D ( 'NONE', #12, #210, #281 ) ;
#225 = ADVANCED_FACE ( 'NONE', ( #19 ), #62, .T. ) ;
#226 = CIRCLE ( 'NONE', #224, 0.3750000000000000555 ) ;
#227 = FILL_AREA_STYLE_COLOUR ( '', #306 ) ;
#228 = DIRECTION ( 'NONE',  ( 0.000000000000000000, 0.000000000000000000, -1.000000000000000000 ) ) ;
#229 = CARTESIAN_POINT ( 'NONE',  ( 3.032960542342103792E-32, 2.750000000000000000, 0.000000000000000000 ) ) ;
#230 =( NAMED_UNIT ( * ) SI_UNIT ( $, .STERADIAN. ) SOLID_ANGLE_UNIT ( ) );
#231 = CARTESIAN_POINT ( 'NONE',  ( 4.592425496802575451E-17, 0.000000000000000000, 0.3750000000000000555 ) ) ;
#232 = MECHANICAL_DESIGN_GEOMETRIC_PRESENTATION_REPRESENTATION (  '', ( #125 ), #175 ) ;
#233 = ORIENTED_EDGE ( 'NONE', *, *, #9, .T. ) ;
#234 = DIMENSIONAL_EXPONENTS ( 1.000000000000000000, 0.000000000000000000, 0.000000000000000000, 0.000000000000000000, 0.000000000000000000, 0.000000000000000000, 0.000000000000000000 ) ;
#235 = DIRECTION ( 'NONE',  ( -0.000000000000000000, -1.000000000000000000, -0.000000000000000000 ) ) ;
#236 = FILL_AREA_STYLE ('',( #83 ) ) ;
#237 = MANIFOLD_SOLID_BREP ( 'Revolve - Cutting Edge', #145 ) ;
#238 = STYLED_ITEM ( 'NONE', ( #187 ), #29 ) ;
#239 = DIRECTION ( 'NONE',  ( 0.000000000000000000, 0.000000000000000000, -1.000000000000000000 ) ) ;
#240 = ORIENTED_EDGE ( 'NONE', *, *, #118, .F. ) ;
#241 = ADVANCED_FACE ( 'NONE', ( #26 ), #10, .T. ) ;
#242 = CARTESIAN_POINT ( 'NONE',  ( -1.224646799147353207E-16, 5.000000000000000000, 0.000000000000000000 ) ) ;
#243 = FILL_AREA_STYLE ('',( #177 ) ) ;
#244 = CIRCLE ( 'NONE', #8, 0.3750000000000000555 ) ;
#245 = CIRCLE ( 'NONE', #272, 0.3750000000000000555 ) ;
#246 = PRODUCT_RELATED_PRODUCT_CATEGORY ( 'part', '', ( #42 ) ) ;
#247 = PRESENTATION_STYLE_ASSIGNMENT (( #161 ) ) ;
#248 = EDGE_LOOP ( 'NONE', ( #120, #69, #212, #222 ) ) ;
#249 = APPLICATION_CONTEXT ( 'automotive_design' ) ;
#250 = FILL_AREA_STYLE ('',( #227 ) ) ;
#251 = LENGTH_MEASURE_WITH_UNIT ( LENGTH_MEASURE( 0.02539999999999999897 ), #166 );
#252 = DIRECTION ( 'NONE',  ( -0.000000000000000000, -1.000000000000000000, -0.000000000000000000 ) ) ;
#253 = AXIS2_PLACEMENT_3D ( 'NONE', #34, #235, #171 ) ;
#254 = LINE ( 'NONE', #162, #285 ) ;
#255 = CARTESIAN_POINT ( 'NONE',  ( -1.224646799147353207E-16, 5.000000000000000000, 0.000000000000000000 ) ) ;
#256 = SHAPE_DEFINITION_REPRESENTATION ( #46, #122 ) ;
#257 = FILL_AREA_STYLE_COLOUR ( '', #303 ) ;
#258 = DIRECTION ( 'NONE',  ( -5.442874662877125708E-17, 1.000000000000000000, -0.000000000000000000 ) ) ;
#259 = MECHANICAL_DESIGN_GEOMETRIC_PRESENTATION_REPRESENTATION (  '', ( #262 ), #37 ) ;
#260 = ORIENTED_EDGE ( 'NONE', *, *, #9, .F. ) ;
#261 = ORIENTED_EDGE ( 'NONE', *, *, #146, .T. ) ;
#262 = STYLED_ITEM ( 'NONE', ( #156 ), #23 ) ;
#263 = EDGE_LOOP ( 'NONE', ( #93, #107 ) ) ;
#264 = DIRECTION ( 'NONE',  ( -1.000000000000000000, 0.000000000000000000, 0.000000000000000000 ) ) ;
#265 = DIMENSIONAL_EXPONENTS ( 1.000000000000000000, 0.000000000000000000, 0.000000000000000000, 0.000000000000000000, 0.000000000000000000, 0.000000000000000000, 0.000000000000000000 ) ;
#266 = UNCERTAINTY_MEASURE_WITH_UNIT (LENGTH_MEASURE( 1.000000000000000082E-05 ), #75, 'distance_accuracy_value', 'NONE');
#267 = PRESENTATION_LAYER_ASSIGNMENT (  '', '', ( #165 ) ) ;
#268 = ADVANCED_FACE ( 'NONE', ( #273 ), #132, .T. ) ;
#269 = AXIS2_PLACEMENT_3D ( 'NONE', #292, #5, #270 ) ;
#270 = DIRECTION ( 'NONE',  ( -1.000000000000000000, 0.000000000000000000, 0.000000000000000000 ) ) ;
#271 = CIRCLE ( 'NONE', #201, 0.3750000000000000555 ) ;
#272 = AXIS2_PLACEMENT_3D ( 'NONE', #229, #276, #6 ) ;
#273 = FACE_OUTER_BOUND ( 'NONE', #263, .T. ) ;
#274 = PRESENTATION_STYLE_ASSIGNMENT (( #194 ) ) ;
#275 = SURFACE_STYLE_USAGE ( .BOTH. , #186 ) ;
#276 = DIRECTION ( 'NONE',  ( -5.442874662877125708E-17, 1.000000000000000000, -0.000000000000000000 ) ) ;
#277 = PLANE ( 'NONE',  #18 ) ;
#278 = CARTESIAN_POINT ( 'NONE',  ( 0.3750000000000000555, 5.000000000000000000, 4.592425496802576684E-17 ) ) ;
#279 = LENGTH_MEASURE_WITH_UNIT ( LENGTH_MEASURE( 0.02539999999999999897 ), #299 );
#280 = FACE_OUTER_BOUND ( 'NONE', #89, .T. ) ;
#281 = DIRECTION ( 'NONE',  ( 0.000000000000000000, 0.000000000000000000, -1.000000000000000000 ) ) ;
#282 = PLANE ( 'NONE',  #130 ) ;
#283 = FILL_AREA_STYLE ('',( #218 ) ) ;
#284 = DIRECTION ( 'NONE',  ( 1.000000000000000000, 5.442874662877125091E-17, 0.000000000000000000 ) ) ;
#285 = VECTOR ( 'NONE', #143, 39.37007874015748143 ) ;
#286 = ORIENTED_EDGE ( 'NONE', *, *, #91, .F. ) ;
#287 = EDGE_LOOP ( 'NONE', ( #309, #289, #199, #220 ) ) ;
#288 = EDGE_LOOP ( 'NONE', ( #261, #66, #286, #260 ) ) ;
#289 = ORIENTED_EDGE ( 'NONE', *, *, #94, .T. ) ;
#290 = COLOUR_RGB ( '',0.7921568627450980005, 0.8196078431372548767, 0.9333333333333333481 ) ;
#291 = AXIS2_PLACEMENT_3D ( 'NONE', #214, #112, #144 ) ;
#292 = CARTESIAN_POINT ( 'NONE',  ( -1.224646799147353207E-16, 5.000000000000000000, 0.000000000000000000 ) ) ;
#293 = ORIENTED_EDGE ( 'NONE', *, *, #98, .T. ) ;
#294 = CARTESIAN_POINT ( 'NONE',  ( 0.3750000000000000555, 5.000000000000000000, 0.000000000000000000 ) ) ;
#295 =( NAMED_UNIT ( * ) SI_UNIT ( $, .STERADIAN. ) SOLID_ANGLE_UNIT ( ) );
#296 =( NAMED_UNIT ( * ) SI_UNIT ( $, .STERADIAN. ) SOLID_ANGLE_UNIT ( ) );
#297 = PRODUCT_DEFINITION ( 'UNKNOWN', '', #57, #1 ) ;
#298 =( CONVERSION_BASED_UNIT ( 'INCH', #36 ) LENGTH_UNIT ( ) NAMED_UNIT ( #179 ) );
#299 =( LENGTH_UNIT ( ) NAMED_UNIT ( * ) SI_UNIT ( $, .METRE. ) );
#300 = PRODUCT_CONTEXT ( 'NONE', #249, 'mechanical' ) ;
#301 = FACE_OUTER_BOUND ( 'NONE', #124, .T. ) ;
#302 = SURFACE_STYLE_USAGE ( .BOTH. , #207 ) ;
#303 = COLOUR_RGB ( '',1.000000000000000000, 0.000000000000000000, 0.000000000000000000 ) ;
#304 = CARTESIAN_POINT ( 'NONE',  ( 0.3749999999999999445, 5.000000000000000000, 4.592425496802576068E-17 ) ) ;
#305 = DIRECTION ( 'NONE',  ( 0.000000000000000000, -0.000000000000000000, 1.000000000000000000 ) ) ;
#306 = COLOUR_RGB ( '',1.000000000000000000, 0.000000000000000000, 0.000000000000000000 ) ;
#307 = ORIENTED_EDGE ( 'NONE', *, *, #85, .F. ) ;
#308 = EDGE_CURVE ( 'NONE', #40, #11, #245, .T. ) ;
#309 = ORIENTED_EDGE ( 'NONE', *, *, #308, .T. ) ;
ENDSEC;
END-ISO-10303-21;
