ISO-10303-21;
HEADER;
FILE_DESCRIPTION (( 'STEP AP214' ),
    '1' );
FILE_NAME ('84764.STEP',
    '2023-06-30T23:50:28',
    ( '' ),
    ( '' ),
    'SwSTEP 2.0',
    'SolidWorks 2023',
    '' );
FILE_SCHEMA (( 'AUTOMOTIVE_DESIGN' ));
ENDSEC;

DATA;
#1 = DIRECTION ( 'NONE',  ( -0.000000000000000000, -1.000000000000000000, -0.000000000000000000 ) ) ;
#2 = EDGE_LOOP ( 'NONE', ( #57, #319, #261, #291, #146 ) ) ;
#3 = CARTESIAN_POINT ( 'NONE',  ( 1.530808498934191817E-16, 2.750000000000000000, 0.000000000000000000 ) ) ;
#4 = EDGE_LOOP ( 'NONE', ( #59, #224, #113, #32 ) ) ;
#5 = UNCERTAINTY_MEASURE_WITH_UNIT (LENGTH_MEASURE( 1.000000000000000082E-05 ), #138, 'distance_accuracy_value', 'NONE');
#6 = CIRCLE ( 'NONE', #245, 0.2187500000000000278 ) ;
#7 = SURFACE_STYLE_USAGE ( .BOTH. , #242 ) ;
#8 = CARTESIAN_POINT ( 'NONE',  ( 2.296212748401287479E-16, 0.8749999999999997780, 0.000000000000000000 ) ) ;
#9 = CARTESIAN_POINT ( 'NONE',  ( 0.2187499999999998612, 2.750000000000000000, 2.678914873134831674E-17 ) ) ;
#10 = FACE_OUTER_BOUND ( 'NONE', #2, .T. ) ;
#11 = AXIS2_PLACEMENT_3D ( 'NONE', #277, #278, #25 ) ;
#12 =( LENGTH_UNIT ( ) NAMED_UNIT ( * ) SI_UNIT ( $, .METRE. ) );
#13 = FILL_AREA_STYLE ('',( #271 ) ) ;
#14 = CARTESIAN_POINT ( 'NONE',  ( -2.678914873134835064E-17, 0.2187500000000000000, 0.000000000000000000 ) ) ;
#15 = ADVANCED_FACE ( 'NONE', ( #35 ), #118, .F. ) ;
#16 = DIRECTION ( 'NONE',  ( -4.082155997157843202E-17, 1.000000000000000000, -0.000000000000000000 ) ) ;
#17 = MECHANICAL_DESIGN_GEOMETRIC_PRESENTATION_REPRESENTATION (  '', ( #200 ), #110 ) ;
#18 =( NAMED_UNIT ( * ) SI_UNIT ( $, .STERADIAN. ) SOLID_ANGLE_UNIT ( ) );
#19 = SPHERICAL_SURFACE ( 'NONE', #11, 0.2187500000000000278 ) ;
#20 = FACE_OUTER_BOUND ( 'NONE', #4, .T. ) ;
#21 = CARTESIAN_POINT ( 'NONE',  ( 2.296212748401287479E-16, 0.8750000000000000000, 0.000000000000000000 ) ) ;
#22 =( CONVERSION_BASED_UNIT ( 'INCH', #136 ) LENGTH_UNIT ( ) NAMED_UNIT ( #329 ) );
#23 = STYLED_ITEM ( 'NONE', ( #176 ), #251 ) ;
#24 = CARTESIAN_POINT ( 'NONE',  ( 1.530808498934191817E-16, 2.750000000000000000, 0.000000000000000000 ) ) ;
#25 = DIRECTION ( 'NONE',  ( 1.000000000000000000, 0.000000000000000000, 0.000000000000000000 ) ) ;
#26 = EDGE_CURVE ( 'NONE', #283, #53, #332, .T. ) ;
#27 = SURFACE_STYLE_FILL_AREA ( #169 ) ;
#28 = CARTESIAN_POINT ( 'NONE',  ( 0.000000000000000000, 0.2187500000000000278, -0.2187500000000000278 ) ) ;
#29 = CIRCLE ( 'NONE', #230, 0.2187499999999997780 ) ;
#30 = AXIS2_PLACEMENT_3D ( 'NONE', #60, #290, #351 ) ;
#31 = VERTEX_POINT ( 'NONE', #28 ) ;
#32 = ORIENTED_EDGE ( 'NONE', *, *, #102, .F. ) ;
#33 = VERTEX_POINT ( 'NONE', #45 ) ;
#34 = PRESENTATION_STYLE_ASSIGNMENT (( #7 ) ) ;
#35 = FACE_OUTER_BOUND ( 'NONE', #90, .T. ) ;
#36 = STYLED_ITEM ( 'NONE', ( #192 ), #218 ) ;
#37 = MECHANICAL_DESIGN_GEOMETRIC_PRESENTATION_REPRESENTATION (  '', ( #80 ), #270 ) ;
#38 = EDGE_CURVE ( 'NONE', #53, #283, #275, .T. ) ;
#39 = SURFACE_STYLE_FILL_AREA ( #157 ) ;
#40 = CARTESIAN_POINT ( 'NONE',  ( -0.2187500000000000278, 0.2187500000000000278, 2.678914873134835372E-17 ) ) ;
#41 =( CONVERSION_BASED_UNIT ( 'INCH', #128 ) LENGTH_UNIT ( ) NAMED_UNIT ( #187 ) );
#42 =( LENGTH_UNIT ( ) NAMED_UNIT ( * ) SI_UNIT ( $, .METRE. ) );
#43 = CARTESIAN_POINT ( 'NONE',  ( 2.678914873134834447E-17, 0.8750000000000000000, 0.2187499999999998890 ) ) ;
#44 = SURFACE_STYLE_FILL_AREA ( #151 ) ;
#45 = CARTESIAN_POINT ( 'NONE',  ( -0.2187499999999996392, 2.750000000000000000, 0.000000000000000000 ) ) ;
#46 = CIRCLE ( 'NONE', #56, 0.2187500000000000278 ) ;
#47 = APPLICATION_PROTOCOL_DEFINITION ( 'draft international standard', 'automotive_design', 1998, #347 ) ;
#48 = SURFACE_STYLE_FILL_AREA ( #333 ) ;
#49 = DIMENSIONAL_EXPONENTS ( 1.000000000000000000, 0.000000000000000000, 0.000000000000000000, 0.000000000000000000, 0.000000000000000000, 0.000000000000000000, 0.000000000000000000 ) ;
#50 = CYLINDRICAL_SURFACE ( 'NONE', #248, 0.2187499999999997224 ) ;
#51 =( NAMED_UNIT ( * ) SI_UNIT ( $, .STERADIAN. ) SOLID_ANGLE_UNIT ( ) );
#52 = FILL_AREA_STYLE_COLOUR ( '', #134 ) ;
#53 = VERTEX_POINT ( 'NONE', #357 ) ;
#54 = ORIENTED_EDGE ( 'NONE', *, *, #206, .F. ) ;
#55 =( NAMED_UNIT ( * ) SI_UNIT ( $, .STERADIAN. ) SOLID_ANGLE_UNIT ( ) );
#56 = AXIS2_PLACEMENT_3D ( 'NONE', #322, #132, #330 ) ;
#57 = ORIENTED_EDGE ( 'NONE', *, *, #180, .F. ) ;
#58 = FACE_OUTER_BOUND ( 'NONE', #177, .T. ) ;
#59 = ORIENTED_EDGE ( 'NONE', *, *, #77, .F. ) ;
#60 = CARTESIAN_POINT ( 'NONE',  ( 0.000000000000000000, 0.2187500000000000278, 0.000000000000000000 ) ) ;
#61 = EDGE_CURVE ( 'NONE', #226, #171, #79, .T. ) ;
#62 = CARTESIAN_POINT ( 'NONE',  ( 0.000000000000000000, 0.000000000000000000, 0.000000000000000000 ) ) ;
#63 =( NAMED_UNIT ( * ) PLANE_ANGLE_UNIT ( ) SI_UNIT ( $, .RADIAN. ) );
#64 = UNCERTAINTY_MEASURE_WITH_UNIT (LENGTH_MEASURE( 1.000000000000000082E-05 ), #71, 'distance_accuracy_value', 'NONE');
#65 = SURFACE_STYLE_USAGE ( .BOTH. , #267 ) ;
#66 = DIRECTION ( 'NONE',  ( 0.000000000000000000, 0.000000000000000000, 1.000000000000000000 ) ) ;
#67 = SURFACE_SIDE_STYLE ('',( #39 ) ) ;
#68 = ADVANCED_FACE ( 'NONE', ( #355 ), #99, .T. ) ;
#69 = DIRECTION ( 'NONE',  ( -1.000000000000000000, 0.000000000000000000, 0.000000000000000000 ) ) ;
#70 = CIRCLE ( 'NONE', #354, 0.2187499999999998890 ) ;
#71 =( CONVERSION_BASED_UNIT ( 'INCH', #181 ) LENGTH_UNIT ( ) NAMED_UNIT ( #274 ) );
#72 = DIRECTION ( 'NONE',  ( 1.000000000000000000, 0.000000000000000000, 0.000000000000000000 ) ) ;
#73 = SURFACE_SIDE_STYLE ('',( #48 ) ) ;
#74 = PRODUCT_RELATED_PRODUCT_CATEGORY ( 'part', '', ( #197 ) ) ;
#75 = LENGTH_MEASURE_WITH_UNIT ( LENGTH_MEASURE( 0.02539999999999999897 ), #221 );
#76 =( NAMED_UNIT ( * ) SI_UNIT ( $, .STERADIAN. ) SOLID_ANGLE_UNIT ( ) );
#77 = EDGE_CURVE ( 'NONE', #53, #253, #352, .T. ) ;
#78 = CARTESIAN_POINT ( 'NONE',  ( 0.2187500000000000278, 0.2187500000000000278, 0.000000000000000000 ) ) ;
#79 = CIRCLE ( 'NONE', #186, 0.2187500000000000278 ) ;
#80 = STYLED_ITEM ( 'NONE', ( #116 ), #259 ) ;
#81 = CARTESIAN_POINT ( 'NONE',  ( 0.000000000000000000, 0.000000000000000000, 0.000000000000000000 ) ) ;
#82 = DIRECTION ( 'NONE',  ( -4.082155997157843202E-17, 1.000000000000000000, -0.000000000000000000 ) ) ;
#83 = SURFACE_STYLE_USAGE ( .BOTH. , #309 ) ;
#84 = ORIENTED_EDGE ( 'NONE', *, *, #26, .T. ) ;
#85 = LENGTH_MEASURE_WITH_UNIT ( LENGTH_MEASURE( 0.02539999999999999897 ), #147 );
#86 = VERTEX_POINT ( 'NONE', #40 ) ;
#87 = CARTESIAN_POINT ( 'NONE',  ( -0.2187499999999995837, 2.750000000000000000, 0.000000000000000000 ) ) ;
#88 = AXIS2_PLACEMENT_3D ( 'NONE', #21, #133, #365 ) ;
#89 = AXIS2_PLACEMENT_3D ( 'NONE', #210, #349, #325 ) ;
#90 = EDGE_LOOP ( 'NONE', ( #235, #92 ) ) ;
#91 =( LENGTH_UNIT ( ) NAMED_UNIT ( * ) SI_UNIT ( $, .METRE. ) );
#92 = ORIENTED_EDGE ( 'NONE', *, *, #102, .T. ) ;
#93 = DIRECTION ( 'NONE',  ( -0.000000000000000000, -1.000000000000000000, -0.000000000000000000 ) ) ;
#94 = DIRECTION ( 'NONE',  ( -4.082155997157843202E-17, 1.000000000000000000, -0.000000000000000000 ) ) ;
#95 = VECTOR ( 'NONE', #296, 39.37007874015748143 ) ;
#96 = PRESENTATION_LAYER_ASSIGNMENT (  '', '', ( #173 ) ) ;
#97 = DIRECTION ( 'NONE',  ( 0.000000000000000000, 1.000000000000000000, 0.000000000000000000 ) ) ;
#98 = APPLICATION_CONTEXT ( 'automotive_design' ) ;
#99 = SPHERICAL_SURFACE ( 'NONE', #358, 0.2187500000000000278 ) ;
#100 = PRESENTATION_STYLE_ASSIGNMENT (( #211 ) ) ;
#101 = PRESENTATION_LAYER_ASSIGNMENT (  '', '', ( #23 ) ) ;
#102 = EDGE_CURVE ( 'NONE', #253, #33, #359, .T. ) ;
#103 = DIRECTION ( 'NONE',  ( -1.000000000000000000, 0.000000000000000000, 0.000000000000000000 ) ) ;
#104 = PRODUCT_CONTEXT ( 'NONE', #347, 'mechanical' ) ;
#105 = PLANE ( 'NONE',  #88 ) ;
#106 = CLOSED_SHELL ( 'NONE', ( #218, #251, #367, #360, #68 ) ) ;
#107 = AXIS2_PLACEMENT_3D ( 'NONE', #257, #1, #260 ) ;
#108 = FACE_OUTER_BOUND ( 'NONE', #342, .T. ) ;
#109 = SHAPE_DEFINITION_REPRESENTATION ( #161, #125 ) ;
#110 =( GEOMETRIC_REPRESENTATION_CONTEXT ( 3 ) GLOBAL_UNCERTAINTY_ASSIGNED_CONTEXT ( ( #264 ) ) GLOBAL_UNIT_ASSIGNED_CONTEXT ( ( #41, #63, #123 ) ) REPRESENTATION_CONTEXT ( 'NONE', 'WORKASPACE' ) );
#111 = VERTEX_POINT ( 'NONE', #43 ) ;
#112 = DIRECTION ( 'NONE',  ( -0.000000000000000000, -1.000000000000000000, -0.000000000000000000 ) ) ;
#113 = ORIENTED_EDGE ( 'NONE', *, *, #302, .T. ) ;
#114 = SURFACE_SIDE_STYLE ('',( #337 ) ) ;
#115 = EDGE_LOOP ( 'NONE', ( #373, #119 ) ) ;
#116 = PRESENTATION_STYLE_ASSIGNMENT (( #316 ) ) ;
#117 = MECHANICAL_DESIGN_GEOMETRIC_PRESENTATION_REPRESENTATION (  '', ( #23 ), #339 ) ;
#118 = PLANE ( 'NONE',  #178 ) ;
#119 = ORIENTED_EDGE ( 'NONE', *, *, #292, .F. ) ;
#120 = SURFACE_STYLE_USAGE ( .BOTH. , #67 ) ;
#121 = CARTESIAN_POINT ( 'NONE',  ( 1.530808498934191817E-16, 2.750000000000000000, 0.000000000000000000 ) ) ;
#122 =( NAMED_UNIT ( * ) PLANE_ANGLE_UNIT ( ) SI_UNIT ( $, .RADIAN. ) );
#123 =( NAMED_UNIT ( * ) SI_UNIT ( $, .STERADIAN. ) SOLID_ANGLE_UNIT ( ) );
#124 = COLOUR_RGB ( '',1.000000000000000000, 0.000000000000000000, 0.000000000000000000 ) ;
#125 = ADVANCED_BREP_SHAPE_REPRESENTATION ( '84764', ( #259, #142, #194 ), #135 ) ;
#126 = SURFACE_STYLE_FILL_AREA ( #13 ) ;
#127 = CYLINDRICAL_SURFACE ( 'NONE', #315, 0.2187499999999999445 ) ;
#128 = LENGTH_MEASURE_WITH_UNIT ( LENGTH_MEASURE( 0.02539999999999999897 ), #237 );
#129 = CARTESIAN_POINT ( 'NONE',  ( -2.678914873134835064E-17, 0.2187500000000000000, 0.000000000000000000 ) ) ;
#130 = PRESENTATION_LAYER_ASSIGNMENT (  '', '', ( #200 ) ) ;
#131 = CARTESIAN_POINT ( 'NONE',  ( 0.000000000000000000, 0.000000000000000000, 0.000000000000000000 ) ) ;
#132 = DIRECTION ( 'NONE',  ( -0.000000000000000000, -1.000000000000000000, -0.000000000000000000 ) ) ;
#133 = DIRECTION ( 'NONE',  ( -4.082155997157843202E-17, 1.000000000000000000, 0.000000000000000000 ) ) ;
#134 = COLOUR_RGB ( '',1.000000000000000000, 0.000000000000000000, 0.000000000000000000 ) ;
#135 =( GEOMETRIC_REPRESENTATION_CONTEXT ( 3 ) GLOBAL_UNCERTAINTY_ASSIGNED_CONTEXT ( ( #156 ) ) GLOBAL_UNIT_ASSIGNED_CONTEXT ( ( #22, #362, #18 ) ) REPRESENTATION_CONTEXT ( 'NONE', 'WORKASPACE' ) );
#136 = LENGTH_MEASURE_WITH_UNIT ( LENGTH_MEASURE( 0.02539999999999999897 ), #12 );
#137 = DIRECTION ( 'NONE',  ( -0.000000000000000000, -1.000000000000000000, -0.000000000000000000 ) ) ;
#138 =( CONVERSION_BASED_UNIT ( 'INCH', #252 ) LENGTH_UNIT ( ) NAMED_UNIT ( #165 ) );
#139 = EDGE_CURVE ( 'NONE', #86, #171, #320, .T. ) ;
#140 =( NAMED_UNIT ( * ) SI_UNIT ( $, .STERADIAN. ) SOLID_ANGLE_UNIT ( ) );
#141 = ORIENTED_EDGE ( 'NONE', *, *, #302, .F. ) ;
#142 = MANIFOLD_SOLID_BREP ( 'Revolve - Tool Body (Straight Shanked)', #239 ) ;
#143 = COLOUR_RGB ( '',0.7921568627450980005, 0.8196078431372548767, 0.9333333333333333481 ) ;
#144 = ORIENTED_EDGE ( 'NONE', *, *, #364, .F. ) ;
#145 = CARTESIAN_POINT ( 'NONE',  ( -0.2187499999999994449, 0.8749999999999997780, 0.000000000000000000 ) ) ;
#146 = ORIENTED_EDGE ( 'NONE', *, *, #353, .F. ) ;
#147 =( LENGTH_UNIT ( ) NAMED_UNIT ( * ) SI_UNIT ( $, .METRE. ) );
#148 = ORIENTED_EDGE ( 'NONE', *, *, #26, .F. ) ;
#149 = EDGE_CURVE ( 'NONE', #86, #31, #46, .T. ) ;
#150 = PRESENTATION_LAYER_ASSIGNMENT (  '', '', ( #262 ) ) ;
#151 = FILL_AREA_STYLE ('',( #299 ) ) ;
#152 =( GEOMETRIC_REPRESENTATION_CONTEXT ( 3 ) GLOBAL_UNCERTAINTY_ASSIGNED_CONTEXT ( ( #289 ) ) GLOBAL_UNIT_ASSIGNED_CONTEXT ( ( #328, #273, #76 ) ) REPRESENTATION_CONTEXT ( 'NONE', 'WORKASPACE' ) );
#153 = DIRECTION ( 'NONE',  ( 4.082155997157843202E-17, -1.000000000000000000, 0.000000000000000000 ) ) ;
#154 =( NAMED_UNIT ( * ) PLANE_ANGLE_UNIT ( ) SI_UNIT ( $, .RADIAN. ) );
#155 = FILL_AREA_STYLE ('',( #182 ) ) ;
#156 = UNCERTAINTY_MEASURE_WITH_UNIT (LENGTH_MEASURE( 1.000000000000000082E-05 ), #22, 'distance_accuracy_value', 'NONE');
#157 = FILL_AREA_STYLE ('',( #209 ) ) ;
#158 = DIRECTION ( 'NONE',  ( 1.000000000000000000, 0.000000000000000000, -1.224646799147353207E-16 ) ) ;
#159 = PRODUCT_DEFINITION_FORMATION_WITH_SPECIFIED_SOURCE ( 'ANY', '', #197, .NOT_KNOWN. ) ;
#160 = DIRECTION ( 'NONE',  ( -1.000000000000000000, 0.000000000000000000, 0.000000000000000000 ) ) ;
#161 = PRODUCT_DEFINITION_SHAPE ( 'NONE', 'NONE',  #282 ) ;
#162 = CARTESIAN_POINT ( 'NONE',  ( 0.000000000000000000, 0.000000000000000000, -0.2187499999999999445 ) ) ;
#163 = AXIS2_PLACEMENT_3D ( 'NONE', #14, #208, #158 ) ;
#164 = VECTOR ( 'NONE', #201, 39.37007874015748143 ) ;
#165 = DIMENSIONAL_EXPONENTS ( 1.000000000000000000, 0.000000000000000000, 0.000000000000000000, 0.000000000000000000, 0.000000000000000000, 0.000000000000000000, 0.000000000000000000 ) ;
#166 = DIRECTION ( 'NONE',  ( -0.000000000000000000, -1.000000000000000000, -0.000000000000000000 ) ) ;
#167 = SURFACE_STYLE_USAGE ( .BOTH. , #73 ) ;
#168 = MECHANICAL_DESIGN_GEOMETRIC_PRESENTATION_REPRESENTATION (  '', ( #173 ), #249 ) ;
#169 = FILL_AREA_STYLE ('',( #52 ) ) ;
#170 = CARTESIAN_POINT ( 'NONE',  ( 0.000000000000000000, 0.8750000000000000000, -0.2187499999999998890 ) ) ;
#171 = VERTEX_POINT ( 'NONE', #280 ) ;
#172 = ORIENTED_EDGE ( 'NONE', *, *, #353, .T. ) ;
#173 = STYLED_ITEM ( 'NONE', ( #34 ), #360 ) ;
#174 = ORIENTED_EDGE ( 'NONE', *, *, #61, .F. ) ;
#175 = CYLINDRICAL_SURFACE ( 'NONE', #190, 0.2187499999999997224 ) ;
#176 = PRESENTATION_STYLE_ASSIGNMENT (( #83 ) ) ;
#177 = EDGE_LOOP ( 'NONE', ( #84, #348, #54, #141 ) ) ;
#178 = AXIS2_PLACEMENT_3D ( 'NONE', #232, #153, #263 ) ;
#179 =( LENGTH_UNIT ( ) NAMED_UNIT ( * ) SI_UNIT ( $, .METRE. ) );
#180 = EDGE_CURVE ( 'NONE', #111, #371, #335, .T. ) ;
#181 = LENGTH_MEASURE_WITH_UNIT ( LENGTH_MEASURE( 0.02539999999999999897 ), #42 );
#182 = FILL_AREA_STYLE_COLOUR ( '', #124 ) ;
#183 = CARTESIAN_POINT ( 'NONE',  ( 2.678914873134835372E-17, 0.2187500000000000278, 0.2187500000000000000 ) ) ;
#184 = DIRECTION ( 'NONE',  ( -1.000000000000000000, 0.000000000000000000, 0.000000000000000000 ) ) ;
#185 = PRESENTATION_STYLE_ASSIGNMENT (( #120 ) ) ;
#186 = AXIS2_PLACEMENT_3D ( 'NONE', #129, #350, #160 ) ;
#187 = DIMENSIONAL_EXPONENTS ( 1.000000000000000000, 0.000000000000000000, 0.000000000000000000, 0.000000000000000000, 0.000000000000000000, 0.000000000000000000, 0.000000000000000000 ) ;
#188 = CARTESIAN_POINT ( 'NONE',  ( 2.678914873134834756E-17, 0.000000000000000000, 0.2187499999999999445 ) ) ;
#189 = VECTOR ( 'NONE', #276, 39.37007874015748143 ) ;
#190 = AXIS2_PLACEMENT_3D ( 'NONE', #3, #346, #318 ) ;
#191 = EDGE_CURVE ( 'NONE', #258, #111, #70, .T. ) ;
#192 = PRESENTATION_STYLE_ASSIGNMENT (( #167 ) ) ;
#193 = LINE ( 'NONE', #162, #269 ) ;
#194 = AXIS2_PLACEMENT_3D ( 'NONE', #131, #306, #72 ) ;
#195 = CIRCLE ( 'NONE', #89, 0.2187500000000000278 ) ;
#196 = DIRECTION ( 'NONE',  ( 0.000000000000000000, 0.000000000000000000, -1.000000000000000000 ) ) ;
#197 = PRODUCT ( '84764', '84764', '', ( #104 ) ) ;
#198 = ORIENTED_EDGE ( 'NONE', *, *, #255, .T. ) ;
#199 = EDGE_LOOP ( 'NONE', ( #148, #313 ) ) ;
#200 = STYLED_ITEM ( 'NONE', ( #205 ), #68 ) ;
#201 = DIRECTION ( 'NONE',  ( -4.082155997157843202E-17, 1.000000000000000000, -0.000000000000000000 ) ) ;
#202 = ORIENTED_EDGE ( 'NONE', *, *, #61, .T. ) ;
#203 = ORIENTED_EDGE ( 'NONE', *, *, #139, .F. ) ;
#204 = CARTESIAN_POINT ( 'NONE',  ( 0.000000000000000000, 0.8750000000000000000, 0.000000000000000000 ) ) ;
#205 = PRESENTATION_STYLE_ASSIGNMENT (( #65 ) ) ;
#206 = EDGE_CURVE ( 'NONE', #33, #253, #29, .T. ) ;
#207 = UNCERTAINTY_MEASURE_WITH_UNIT (LENGTH_MEASURE( 1.000000000000000082E-05 ), #236, 'distance_accuracy_value', 'NONE');
#208 = DIRECTION ( 'NONE',  ( 1.224646799147353207E-16, -0.000000000000000000, 1.000000000000000000 ) ) ;
#209 = FILL_AREA_STYLE_COLOUR ( '', #214 ) ;
#210 = CARTESIAN_POINT ( 'NONE',  ( 0.000000000000000000, 0.2187500000000000278, 0.000000000000000000 ) ) ;
#211 = SURFACE_STYLE_USAGE ( .BOTH. , #241 ) ;
#212 = LENGTH_MEASURE_WITH_UNIT ( LENGTH_MEASURE( 0.02539999999999999897 ), #301 );
#213 = AXIS2_PLACEMENT_3D ( 'NONE', #8, #82, #281 ) ;
#214 = COLOUR_RGB ( '',1.000000000000000000, 0.000000000000000000, 0.000000000000000000 ) ;
#215 = DIMENSIONAL_EXPONENTS ( 1.000000000000000000, 0.000000000000000000, 0.000000000000000000, 0.000000000000000000, 0.000000000000000000, 0.000000000000000000, 0.000000000000000000 ) ;
#216 = DIRECTION ( 'NONE',  ( -1.000000000000000000, 0.000000000000000000, 0.000000000000000000 ) ) ;
#217 = DIRECTION ( 'NONE',  ( -4.082155997157843202E-17, 1.000000000000000000, -0.000000000000000000 ) ) ;
#218 = ADVANCED_FACE ( 'NONE', ( #363 ), #19, .T. ) ;
#219 = DIRECTION ( 'NONE',  ( 0.000000000000000000, 0.000000000000000000, -1.000000000000000000 ) ) ;
#220 = STYLED_ITEM ( 'NONE', ( #185 ), #367 ) ;
#221 =( LENGTH_UNIT ( ) NAMED_UNIT ( * ) SI_UNIT ( $, .METRE. ) );
#222 = ADVANCED_FACE ( 'NONE', ( #20 ), #50, .T. ) ;
#223 = DIRECTION ( 'NONE',  ( -0.000000000000000000, -1.000000000000000000, -0.000000000000000000 ) ) ;
#224 = ORIENTED_EDGE ( 'NONE', *, *, #38, .T. ) ;
#225 = FILL_AREA_STYLE_COLOUR ( '', #143 ) ;
#226 = VERTEX_POINT ( 'NONE', #78 ) ;
#227 = EDGE_CURVE ( 'NONE', #258, #31, #193, .T. ) ;
#228 = CARTESIAN_POINT ( 'NONE',  ( 0.2187499999999999167, 2.750000000000000000, 2.678914873134832598E-17 ) ) ;
#229 = EDGE_LOOP ( 'NONE', ( #203, #344, #288, #202 ) ) ;
#230 = AXIS2_PLACEMENT_3D ( 'NONE', #250, #217, #216 ) ;
#231 =( CONVERSION_BASED_UNIT ( 'INCH', #85 ) LENGTH_UNIT ( ) NAMED_UNIT ( #243 ) );
#232 = CARTESIAN_POINT ( 'NONE',  ( 0.2187499999999999167, 2.750000000000000000, 0.000000000000000000 ) ) ;
#233 = UNCERTAINTY_MEASURE_WITH_UNIT (LENGTH_MEASURE( 1.000000000000000082E-05 ), #231, 'distance_accuracy_value', 'NONE');
#234 = ADVANCED_FACE ( 'NONE', ( #246 ), #105, .F. ) ;
#235 = ORIENTED_EDGE ( 'NONE', *, *, #206, .T. ) ;
#236 =( CONVERSION_BASED_UNIT ( 'INCH', #321 ) LENGTH_UNIT ( ) NAMED_UNIT ( #49 ) );
#237 =( LENGTH_UNIT ( ) NAMED_UNIT ( * ) SI_UNIT ( $, .METRE. ) );
#238 = PRODUCT_DEFINITION_CONTEXT ( 'detailed design', #98, 'design' ) ;
#239 = CLOSED_SHELL ( 'NONE', ( #331, #234, #222, #15 ) ) ;
#240 = MECHANICAL_DESIGN_GEOMETRIC_PRESENTATION_REPRESENTATION (  '', ( #220 ), #308 ) ;
#241 = SURFACE_SIDE_STYLE ('',( #126 ) ) ;
#242 = SURFACE_SIDE_STYLE ('',( #44 ) ) ;
#243 = DIMENSIONAL_EXPONENTS ( 1.000000000000000000, 0.000000000000000000, 0.000000000000000000, 0.000000000000000000, 0.000000000000000000, 0.000000000000000000, 0.000000000000000000 ) ;
#244 = FILL_AREA_STYLE_COLOUR ( '', #279 ) ;
#245 = AXIS2_PLACEMENT_3D ( 'NONE', #287, #223, #196 ) ;
#246 = FACE_OUTER_BOUND ( 'NONE', #199, .T. ) ;
#247 = CARTESIAN_POINT ( 'NONE',  ( 0.000000000000000000, 0.8750000000000000000, 0.000000000000000000 ) ) ;
#248 = AXIS2_PLACEMENT_3D ( 'NONE', #24, #366, #103 ) ;
#249 =( GEOMETRIC_REPRESENTATION_CONTEXT ( 3 ) GLOBAL_UNCERTAINTY_ASSIGNED_CONTEXT ( ( #207 ) ) GLOBAL_UNIT_ASSIGNED_CONTEXT ( ( #236, #154, #265 ) ) REPRESENTATION_CONTEXT ( 'NONE', 'WORKASPACE' ) );
#250 = CARTESIAN_POINT ( 'NONE',  ( 1.530808498934191817E-16, 2.750000000000000000, 0.000000000000000000 ) ) ;
#251 = ADVANCED_FACE ( 'NONE', ( #108 ), #307, .T. ) ;
#252 = LENGTH_MEASURE_WITH_UNIT ( LENGTH_MEASURE( 0.02539999999999999897 ), #91 );
#253 = VERTEX_POINT ( 'NONE', #228 ) ;
#254 = MECHANICAL_DESIGN_GEOMETRIC_PRESENTATION_REPRESENTATION (  '', ( #36 ), #345 ) ;
#255 = EDGE_CURVE ( 'NONE', #226, #371, #6, .T. ) ;
#256 = ORIENTED_EDGE ( 'NONE', *, *, #180, .T. ) ;
#257 = CARTESIAN_POINT ( 'NONE',  ( 0.000000000000000000, 0.8750000000000000000, 0.000000000000000000 ) ) ;
#258 = VERTEX_POINT ( 'NONE', #170 ) ;
#259 = MANIFOLD_SOLID_BREP ( 'Revolve - Cutting Edge', #106 ) ;
#260 = DIRECTION ( 'NONE',  ( 0.000000000000000000, 0.000000000000000000, -1.000000000000000000 ) ) ;
#261 = ORIENTED_EDGE ( 'NONE', *, *, #227, .T. ) ;
#262 = STYLED_ITEM ( 'NONE', ( #100 ), #142 ) ;
#263 = DIRECTION ( 'NONE',  ( 1.000000000000000000, 4.082155997157843202E-17, 0.000000000000000000 ) ) ;
#264 = UNCERTAINTY_MEASURE_WITH_UNIT (LENGTH_MEASURE( 1.000000000000000082E-05 ), #41, 'distance_accuracy_value', 'NONE');
#265 =( NAMED_UNIT ( * ) SI_UNIT ( $, .STERADIAN. ) SOLID_ANGLE_UNIT ( ) );
#266 = SURFACE_STYLE_FILL_AREA ( #155 ) ;
#267 = SURFACE_SIDE_STYLE ('',( #266 ) ) ;
#268 = UNCERTAINTY_MEASURE_WITH_UNIT (LENGTH_MEASURE( 1.000000000000000082E-05 ), #305, 'distance_accuracy_value', 'NONE');
#269 = VECTOR ( 'NONE', #166, 39.37007874015748143 ) ;
#270 =( GEOMETRIC_REPRESENTATION_CONTEXT ( 3 ) GLOBAL_UNCERTAINTY_ASSIGNED_CONTEXT ( ( #233 ) ) GLOBAL_UNIT_ASSIGNED_CONTEXT ( ( #231, #372, #55 ) ) REPRESENTATION_CONTEXT ( 'NONE', 'WORKASPACE' ) );
#271 = FILL_AREA_STYLE_COLOUR ( '', #369 ) ;
#272 = PLANE ( 'NONE',  #361 ) ;
#273 =( NAMED_UNIT ( * ) PLANE_ANGLE_UNIT ( ) SI_UNIT ( $, .RADIAN. ) );
#274 = DIMENSIONAL_EXPONENTS ( 1.000000000000000000, 0.000000000000000000, 0.000000000000000000, 0.000000000000000000, 0.000000000000000000, 0.000000000000000000, 0.000000000000000000 ) ;
#275 = CIRCLE ( 'NONE', #338, 0.2187499999999996947 ) ;
#276 = DIRECTION ( 'NONE',  ( -0.000000000000000000, -1.000000000000000000, -0.000000000000000000 ) ) ;
#277 = CARTESIAN_POINT ( 'NONE',  ( -2.678914873134835064E-17, 0.2187500000000000000, 0.000000000000000000 ) ) ;
#278 = DIRECTION ( 'NONE',  ( 0.000000000000000000, 0.000000000000000000, 1.000000000000000000 ) ) ;
#279 = COLOUR_RGB ( '',1.000000000000000000, 0.000000000000000000, 0.000000000000000000 ) ;
#280 = CARTESIAN_POINT ( 'NONE',  ( -1.339457436567417378E-17, -3.414809992080329023E-17, 0.000000000000000000 ) ) ;
#281 = DIRECTION ( 'NONE',  ( -1.000000000000000000, 0.000000000000000000, 0.000000000000000000 ) ) ;
#282 = PRODUCT_DEFINITION ( 'UNKNOWN', '', #159, #238 ) ;
#283 = VERTEX_POINT ( 'NONE', #145 ) ;
#284 = MECHANICAL_DESIGN_GEOMETRIC_PRESENTATION_REPRESENTATION (  '', ( #262 ), #152 ) ;
#285 = PRESENTATION_LAYER_ASSIGNMENT (  '', '', ( #220 ) ) ;
#286 = EDGE_LOOP ( 'NONE', ( #172, #310, #174, #198 ) ) ;
#287 = CARTESIAN_POINT ( 'NONE',  ( 0.000000000000000000, 0.2187500000000000278, 0.000000000000000000 ) ) ;
#288 = ORIENTED_EDGE ( 'NONE', *, *, #364, .T. ) ;
#289 = UNCERTAINTY_MEASURE_WITH_UNIT (LENGTH_MEASURE( 1.000000000000000082E-05 ), #328, 'distance_accuracy_value', 'NONE');
#290 = DIRECTION ( 'NONE',  ( -0.000000000000000000, -1.000000000000000000, -0.000000000000000000 ) ) ;
#291 = ORIENTED_EDGE ( 'NONE', *, *, #149, .F. ) ;
#292 = EDGE_CURVE ( 'NONE', #111, #258, #334, .T. ) ;
#293 = PRESENTATION_LAYER_ASSIGNMENT (  '', '', ( #36 ) ) ;
#294 = PRESENTATION_LAYER_ASSIGNMENT (  '', '', ( #80 ) ) ;
#295 = DIRECTION ( 'NONE',  ( 0.000000000000000000, 0.000000000000000000, -1.000000000000000000 ) ) ;
#296 = DIRECTION ( 'NONE',  ( -4.082155997157843202E-17, 1.000000000000000000, -0.000000000000000000 ) ) ;
#297 = FACE_OUTER_BOUND ( 'NONE', #115, .T. ) ;
#298 = DIRECTION ( 'NONE',  ( 1.000000000000000000, 0.000000000000000000, 0.000000000000000000 ) ) ;
#299 = FILL_AREA_STYLE_COLOUR ( '', #300 ) ;
#300 = COLOUR_RGB ( '',1.000000000000000000, 0.000000000000000000, 0.000000000000000000 ) ;
#301 =( LENGTH_UNIT ( ) NAMED_UNIT ( * ) SI_UNIT ( $, .METRE. ) );
#302 = EDGE_CURVE ( 'NONE', #283, #33, #343, .T. ) ;
#303 = DIMENSIONAL_EXPONENTS ( 1.000000000000000000, 0.000000000000000000, 0.000000000000000000, 0.000000000000000000, 0.000000000000000000, 0.000000000000000000, 0.000000000000000000 ) ;
#304 = APPLICATION_PROTOCOL_DEFINITION ( 'draft international standard', 'automotive_design', 1998, #98 ) ;
#305 =( CONVERSION_BASED_UNIT ( 'INCH', #75 ) LENGTH_UNIT ( ) NAMED_UNIT ( #215 ) );
#306 = DIRECTION ( 'NONE',  ( 0.000000000000000000, 0.000000000000000000, 1.000000000000000000 ) ) ;
#307 = CYLINDRICAL_SURFACE ( 'NONE', #327, 0.2187499999999999445 ) ;
#308 =( GEOMETRIC_REPRESENTATION_CONTEXT ( 3 ) GLOBAL_UNCERTAINTY_ASSIGNED_CONTEXT ( ( #64 ) ) GLOBAL_UNIT_ASSIGNED_CONTEXT ( ( #71, #122, #326 ) ) REPRESENTATION_CONTEXT ( 'NONE', 'WORKASPACE' ) );
#309 = SURFACE_SIDE_STYLE ('',( #27 ) ) ;
#310 = ORIENTED_EDGE ( 'NONE', *, *, #139, .T. ) ;
#311 = FILL_AREA_STYLE ('',( #225 ) ) ;
#312 = ORIENTED_EDGE ( 'NONE', *, *, #191, .T. ) ;
#313 = ORIENTED_EDGE ( 'NONE', *, *, #38, .F. ) ;
#314 = AXIS2_PLACEMENT_3D ( 'NONE', #121, #94, #184 ) ;
#315 = AXIS2_PLACEMENT_3D ( 'NONE', #62, #93, #295 ) ;
#316 = SURFACE_STYLE_USAGE ( .BOTH. , #114 ) ;
#317 = ORIENTED_EDGE ( 'NONE', *, *, #255, .F. ) ;
#318 = DIRECTION ( 'NONE',  ( -1.000000000000000000, 0.000000000000000000, 0.000000000000000000 ) ) ;
#319 = ORIENTED_EDGE ( 'NONE', *, *, #292, .T. ) ;
#320 = CIRCLE ( 'NONE', #163, 0.2187500000000000278 ) ;
#321 = LENGTH_MEASURE_WITH_UNIT ( LENGTH_MEASURE( 0.02539999999999999897 ), #179 );
#322 = CARTESIAN_POINT ( 'NONE',  ( 0.000000000000000000, 0.2187500000000000278, 0.000000000000000000 ) ) ;
#323 = DIRECTION ( 'NONE',  ( 0.000000000000000000, -0.000000000000000000, 1.000000000000000000 ) ) ;
#324 = CARTESIAN_POINT ( 'NONE',  ( -2.678914873134835064E-17, 0.2187500000000000000, 0.000000000000000000 ) ) ;
#325 = DIRECTION ( 'NONE',  ( 0.000000000000000000, 0.000000000000000000, -1.000000000000000000 ) ) ;
#326 =( NAMED_UNIT ( * ) SI_UNIT ( $, .STERADIAN. ) SOLID_ANGLE_UNIT ( ) );
#327 = AXIS2_PLACEMENT_3D ( 'NONE', #81, #112, #340 ) ;
#328 =( CONVERSION_BASED_UNIT ( 'INCH', #212 ) LENGTH_UNIT ( ) NAMED_UNIT ( #303 ) );
#329 = DIMENSIONAL_EXPONENTS ( 1.000000000000000000, 0.000000000000000000, 0.000000000000000000, 0.000000000000000000, 0.000000000000000000, 0.000000000000000000, 0.000000000000000000 ) ;
#330 = DIRECTION ( 'NONE',  ( 0.000000000000000000, 0.000000000000000000, -1.000000000000000000 ) ) ;
#331 = ADVANCED_FACE ( 'NONE', ( #58 ), #175, .T. ) ;
#332 = CIRCLE ( 'NONE', #213, 0.2187499999999996947 ) ;
#333 = FILL_AREA_STYLE ('',( #244 ) ) ;
#334 = CIRCLE ( 'NONE', #107, 0.2187499999999998890 ) ;
#335 = LINE ( 'NONE', #188, #189 ) ;
#336 =( NAMED_UNIT ( * ) PLANE_ANGLE_UNIT ( ) SI_UNIT ( $, .RADIAN. ) );
#337 = SURFACE_STYLE_FILL_AREA ( #311 ) ;
#338 = AXIS2_PLACEMENT_3D ( 'NONE', #356, #16, #69 ) ;
#339 =( GEOMETRIC_REPRESENTATION_CONTEXT ( 3 ) GLOBAL_UNCERTAINTY_ASSIGNED_CONTEXT ( ( #5 ) ) GLOBAL_UNIT_ASSIGNED_CONTEXT ( ( #138, #368, #140 ) ) REPRESENTATION_CONTEXT ( 'NONE', 'WORKASPACE' ) );
#340 = DIRECTION ( 'NONE',  ( 0.000000000000000000, 0.000000000000000000, -1.000000000000000000 ) ) ;
#341 = ORIENTED_EDGE ( 'NONE', *, *, #227, .F. ) ;
#342 = EDGE_LOOP ( 'NONE', ( #312, #256, #317, #144, #341 ) ) ;
#343 = LINE ( 'NONE', #87, #164 ) ;
#344 = ORIENTED_EDGE ( 'NONE', *, *, #149, .T. ) ;
#345 =( GEOMETRIC_REPRESENTATION_CONTEXT ( 3 ) GLOBAL_UNCERTAINTY_ASSIGNED_CONTEXT ( ( #268 ) ) GLOBAL_UNIT_ASSIGNED_CONTEXT ( ( #305, #336, #51 ) ) REPRESENTATION_CONTEXT ( 'NONE', 'WORKASPACE' ) );
#346 = DIRECTION ( 'NONE',  ( -4.082155997157843202E-17, 1.000000000000000000, -0.000000000000000000 ) ) ;
#347 = APPLICATION_CONTEXT ( 'automotive_design' ) ;
#348 = ORIENTED_EDGE ( 'NONE', *, *, #77, .T. ) ;
#349 = DIRECTION ( 'NONE',  ( -0.000000000000000000, -1.000000000000000000, -0.000000000000000000 ) ) ;
#350 = DIRECTION ( 'NONE',  ( 0.000000000000000000, 0.000000000000000000, -1.000000000000000000 ) ) ;
#351 = DIRECTION ( 'NONE',  ( 0.000000000000000000, 0.000000000000000000, -1.000000000000000000 ) ) ;
#352 = LINE ( 'NONE', #9, #95 ) ;
#353 = EDGE_CURVE ( 'NONE', #371, #86, #370, .T. ) ;
#354 = AXIS2_PLACEMENT_3D ( 'NONE', #247, #137, #219 ) ;
#355 = FACE_OUTER_BOUND ( 'NONE', #229, .T. ) ;
#356 = CARTESIAN_POINT ( 'NONE',  ( 2.296212748401287479E-16, 0.8749999999999997780, 0.000000000000000000 ) ) ;
#357 = CARTESIAN_POINT ( 'NONE',  ( 0.2187499999999999167, 0.8749999999999997780, 2.678914873134832598E-17 ) ) ;
#358 = AXIS2_PLACEMENT_3D ( 'NONE', #324, #66, #298 ) ;
#359 = CIRCLE ( 'NONE', #314, 0.2187499999999997780 ) ;
#360 = ADVANCED_FACE ( 'NONE', ( #10 ), #127, .T. ) ;
#361 = AXIS2_PLACEMENT_3D ( 'NONE', #204, #97, #323 ) ;
#362 =( NAMED_UNIT ( * ) PLANE_ANGLE_UNIT ( ) SI_UNIT ( $, .RADIAN. ) );
#363 = FACE_OUTER_BOUND ( 'NONE', #286, .T. ) ;
#364 = EDGE_CURVE ( 'NONE', #31, #226, #195, .T. ) ;
#365 = DIRECTION ( 'NONE',  ( -1.000000000000000000, -4.082155997157843202E-17, 0.000000000000000000 ) ) ;
#366 = DIRECTION ( 'NONE',  ( -4.082155997157843202E-17, 1.000000000000000000, -0.000000000000000000 ) ) ;
#367 = ADVANCED_FACE ( 'NONE', ( #297 ), #272, .T. ) ;
#368 =( NAMED_UNIT ( * ) PLANE_ANGLE_UNIT ( ) SI_UNIT ( $, .RADIAN. ) );
#369 = COLOUR_RGB ( '',0.7921568627450980005, 0.8196078431372548767, 0.9333333333333333481 ) ;
#370 = CIRCLE ( 'NONE', #30, 0.2187500000000000278 ) ;
#371 = VERTEX_POINT ( 'NONE', #183 ) ;
#372 =( NAMED_UNIT ( * ) PLANE_ANGLE_UNIT ( ) SI_UNIT ( $, .RADIAN. ) );
#373 = ORIENTED_EDGE ( 'NONE', *, *, #191, .F. ) ;
ENDSEC;
END-ISO-10303-21;
