ISO-10303-21;
HEADER;
FILE_DESCRIPTION (( 'STEP AP214' ),
    '1' );
FILE_NAME ('Micro_EMHM-060-6.STEP',
    '2021-09-01T17:22:13',
    ( '' ),
    ( '' ),
    'SwSTEP 2.0',
    'SolidWorks 2020',
    '' );
FILE_SCHEMA (( 'AUTOMOTIVE_DESIGN' ));
ENDSEC;

DATA;
#1 = VERTEX_POINT ( 'NONE', #201 ) ;
#2 = EDGE_CURVE ( 'NONE', #100, #194, #240, .T. ) ;
#3 = COLOUR_RGB ( '',0.7921568627450980005, 0.8196078431372548767, 0.9333333333333333481 ) ;
#4 = ORIENTED_EDGE ( 'NONE', *, *, #69, .F. ) ;
#5 = EDGE_LOOP ( 'NONE', ( #228, #60, #171, #168 ) ) ;
#6 = ORIENTED_EDGE ( 'NONE', *, *, #188, .F. ) ;
#7 = APPLICATION_CONTEXT ( 'automotive_design' ) ;
#8 = DIMENSIONAL_EXPONENTS ( 1.000000000000000000, 0.0000000000000000000, 0.0000000000000000000, 0.0000000000000000000, 0.0000000000000000000, 0.0000000000000000000, 0.0000000000000000000 ) ;
#9 = EDGE_LOOP ( 'NONE', ( #119, #210 ) ) ;
#10 = DIRECTION ( 'NONE',  ( -1.000000000000000000, 0.0000000000000000000, 0.0000000000000000000 ) ) ;
#11 = AXIS2_PLACEMENT_3D ( 'NONE', #85, #128, #242 ) ;
#12 = PRODUCT_DEFINITION ( 'UNKNOWN', '', #187, #26 ) ;
#13 = CARTESIAN_POINT ( 'NONE',  ( 0.0000000000000000000, 0.0000000000000000000, 2.244094000000000033 ) ) ;
#14 = DIRECTION ( 'NONE',  ( -1.224646799147353207E-16, -0.0000000000000000000, -1.000000000000000000 ) ) ;
#15 = SURFACE_SIDE_STYLE ('',( #216 ) ) ;
#16 = DIRECTION ( 'NONE',  ( -1.224646799147353207E-16, -0.0000000000000000000, -1.000000000000000000 ) ) ;
#17 =( LENGTH_UNIT ( ) NAMED_UNIT ( * ) SI_UNIT ( $, .METRE. ) );
#18 = CIRCLE ( 'NONE', #200, 0.1181100000000000066 ) ;
#19 = DIRECTION ( 'NONE',  ( 0.0000000000000000000, 0.0000000000000000000, -1.000000000000000000 ) ) ;
#20 = CARTESIAN_POINT ( 'NONE',  ( 8.678594253305624695E-17, 0.0000000000000000000, 0.7086609999999999854 ) ) ;
#21 = CIRCLE ( 'NONE', #137, 0.1031100000000002570 ) ;
#22 = DIRECTION ( 'NONE',  ( 1.000000000000000000, 0.0000000000000000000, 0.0000000000000000000 ) ) ;
#23 = LENGTH_MEASURE_WITH_UNIT ( LENGTH_MEASURE( 0.02539999999999999897 ), #43 );
#24 = ADVANCED_FACE ( 'NONE', ( #84 ), #37, .F. ) ;
#25 = AXIS2_PLACEMENT_3D ( 'NONE', #221, #138, #161 ) ;
#26 = PRODUCT_DEFINITION_CONTEXT ( 'detailed design', #70, 'design' ) ;
#27 = ORIENTED_EDGE ( 'NONE', *, *, #98, .T. ) ;
#28 = ORIENTED_EDGE ( 'NONE', *, *, #274, .F. ) ;
#29 = ORIENTED_EDGE ( 'NONE', *, *, #203, .F. ) ;
#30 = CARTESIAN_POINT ( 'NONE',  ( -0.1181099999999999234, 0.0000000000000000000, 0.7093308350957150399 ) ) ;
#31 = CARTESIAN_POINT ( 'NONE',  ( 0.0000000000000000000, 0.0000000000000000000, 2.244094000000000033 ) ) ;
#32 = LINE ( 'NONE', #217, #261 ) ;
#33 = STYLED_ITEM ( 'NONE', ( #289 ), #102 ) ;
#34 = FILL_AREA_STYLE ('',( #241 ) ) ;
#35 = FACE_OUTER_BOUND ( 'NONE', #5, .T. ) ;
#36 = PRODUCT_DEFINITION_SHAPE ( 'NONE', 'NONE',  #12 ) ;
#37 = PLANE ( 'NONE',  #117 ) ;
#38 = COLOUR_RGB ( '',0.7921568627450980005, 0.8196078431372548767, 0.9333333333333333481 ) ;
#39 = DIRECTION ( 'NONE',  ( 0.0000000000000000000, 0.0000000000000000000, -1.000000000000000000 ) ) ;
#40 = FACE_OUTER_BOUND ( 'NONE', #77, .T. ) ;
#41 = AXIS2_PLACEMENT_3D ( 'NONE', #104, #199, #290 ) ;
#42 = PRESENTATION_STYLE_ASSIGNMENT (( #184 ) ) ;
#43 =( LENGTH_UNIT ( ) NAMED_UNIT ( * ) SI_UNIT ( $, .METRE. ) );
#44 = PRODUCT_CONTEXT ( 'NONE', #7, 'mechanical' ) ;
#45 = EDGE_CURVE ( 'NONE', #100, #146, #57, .T. ) ;
#46 = AXIS2_PLACEMENT_3D ( 'NONE', #31, #39, #198 ) ;
#47 = ORIENTED_EDGE ( 'NONE', *, *, #2, .T. ) ;
#48 = UNCERTAINTY_MEASURE_WITH_UNIT (LENGTH_MEASURE( 1.000000000000000082E-05 ), #266, 'distance_accuracy_value', 'NONE');
#49 = ORIENTED_EDGE ( 'NONE', *, *, #2, .F. ) ;
#50 = ORIENTED_EDGE ( 'NONE', *, *, #274, .T. ) ;
#51 = EDGE_LOOP ( 'NONE', ( #259, #279, #49, #6 ) ) ;
#52 = ADVANCED_FACE ( 'NONE', ( #237 ), #224, .T. ) ;
#53 = ORIENTED_EDGE ( 'NONE', *, *, #232, .T. ) ;
#54 = CARTESIAN_POINT ( 'NONE',  ( -0.1031100000000002570, 0.0000000000000000000, 2.244094000000000033 ) ) ;
#55 = DIRECTION ( 'NONE',  ( 1.000000000000000000, 0.0000000000000000000, -0.0000000000000000000 ) ) ;
#56 = DIRECTION ( 'NONE',  ( -0.7071067811865358044, 0.0000000000000000000, -0.7071067811865590080 ) ) ;
#57 = LINE ( 'NONE', #263, #111 ) ;
#58 = DIRECTION ( 'NONE',  ( -1.000000000000000000, 0.0000000000000000000, 0.0000000000000000000 ) ) ;
#59 = CIRCLE ( 'NONE', #277, 0.1181100000000000066 ) ;
#60 = ORIENTED_EDGE ( 'NONE', *, *, #164, .T. ) ;
#61 = FACE_OUTER_BOUND ( 'NONE', #280, .T. ) ;
#62 = DIMENSIONAL_EXPONENTS ( 1.000000000000000000, 0.0000000000000000000, 0.0000000000000000000, 0.0000000000000000000, 0.0000000000000000000, 0.0000000000000000000, 0.0000000000000000000 ) ;
#63 = DIRECTION ( 'NONE',  ( 0.1736481776669313304, 0.0000000000000000000, 0.9848077530122077983 ) ) ;
#64 = LINE ( 'NONE', #174, #93 ) ;
#65 = DIRECTION ( 'NONE',  ( 1.000000000000000000, 0.0000000000000000000, -0.0000000000000000000 ) ) ;
#66 = CONICAL_SURFACE ( 'NONE', #227, 0.1179918900000000159, 0.1745329251994338360 ) ;
#67 = CARTESIAN_POINT ( 'NONE',  ( 0.1179918900000000992, 0.0000000000000000000, 0.7086609999999999854 ) ) ;
#68 = AXIS2_PLACEMENT_3D ( 'NONE', #123, #236, #108 ) ;
#69 = EDGE_CURVE ( 'NONE', #268, #122, #265, .T. ) ;
#70 = APPLICATION_CONTEXT ( 'automotive_design' ) ;
#71 = ORIENTED_EDGE ( 'NONE', *, *, #69, .T. ) ;
#72 = ORIENTED_EDGE ( 'NONE', *, *, #272, .T. ) ;
#73 = ADVANCED_FACE ( 'NONE', ( #214 ), #140, .T. ) ;
#74 = AXIS2_PLACEMENT_3D ( 'NONE', #196, #80, #10 ) ;
#75 = ORIENTED_EDGE ( 'NONE', *, *, #232, .F. ) ;
#76 = PRODUCT_RELATED_PRODUCT_CATEGORY ( 'part', '', ( #94 ) ) ;
#77 = EDGE_LOOP ( 'NONE', ( #167, #165, #145, #29 ) ) ;
#78 = CARTESIAN_POINT ( 'NONE',  ( 0.1181100000000000899, 1.446430334472940009E-17, 0.7093308350957150399 ) ) ;
#79 = DIRECTION ( 'NONE',  ( 0.0000000000000000000, 0.0000000000000000000, 1.000000000000000000 ) ) ;
#80 = DIRECTION ( 'NONE',  ( -0.0000000000000000000, -0.0000000000000000000, -1.000000000000000000 ) ) ;
#81 = AXIS2_PLACEMENT_3D ( 'NONE', #125, #219, #218 ) ;
#82 =( NAMED_UNIT ( * ) SI_UNIT ( $, .STERADIAN. ) SOLID_ANGLE_UNIT ( ) );
#83 = CIRCLE ( 'NONE', #144, 0.1179918900000000159 ) ;
#84 = FACE_OUTER_BOUND ( 'NONE', #9, .T. ) ;
#85 = CARTESIAN_POINT ( 'NONE',  ( 0.0000000000000000000, 0.0000000000000000000, 2.244094000000000033 ) ) ;
#86 = SHAPE_DEFINITION_REPRESENTATION ( #36, #124 ) ;
#87 = PLANE ( 'NONE',  #193 ) ;
#88 =( CONVERSION_BASED_UNIT ( 'INCH', #205 ) LENGTH_UNIT ( ) NAMED_UNIT ( #62 ) );
#89 =( NAMED_UNIT ( * ) SI_UNIT ( $, .STERADIAN. ) SOLID_ANGLE_UNIT ( ) );
#90 = EDGE_CURVE ( 'NONE', #1, #116, #21, .T. ) ;
#91 = CARTESIAN_POINT ( 'NONE',  ( 0.0000000000000000000, 0.0000000000000000000, 2.244094000000000033 ) ) ;
#92 = EDGE_CURVE ( 'NONE', #1, #194, #286, .T. ) ;
#93 = VECTOR ( 'NONE', #56, 39.37007874015748854 ) ;
#94 = PRODUCT ( 'Micro_EMHM-060-6', 'Micro_EMHM-060-6', '', ( #44 ) ) ;
#95 = CIRCLE ( 'NONE', #25, 0.1031100000000002570 ) ;
#96 = ORIENTED_EDGE ( 'NONE', *, *, #164, .F. ) ;
#97 = EDGE_LOOP ( 'NONE', ( #50, #256 ) ) ;
#98 = EDGE_CURVE ( 'NONE', #194, #122, #178, .T. ) ;
#99 = STYLED_ITEM ( 'NONE', ( #42 ), #124 ) ;
#100 = VERTEX_POINT ( 'NONE', #151 ) ;
#101 = DIRECTION ( 'NONE',  ( 1.000000000000000000, 0.0000000000000000000, 0.0000000000000000000 ) ) ;
#102 = MANIFOLD_SOLID_BREP ( 'Cut-Revolve1', #163 ) ;
#103 = SURFACE_STYLE_USAGE ( .BOTH. , #15 ) ;
#104 = CARTESIAN_POINT ( 'NONE',  ( 1.769594913022618037E-33, 0.0000000000000000000, 1.444983904138465938E-17 ) ) ;
#105 = MECHANICAL_DESIGN_GEOMETRIC_PRESENTATION_REPRESENTATION (  '', ( #33 ), #150 ) ;
#106 = DIRECTION ( 'NONE',  ( -0.0000000000000000000, -0.0000000000000000000, -1.000000000000000000 ) ) ;
#107 = CARTESIAN_POINT ( 'NONE',  ( 0.0000000000000000000, 0.0000000000000000000, 2.244094000000000033 ) ) ;
#108 = DIRECTION ( 'NONE',  ( -1.000000000000000000, 0.0000000000000000000, 1.224646799147352961E-16 ) ) ;
#109 = ADVANCED_FACE ( 'NONE', ( #61 ), #170, .T. ) ;
#110 = CYLINDRICAL_SURFACE ( 'NONE', #130, 0.1179918900000000159 ) ;
#111 = VECTOR ( 'NONE', #148, 39.37007874015748143 ) ;
#112 = SURFACE_STYLE_FILL_AREA ( #136 ) ;
#113 = PRESENTATION_LAYER_ASSIGNMENT (  '', '', ( #33 ) ) ;
#114 = VERTEX_POINT ( 'NONE', #172 ) ;
#115 = MECHANICAL_DESIGN_GEOMETRIC_PRESENTATION_REPRESENTATION (  '', ( #99 ), #234 ) ;
#116 = VERTEX_POINT ( 'NONE', #54 ) ;
#117 = AXIS2_PLACEMENT_3D ( 'NONE', #173, #195, #55 ) ;
#118 = ORIENTED_EDGE ( 'NONE', *, *, #135, .T. ) ;
#119 = ORIENTED_EDGE ( 'NONE', *, *, #132, .T. ) ;
#120 = ORIENTED_EDGE ( 'NONE', *, *, #188, .T. ) ;
#121 = CYLINDRICAL_SURFACE ( 'NONE', #74, 0.1181100000000000066 ) ;
#122 = VERTEX_POINT ( 'NONE', #78 ) ;
#123 = CARTESIAN_POINT ( 'NONE',  ( 0.0000000000000000000, 0.0000000000000000000, 0.0000000000000000000 ) ) ;
#124 = ADVANCED_BREP_SHAPE_REPRESENTATION ( 'Micro_EMHM-060-6', ( #102, #293 ), #207 ) ;
#125 = CARTESIAN_POINT ( 'NONE',  ( 8.678594253305624695E-17, 0.0000000000000000000, 0.7086609999999999854 ) ) ;
#126 = CARTESIAN_POINT ( 'NONE',  ( 8.678594253305624695E-17, 0.0000000000000000000, 0.7086609999999999854 ) ) ;
#127 = SURFACE_SIDE_STYLE ('',( #112 ) ) ;
#128 = DIRECTION ( 'NONE',  ( -0.0000000000000000000, -0.0000000000000000000, -1.000000000000000000 ) ) ;
#129 = EDGE_CURVE ( 'NONE', #260, #146, #202, .T. ) ;
#130 = AXIS2_PLACEMENT_3D ( 'NONE', #160, #185, #275 ) ;
#131 = CARTESIAN_POINT ( 'NONE',  ( 0.1179918900000000992, 0.0000000000000000000, 0.7086609999999999854 ) ) ;
#132 = EDGE_CURVE ( 'NONE', #281, #114, #211, .T. ) ;
#133 = CARTESIAN_POINT ( 'NONE',  ( -0.1179918899999999188, 1.445707119305702357E-17, 0.7086609999999999854 ) ) ;
#134 = FILL_AREA_STYLE_COLOUR ( '', #38 ) ;
#135 = EDGE_CURVE ( 'NONE', #122, #146, #18, .T. ) ;
#136 = FILL_AREA_STYLE ('',( #134 ) ) ;
#137 = AXIS2_PLACEMENT_3D ( 'NONE', #13, #79, #101 ) ;
#138 = DIRECTION ( 'NONE',  ( 0.0000000000000000000, 0.0000000000000000000, 1.000000000000000000 ) ) ;
#139 = PRESENTATION_LAYER_ASSIGNMENT (  '', '', ( #99 ) ) ;
#140 = CONICAL_SURFACE ( 'NONE', #81, 0.1179918900000000159, 0.1745329251994338360 ) ;
#141 = EDGE_LOOP ( 'NONE', ( #53, #233, #212, #153 ) ) ;
#142 = ADVANCED_FACE ( 'NONE', ( #40 ), #147, .T. ) ;
#143 = ORIENTED_EDGE ( 'NONE', *, *, #129, .F. ) ;
#144 = AXIS2_PLACEMENT_3D ( 'NONE', #126, #149, #157 ) ;
#145 = ORIENTED_EDGE ( 'NONE', *, *, #197, .T. ) ;
#146 = VERTEX_POINT ( 'NONE', #30 ) ;
#147 = CYLINDRICAL_SURFACE ( 'NONE', #68, 0.1179918900000000159 ) ;
#148 = DIRECTION ( 'NONE',  ( -0.0000000000000000000, -0.0000000000000000000, -1.000000000000000000 ) ) ;
#149 = DIRECTION ( 'NONE',  ( -1.224646799147353207E-16, -0.0000000000000000000, -1.000000000000000000 ) ) ;
#150 =( GEOMETRIC_REPRESENTATION_CONTEXT ( 3 ) GLOBAL_UNCERTAINTY_ASSIGNED_CONTEXT ( ( #48 ) ) GLOBAL_UNIT_ASSIGNED_CONTEXT ( ( #266, #215, #82 ) ) REPRESENTATION_CONTEXT ( 'NONE', 'WORKASPACE' ) );
#151 = CARTESIAN_POINT ( 'NONE',  ( -0.1181100000000000066, 0.0000000000000000000, 2.229093999999999465 ) ) ;
#152 = DIRECTION ( 'NONE',  ( -1.000000000000000000, 0.0000000000000000000, 1.224646799147353454E-16 ) ) ;
#153 = ORIENTED_EDGE ( 'NONE', *, *, #197, .F. ) ;
#154 = DIRECTION ( 'NONE',  ( -1.000000000000000000, 0.0000000000000000000, 0.0000000000000000000 ) ) ;
#155 = ADVANCED_FACE ( 'NONE', ( #181 ), #291, .T. ) ;
#156 = DIRECTION ( 'NONE',  ( 0.7071067811865358044, 8.659560562354788645E-17, -0.7071067811865590080 ) ) ;
#157 = DIRECTION ( 'NONE',  ( -1.000000000000000000, 0.0000000000000000000, 0.0000000000000000000 ) ) ;
#158 = AXIS2_PLACEMENT_3D ( 'NONE', #225, #298, #22 ) ;
#159 = DIRECTION ( 'NONE',  ( 1.000000000000000000, 0.0000000000000000000, 0.0000000000000000000 ) ) ;
#160 = CARTESIAN_POINT ( 'NONE',  ( 0.0000000000000000000, 0.0000000000000000000, 0.0000000000000000000 ) ) ;
#161 = DIRECTION ( 'NONE',  ( 1.000000000000000000, 0.0000000000000000000, 0.0000000000000000000 ) ) ;
#162 = AXIS2_PLACEMENT_3D ( 'NONE', #107, #19, #58 ) ;
#163 = CLOSED_SHELL ( 'NONE', ( #250, #73, #52, #155, #166, #288, #109, #257, #142, #24 ) ) ;
#164 = EDGE_CURVE ( 'NONE', #194, #100, #59, .T. ) ;
#165 = ORIENTED_EDGE ( 'NONE', *, *, #192, .T. ) ;
#166 = ADVANCED_FACE ( 'NONE', ( #35 ), #121, .T. ) ;
#167 = ORIENTED_EDGE ( 'NONE', *, *, #292, .F. ) ;
#168 = ORIENTED_EDGE ( 'NONE', *, *, #135, .F. ) ;
#169 = ORIENTED_EDGE ( 'NONE', *, *, #272, .F. ) ;
#170 = CONICAL_SURFACE ( 'NONE', #162, 0.1031100000000002570, 0.7853981633974318477 ) ;
#171 = ORIENTED_EDGE ( 'NONE', *, *, #45, .T. ) ;
#172 = CARTESIAN_POINT ( 'NONE',  ( 0.1179918899999999882, 1.444983904138465938E-17, -1.895600338963814870E-33 ) ) ;
#173 = CARTESIAN_POINT ( 'NONE',  ( 0.0000000000000000000, 0.0000000000000000000, 0.0000000000000000000 ) ) ;
#174 = CARTESIAN_POINT ( 'NONE',  ( -0.1031100000000002570, 0.0000000000000000000, 2.244094000000000033 ) ) ;
#175 = CARTESIAN_POINT ( 'NONE',  ( 0.1181100000000000066, 1.446430334472939084E-17, 2.244094000000000033 ) ) ;
#176 = DIRECTION ( 'NONE',  ( -0.1736481776669311639, 2.126576849575782392E-17, 0.9848077530122080203 ) ) ;
#177 = VECTOR ( 'NONE', #176, 39.37007874015747433 ) ;
#178 = LINE ( 'NONE', #175, #189 ) ;
#179 = CARTESIAN_POINT ( 'NONE',  ( 8.678594253305624695E-17, 0.0000000000000000000, 0.7086609999999999854 ) ) ;
#180 = DIRECTION ( 'NONE',  ( 0.0000000000000000000, 0.0000000000000000000, -1.000000000000000000 ) ) ;
#181 = FACE_OUTER_BOUND ( 'NONE', #229, .T. ) ;
#182 = FACE_OUTER_BOUND ( 'NONE', #191, .T. ) ;
#183 = VECTOR ( 'NONE', #270, 39.37007874015748143 ) ;
#184 = SURFACE_STYLE_USAGE ( .BOTH. , #127 ) ;
#185 = DIRECTION ( 'NONE',  ( -1.224646799147353207E-16, -0.0000000000000000000, -1.000000000000000000 ) ) ;
#186 = CIRCLE ( 'NONE', #41, 0.1179918899999999882 ) ;
#187 = PRODUCT_DEFINITION_FORMATION_WITH_SPECIFIED_SOURCE ( 'ANY', '', #94, .NOT_KNOWN. ) ;
#188 = EDGE_CURVE ( 'NONE', #116, #100, #64, .T. ) ;
#189 = VECTOR ( 'NONE', #106, 39.37007874015748143 ) ;
#190 = ORIENTED_EDGE ( 'NONE', *, *, #129, .T. ) ;
#191 = EDGE_LOOP ( 'NONE', ( #143, #258, #71, #118 ) ) ;
#192 = EDGE_CURVE ( 'NONE', #268, #260, #83, .T. ) ;
#193 = AXIS2_PLACEMENT_3D ( 'NONE', #91, #252, #65 ) ;
#194 = VERTEX_POINT ( 'NONE', #238 ) ;
#195 = DIRECTION ( 'NONE',  ( 0.0000000000000000000, 0.0000000000000000000, 1.000000000000000000 ) ) ;
#196 = CARTESIAN_POINT ( 'NONE',  ( 0.0000000000000000000, 0.0000000000000000000, 2.244094000000000033 ) ) ;
#197 = EDGE_CURVE ( 'NONE', #260, #281, #32, .T. ) ;
#198 = DIRECTION ( 'NONE',  ( -1.000000000000000000, 0.0000000000000000000, 0.0000000000000000000 ) ) ;
#199 = DIRECTION ( 'NONE',  ( -1.224646799147353207E-16, -0.0000000000000000000, -1.000000000000000000 ) ) ;
#200 = AXIS2_PLACEMENT_3D ( 'NONE', #262, #247, #264 ) ;
#201 = CARTESIAN_POINT ( 'NONE',  ( 0.1031100000000002570, 1.354581824536888722E-17, 2.244094000000000033 ) ) ;
#202 = LINE ( 'NONE', #287, #177 ) ;
#203 = EDGE_CURVE ( 'NONE', #114, #281, #186, .T. ) ;
#204 = CARTESIAN_POINT ( 'NONE',  ( 0.0000000000000000000, 0.0000000000000000000, 2.229093999999999465 ) ) ;
#205 = LENGTH_MEASURE_WITH_UNIT ( LENGTH_MEASURE( 0.02539999999999999897 ), #296 );
#206 =( CONVERSION_BASED_UNIT ( 'INCH', #23 ) LENGTH_UNIT ( ) NAMED_UNIT ( #8 ) );
#207 =( GEOMETRIC_REPRESENTATION_CONTEXT ( 3 ) GLOBAL_UNCERTAINTY_ASSIGNED_CONTEXT ( ( #208 ) ) GLOBAL_UNIT_ASSIGNED_CONTEXT ( ( #206, #295, #89 ) ) REPRESENTATION_CONTEXT ( 'NONE', 'WORKASPACE' ) );
#208 = UNCERTAINTY_MEASURE_WITH_UNIT (LENGTH_MEASURE( 1.000000000000000082E-05 ), #206, 'distance_accuracy_value', 'NONE');
#209 = ORIENTED_EDGE ( 'NONE', *, *, #45, .F. ) ;
#210 = ORIENTED_EDGE ( 'NONE', *, *, #203, .T. ) ;
#211 = CIRCLE ( 'NONE', #231, 0.1179918899999999882 ) ;
#212 = ORIENTED_EDGE ( 'NONE', *, *, #132, .F. ) ;
#213 = CARTESIAN_POINT ( 'NONE',  ( 1.769594913022618037E-33, 0.0000000000000000000, 1.444983904138465938E-17 ) ) ;
#214 = FACE_OUTER_BOUND ( 'NONE', #230, .T. ) ;
#215 =( NAMED_UNIT ( * ) PLANE_ANGLE_UNIT ( ) SI_UNIT ( $, .RADIAN. ) );
#216 = SURFACE_STYLE_FILL_AREA ( #34 ) ;
#217 = CARTESIAN_POINT ( 'NONE',  ( -0.1179918900000000159, 0.0000000000000000000, 1.444983904138465938E-17 ) ) ;
#218 = DIRECTION ( 'NONE',  ( 1.000000000000000000, 0.0000000000000000000, 0.0000000000000000000 ) ) ;
#219 = DIRECTION ( 'NONE',  ( 1.224646799147353207E-16, 0.0000000000000000000, 1.000000000000000000 ) ) ;
#220 = DIRECTION ( 'NONE',  ( 0.0000000000000000000, 0.0000000000000000000, 1.000000000000000000 ) ) ;
#221 = CARTESIAN_POINT ( 'NONE',  ( 0.0000000000000000000, 0.0000000000000000000, 2.244094000000000033 ) ) ;
#222 = APPLICATION_PROTOCOL_DEFINITION ( 'draft international standard', 'automotive_design', 1998, #70 ) ;
#223 = CARTESIAN_POINT ( 'NONE',  ( 0.1179918900000000159, 1.444983904138465938E-17, -1.444983904138465938E-17 ) ) ;
#224 = CONICAL_SURFACE ( 'NONE', #46, 0.1031100000000002570, 0.7853981633974318477 ) ;
#225 = CARTESIAN_POINT ( 'NONE',  ( 8.686797367364864477E-17, 0.0000000000000000000, 0.7093308350957150399 ) ) ;
#226 = LINE ( 'NONE', #223, #183 ) ;
#227 = AXIS2_PLACEMENT_3D ( 'NONE', #20, #276, #159 ) ;
#228 = ORIENTED_EDGE ( 'NONE', *, *, #98, .F. ) ;
#229 = EDGE_LOOP ( 'NONE', ( #47, #27, #169, #209 ) ) ;
#230 = EDGE_LOOP ( 'NONE', ( #75, #190, #72, #4 ) ) ;
#231 = AXIS2_PLACEMENT_3D ( 'NONE', #213, #267, #152 ) ;
#232 = EDGE_CURVE ( 'NONE', #260, #268, #297, .T. ) ;
#233 = ORIENTED_EDGE ( 'NONE', *, *, #292, .T. ) ;
#234 =( GEOMETRIC_REPRESENTATION_CONTEXT ( 3 ) GLOBAL_UNCERTAINTY_ASSIGNED_CONTEXT ( ( #278 ) ) GLOBAL_UNIT_ASSIGNED_CONTEXT ( ( #88, #273, #251 ) ) REPRESENTATION_CONTEXT ( 'NONE', 'WORKASPACE' ) );
#235 = ORIENTED_EDGE ( 'NONE', *, *, #92, .F. ) ;
#236 = DIRECTION ( 'NONE',  ( -1.224646799147353207E-16, -0.0000000000000000000, -1.000000000000000000 ) ) ;
#237 = FACE_OUTER_BOUND ( 'NONE', #51, .T. ) ;
#238 = CARTESIAN_POINT ( 'NONE',  ( 0.1181100000000000066, 1.446430334472939084E-17, 2.229093999999999465 ) ) ;
#239 = AXIS2_PLACEMENT_3D ( 'NONE', #179, #14, #154 ) ;
#240 = CIRCLE ( 'NONE', #299, 0.1181100000000000066 ) ;
#241 = FILL_AREA_STYLE_COLOUR ( '', #3 ) ;
#242 = DIRECTION ( 'NONE',  ( -1.000000000000000000, 0.0000000000000000000, 0.0000000000000000000 ) ) ;
#243 = CARTESIAN_POINT ( 'NONE',  ( 0.0000000000000000000, 0.0000000000000000000, 2.229093999999999465 ) ) ;
#244 = FACE_OUTER_BOUND ( 'NONE', #141, .T. ) ;
#245 = APPLICATION_PROTOCOL_DEFINITION ( 'draft international standard', 'automotive_design', 1998, #7 ) ;
#246 = CARTESIAN_POINT ( 'NONE',  ( 0.1031100000000002570, 1.262733314600838667E-17, 2.244094000000000033 ) ) ;
#247 = DIRECTION ( 'NONE',  ( -1.224646799147353207E-16, -0.0000000000000000000, -1.000000000000000000 ) ) ;
#248 = DIRECTION ( 'NONE',  ( 1.000000000000000000, 0.0000000000000000000, 0.0000000000000000000 ) ) ;
#249 = VECTOR ( 'NONE', #63, 39.37007874015748143 ) ;
#250 = ADVANCED_FACE ( 'NONE', ( #244 ), #110, .T. ) ;
#251 =( NAMED_UNIT ( * ) SI_UNIT ( $, .STERADIAN. ) SOLID_ANGLE_UNIT ( ) );
#252 = DIRECTION ( 'NONE',  ( 0.0000000000000000000, 0.0000000000000000000, 1.000000000000000000 ) ) ;
#253 = CARTESIAN_POINT ( 'NONE',  ( -0.1179918899999999882, 0.0000000000000000000, 2.889967808276931875E-17 ) ) ;
#254 = VECTOR ( 'NONE', #156, 39.37007874015748854 ) ;
#255 = FACE_OUTER_BOUND ( 'NONE', #97, .T. ) ;
#256 = ORIENTED_EDGE ( 'NONE', *, *, #90, .T. ) ;
#257 = ADVANCED_FACE ( 'NONE', ( #182 ), #66, .T. ) ;
#258 = ORIENTED_EDGE ( 'NONE', *, *, #192, .F. ) ;
#259 = ORIENTED_EDGE ( 'NONE', *, *, #90, .F. ) ;
#260 = VERTEX_POINT ( 'NONE', #133 ) ;
#261 = VECTOR ( 'NONE', #16, 39.37007874015748143 ) ;
#262 = CARTESIAN_POINT ( 'NONE',  ( 8.686797367364864477E-17, 0.0000000000000000000, 0.7093308350957150399 ) ) ;
#263 = CARTESIAN_POINT ( 'NONE',  ( -0.1181100000000000066, 0.0000000000000000000, 2.244094000000000033 ) ) ;
#264 = DIRECTION ( 'NONE',  ( 1.000000000000000000, 0.0000000000000000000, 0.0000000000000000000 ) ) ;
#265 = LINE ( 'NONE', #131, #249 ) ;
#266 =( CONVERSION_BASED_UNIT ( 'INCH', #285 ) LENGTH_UNIT ( ) NAMED_UNIT ( #283 ) );
#267 = DIRECTION ( 'NONE',  ( -1.224646799147353207E-16, -0.0000000000000000000, -1.000000000000000000 ) ) ;
#268 = VERTEX_POINT ( 'NONE', #67 ) ;
#269 = DIRECTION ( 'NONE',  ( 0.0000000000000000000, 0.0000000000000000000, -1.000000000000000000 ) ) ;
#270 = DIRECTION ( 'NONE',  ( -1.224646799147353207E-16, -0.0000000000000000000, -1.000000000000000000 ) ) ;
#271 = CARTESIAN_POINT ( 'NONE',  ( 0.0000000000000000000, 0.0000000000000000000, 0.0000000000000000000 ) ) ;
#272 = EDGE_CURVE ( 'NONE', #146, #122, #282, .T. ) ;
#273 =( NAMED_UNIT ( * ) PLANE_ANGLE_UNIT ( ) SI_UNIT ( $, .RADIAN. ) );
#274 = EDGE_CURVE ( 'NONE', #116, #1, #95, .T. ) ;
#275 = DIRECTION ( 'NONE',  ( -1.000000000000000000, 0.0000000000000000000, 1.224646799147352961E-16 ) ) ;
#276 = DIRECTION ( 'NONE',  ( 1.224646799147353207E-16, 0.0000000000000000000, 1.000000000000000000 ) ) ;
#277 = AXIS2_PLACEMENT_3D ( 'NONE', #204, #269, #294 ) ;
#278 = UNCERTAINTY_MEASURE_WITH_UNIT (LENGTH_MEASURE( 1.000000000000000082E-05 ), #88, 'distance_accuracy_value', 'NONE');
#279 = ORIENTED_EDGE ( 'NONE', *, *, #92, .T. ) ;
#280 = EDGE_LOOP ( 'NONE', ( #235, #28, #120, #96 ) ) ;
#281 = VERTEX_POINT ( 'NONE', #253 ) ;
#282 = CIRCLE ( 'NONE', #158, 0.1181100000000000066 ) ;
#283 = DIMENSIONAL_EXPONENTS ( 1.000000000000000000, 0.0000000000000000000, 0.0000000000000000000, 0.0000000000000000000, 0.0000000000000000000, 0.0000000000000000000, 0.0000000000000000000 ) ;
#284 = DIRECTION ( 'NONE',  ( 1.000000000000000000, 0.0000000000000000000, 0.0000000000000000000 ) ) ;
#285 = LENGTH_MEASURE_WITH_UNIT ( LENGTH_MEASURE( 0.02539999999999999897 ), #17 );
#286 = LINE ( 'NONE', #246, #254 ) ;
#287 = CARTESIAN_POINT ( 'NONE',  ( -0.1179918899999999188, 1.444983904138465938E-17, 0.7086609999999999854 ) ) ;
#288 = ADVANCED_FACE ( 'NONE', ( #255 ), #87, .T. ) ;
#289 = PRESENTATION_STYLE_ASSIGNMENT (( #103 ) ) ;
#290 = DIRECTION ( 'NONE',  ( -1.000000000000000000, 0.0000000000000000000, 1.224646799147353454E-16 ) ) ;
#291 = CYLINDRICAL_SURFACE ( 'NONE', #11, 0.1181100000000000066 ) ;
#292 = EDGE_CURVE ( 'NONE', #268, #114, #226, .T. ) ;
#293 = AXIS2_PLACEMENT_3D ( 'NONE', #271, #220, #248 ) ;
#294 = DIRECTION ( 'NONE',  ( 1.000000000000000000, 0.0000000000000000000, 0.0000000000000000000 ) ) ;
#295 =( NAMED_UNIT ( * ) PLANE_ANGLE_UNIT ( ) SI_UNIT ( $, .RADIAN. ) );
#296 =( LENGTH_UNIT ( ) NAMED_UNIT ( * ) SI_UNIT ( $, .METRE. ) );
#297 = CIRCLE ( 'NONE', #239, 0.1179918900000000159 ) ;
#298 = DIRECTION ( 'NONE',  ( -1.224646799147353207E-16, -0.0000000000000000000, -1.000000000000000000 ) ) ;
#299 = AXIS2_PLACEMENT_3D ( 'NONE', #243, #180, #284 ) ;
ENDSEC;
END-ISO-10303-21;
