ISO-10303-21;
HEADER;
FILE_DESCRIPTION (( 'STEP AP214' ),
    '1' );
FILE_NAME ('Micro_SME-020-2X.STEP',
    '2021-09-02T10:50:19',
    ( '' ),
    ( '' ),
    'SwSTEP 2.0',
    'SolidWorks 2020',
    '' );
FILE_SCHEMA (( 'AUTOMOTIVE_DESIGN' ));
ENDSEC;

DATA;
#1 = EDGE_CURVE ( 'NONE', #201, #179, #33, .T. ) ;
#2 = EDGE_LOOP ( 'NONE', ( #295, #164 ) ) ;
#3 = VERTEX_POINT ( 'NONE', #160 ) ;
#4 = ORIENTED_EDGE ( 'NONE', *, *, #60, .F. ) ;
#5 = CARTESIAN_POINT ( 'NONE',  ( 0.06250000000000006939, 7.654042494670963708E-18, 0.3277990083481244765 ) ) ;
#6 = SURFACE_SIDE_STYLE ('',( #227 ) ) ;
#7 = DIRECTION ( 'NONE',  ( 0.0000000000000000000, 0.0000000000000000000, 1.000000000000000000 ) ) ;
#8 = CONICAL_SURFACE ( 'NONE', #180, 0.009990000000000002350, 0.1745329251994338637 ) ;
#9 = DIRECTION ( 'NONE',  ( 1.000000000000000000, 0.0000000000000000000, -0.0000000000000000000 ) ) ;
#10 = SHAPE_DEFINITION_REPRESENTATION ( #277, #12 ) ;
#11 = CARTESIAN_POINT ( 'NONE',  ( -0.009989999999999998881, 1.223422152348206134E-18, 0.02999999999999999889 ) ) ;
#12 = ADVANCED_BREP_SHAPE_REPRESENTATION ( 'Micro_SME-020-2X', ( #116, #183 ), #132 ) ;
#13 = VECTOR ( 'NONE', #134, 39.37007874015748143 ) ;
#14 = AXIS2_PLACEMENT_3D ( 'NONE', #54, #203, #280 ) ;
#15 = DIRECTION ( 'NONE',  ( 1.000000000000000000, 0.0000000000000000000, -0.0000000000000000000 ) ) ;
#16 = EDGE_CURVE ( 'NONE', #179, #201, #157, .T. ) ;
#17 = ORIENTED_EDGE ( 'NONE', *, *, #206, .F. ) ;
#18 = CYLINDRICAL_SURFACE ( 'NONE', #74, 0.06250000000000002776 ) ;
#19 = CONICAL_SURFACE ( 'NONE', #281, 0.04750000000000064587, 0.7853981633974466137 ) ;
#20 = DIRECTION ( 'NONE',  ( 1.000000000000000000, 0.0000000000000000000, 0.0000000000000000000 ) ) ;
#21 = CARTESIAN_POINT ( 'NONE',  ( 3.673940397442060731E-18, 0.0000000000000000000, 0.02999999999999999889 ) ) ;
#22 = AXIS2_PLACEMENT_3D ( 'NONE', #44, #42, #20 ) ;
#23 = CARTESIAN_POINT ( 'NONE',  ( 0.0000000000000000000, 0.0000000000000000000, 0.0000000000000000000 ) ) ;
#24 = DIRECTION ( 'NONE',  ( 1.000000000000000000, 0.0000000000000000000, 0.0000000000000000000 ) ) ;
#25 = EDGE_LOOP ( 'NONE', ( #232, #228, #167, #279 ) ) ;
#26 = ORIENTED_EDGE ( 'NONE', *, *, #191, .F. ) ;
#27 = EDGE_CURVE ( 'NONE', #127, #91, #239, .T. ) ;
#28 = VERTEX_POINT ( 'NONE', #71 ) ;
#29 = CIRCLE ( 'NONE', #37, 0.009990000000000002350 ) ;
#30 = EDGE_CURVE ( 'NONE', #91, #127, #29, .T. ) ;
#31 = ORIENTED_EDGE ( 'NONE', *, *, #81, .T. ) ;
#32 = APPLICATION_PROTOCOL_DEFINITION ( 'draft international standard', 'automotive_design', 1998, #148 ) ;
#33 = CIRCLE ( 'NONE', #258, 0.06250000000000002776 ) ;
#34 =( CONVERSION_BASED_UNIT ( 'INCH', #61 ) LENGTH_UNIT ( ) NAMED_UNIT ( #188 ) );
#35 = CARTESIAN_POINT ( 'NONE',  ( -0.06249999999999997918, 0.0000000000000000000, 0.3277990083481244765 ) ) ;
#36 = DIRECTION ( 'NONE',  ( 0.0000000000000000000, 0.0000000000000000000, 1.000000000000000000 ) ) ;
#37 = AXIS2_PLACEMENT_3D ( 'NONE', #256, #208, #48 ) ;
#38 = CIRCLE ( 'NONE', #246, 0.06250000000000002776 ) ;
#39 = CARTESIAN_POINT ( 'NONE',  ( 0.0000000000000000000, 0.0000000000000000000, 1.500000000000000222 ) ) ;
#40 = PRODUCT_DEFINITION ( 'UNKNOWN', '', #83, #198 ) ;
#41 = DIRECTION ( 'NONE',  ( 0.1736481776669313581, 0.0000000000000000000, 0.9848077530122077983 ) ) ;
#42 = DIRECTION ( 'NONE',  ( 1.224646799147353700E-16, 0.0000000000000000000, 1.000000000000000000 ) ) ;
#43 = ORIENTED_EDGE ( 'NONE', *, *, #266, .F. ) ;
#44 = CARTESIAN_POINT ( 'NONE',  ( 3.673940397442060731E-18, 0.0000000000000000000, 0.02999999999999999889 ) ) ;
#45 = DIRECTION ( 'NONE',  ( -1.224646799147353700E-16, -0.0000000000000000000, -1.000000000000000000 ) ) ;
#46 = EDGE_CURVE ( 'NONE', #64, #47, #268, .T. ) ;
#47 = VERTEX_POINT ( 'NONE', #5 ) ;
#48 = DIRECTION ( 'NONE',  ( -1.000000000000000000, 0.0000000000000000000, 0.0000000000000000000 ) ) ;
#49 = ADVANCED_FACE ( 'NONE', ( #262 ), #210, .T. ) ;
#50 = CIRCLE ( 'NONE', #243, 0.009990000000000000616 ) ;
#51 = EDGE_LOOP ( 'NONE', ( #72, #231, #114, #43 ) ) ;
#52 = MECHANICAL_DESIGN_GEOMETRIC_PRESENTATION_REPRESENTATION (  '', ( #205 ), #216 ) ;
#53 = DIRECTION ( 'NONE',  ( 1.000000000000000000, 0.0000000000000000000, 0.0000000000000000000 ) ) ;
#54 = CARTESIAN_POINT ( 'NONE',  ( 3.673940397442060731E-18, 0.0000000000000000000, 0.02999999999999999889 ) ) ;
#55 = DIRECTION ( 'NONE',  ( -0.1736481776669311639, 2.126576849575783008E-17, 0.9848077530122080203 ) ) ;
#56 = CARTESIAN_POINT ( 'NONE',  ( -0.04750000000000064587, 0.0000000000000000000, 1.500000000000000222 ) ) ;
#57 = VECTOR ( 'NONE', #55, 39.37007874015747433 ) ;
#58 = DIRECTION ( 'NONE',  ( -1.000000000000000000, 0.0000000000000000000, 1.224646799147353700E-16 ) ) ;
#59 =( NAMED_UNIT ( * ) SI_UNIT ( $, .STERADIAN. ) SOLID_ANGLE_UNIT ( ) );
#60 = EDGE_CURVE ( 'NONE', #272, #3, #73, .T. ) ;
#61 = LENGTH_MEASURE_WITH_UNIT ( LENGTH_MEASURE( 0.02539999999999999897 ), #147 );
#62 = CARTESIAN_POINT ( 'NONE',  ( 0.06250000000000002776, 7.654042494670959086E-18, 1.485000000000000764 ) ) ;
#63 = DIRECTION ( 'NONE',  ( 0.0000000000000000000, 0.0000000000000000000, 1.000000000000000000 ) ) ;
#64 = VERTEX_POINT ( 'NONE', #35 ) ;
#65 = CARTESIAN_POINT ( 'NONE',  ( -0.009989999999999998881, 4.438732323509583765E-18, 0.02999999999999999889 ) ) ;
#66 = EDGE_CURVE ( 'NONE', #127, #64, #237, .T. ) ;
#67 = DIRECTION ( 'NONE',  ( -0.0000000000000000000, -0.0000000000000000000, -1.000000000000000000 ) ) ;
#68 = ADVANCED_FACE ( 'NONE', ( #163 ), #124, .F. ) ;
#69 = FILL_AREA_STYLE_COLOUR ( '', #274 ) ;
#70 = ORIENTED_EDGE ( 'NONE', *, *, #76, .F. ) ;
#71 = CARTESIAN_POINT ( 'NONE',  ( 0.04750000000000064587, 6.735557395310483192E-18, 1.500000000000000222 ) ) ;
#72 = ORIENTED_EDGE ( 'NONE', *, *, #202, .F. ) ;
#73 = CIRCLE ( 'NONE', #176, 0.009990000000000000616 ) ;
#74 = AXIS2_PLACEMENT_3D ( 'NONE', #130, #299, #173 ) ;
#75 = ORIENTED_EDGE ( 'NONE', *, *, #144, .T. ) ;
#76 = EDGE_CURVE ( 'NONE', #91, #272, #119, .T. ) ;
#77 = CARTESIAN_POINT ( 'NONE',  ( 0.0000000000000000000, 0.0000000000000000000, 1.500000000000000222 ) ) ;
#78 = DIRECTION ( 'NONE',  ( -1.224646799147353700E-16, -0.0000000000000000000, -1.000000000000000000 ) ) ;
#79 = AXIS2_PLACEMENT_3D ( 'NONE', #153, #248, #297 ) ;
#80 = DIRECTION ( 'NONE',  ( -1.000000000000000000, 0.0000000000000000000, 0.0000000000000000000 ) ) ;
#81 = EDGE_CURVE ( 'NONE', #90, #179, #101, .T. ) ;
#82 = PLANE ( 'NONE',  #259 ) ;
#83 = PRODUCT_DEFINITION_FORMATION_WITH_SPECIFIED_SOURCE ( 'ANY', '', #89, .NOT_KNOWN. ) ;
#84 = ADVANCED_FACE ( 'NONE', ( #264 ), #82, .T. ) ;
#85 = CARTESIAN_POINT ( 'NONE',  ( -0.06250000000000002776, 0.0000000000000000000, 1.485000000000000764 ) ) ;
#86 = CARTESIAN_POINT ( 'NONE',  ( 0.009990000000000007555, 0.0000000000000000000, 0.02999999999999999889 ) ) ;
#87 = PRESENTATION_LAYER_ASSIGNMENT (  '', '', ( #220 ) ) ;
#88 = FACE_OUTER_BOUND ( 'NONE', #25, .T. ) ;
#89 = PRODUCT ( 'Micro_SME-020-2X', 'Micro_SME-020-2X', '', ( #97 ) ) ;
#90 = VERTEX_POINT ( 'NONE', #56 ) ;
#91 = VERTEX_POINT ( 'NONE', #289 ) ;
#92 = EDGE_LOOP ( 'NONE', ( #290, #138, #31, #142 ) ) ;
#93 = AXIS2_PLACEMENT_3D ( 'NONE', #112, #95, #140 ) ;
#94 = ORIENTED_EDGE ( 'NONE', *, *, #27, .T. ) ;
#95 = DIRECTION ( 'NONE',  ( 0.0000000000000000000, 0.0000000000000000000, -1.000000000000000000 ) ) ;
#96 = ADVANCED_FACE ( 'NONE', ( #214 ), #19, .T. ) ;
#97 = PRODUCT_CONTEXT ( 'NONE', #172, 'mechanical' ) ;
#98 = FILL_AREA_STYLE ('',( #166 ) ) ;
#99 = SURFACE_STYLE_USAGE ( .BOTH. , #6 ) ;
#100 = CARTESIAN_POINT ( 'NONE',  ( -0.009990000000000000616, 0.0000000000000000000, 1.223422152348206327E-18 ) ) ;
#101 = LINE ( 'NONE', #291, #233 ) ;
#102 =( NAMED_UNIT ( * ) PLANE_ANGLE_UNIT ( ) SI_UNIT ( $, .RADIAN. ) );
#103 = EDGE_CURVE ( 'NONE', #127, #3, #168, .T. ) ;
#104 = CARTESIAN_POINT ( 'NONE',  ( 0.009990000000000000616, 1.223422152348205941E-18, -1.223422152348206327E-18 ) ) ;
#105 = DIRECTION ( 'NONE',  ( 1.224646799147353700E-16, 0.0000000000000000000, 1.000000000000000000 ) ) ;
#106 = LENGTH_MEASURE_WITH_UNIT ( LENGTH_MEASURE( 0.02539999999999999897 ), #293 );
#107 = VECTOR ( 'NONE', #190, 39.37007874015748143 ) ;
#108 = FACE_OUTER_BOUND ( 'NONE', #133, .T. ) ;
#109 = LINE ( 'NONE', #275, #13 ) ;
#110 = DIRECTION ( 'NONE',  ( 1.000000000000000000, 0.0000000000000000000, 0.0000000000000000000 ) ) ;
#111 = DIRECTION ( 'NONE',  ( 0.0000000000000000000, 0.0000000000000000000, 1.000000000000000000 ) ) ;
#112 = CARTESIAN_POINT ( 'NONE',  ( 0.0000000000000000000, 0.0000000000000000000, 1.485000000000000764 ) ) ;
#113 = ORIENTED_EDGE ( 'NONE', *, *, #66, .F. ) ;
#114 = ORIENTED_EDGE ( 'NONE', *, *, #251, .T. ) ;
#115 = AXIS2_PLACEMENT_3D ( 'NONE', #235, #257, #181 ) ;
#116 = MANIFOLD_SOLID_BREP ( 'Cut-Revolve1', #209 ) ;
#117 = ADVANCED_FACE ( 'NONE', ( #261 ), #242, .T. ) ;
#118 = ORIENTED_EDGE ( 'NONE', *, *, #271, .T. ) ;
#119 = LINE ( 'NONE', #104, #107 ) ;
#120 = ORIENTED_EDGE ( 'NONE', *, *, #81, .F. ) ;
#121 = MECHANICAL_DESIGN_GEOMETRIC_PRESENTATION_REPRESENTATION (  '', ( #220 ), #225 ) ;
#122 = VECTOR ( 'NONE', #195, 39.37007874015748854 ) ;
#123 = CARTESIAN_POINT ( 'NONE',  ( 0.0000000000000000000, 0.0000000000000000000, 1.500000000000000222 ) ) ;
#124 = PLANE ( 'NONE',  #226 ) ;
#125 = DIRECTION ( 'NONE',  ( -1.224646799147353700E-16, -0.0000000000000000000, -1.000000000000000000 ) ) ;
#126 = VECTOR ( 'NONE', #41, 39.37007874015748143 ) ;
#127 = VERTEX_POINT ( 'NONE', #65 ) ;
#128 = FACE_OUTER_BOUND ( 'NONE', #252, .T. ) ;
#129 = ADVANCED_FACE ( 'NONE', ( #128 ), #254, .T. ) ;
#130 = CARTESIAN_POINT ( 'NONE',  ( 0.0000000000000000000, 0.0000000000000000000, 1.500000000000000222 ) ) ;
#131 = DIRECTION ( 'NONE',  ( -1.000000000000000000, 0.0000000000000000000, 1.224646799147353700E-16 ) ) ;
#132 =( GEOMETRIC_REPRESENTATION_CONTEXT ( 3 ) GLOBAL_UNCERTAINTY_ASSIGNED_CONTEXT ( ( #222 ) ) GLOBAL_UNIT_ASSIGNED_CONTEXT ( ( #294, #270, #143 ) ) REPRESENTATION_CONTEXT ( 'NONE', 'WORKASPACE' ) );
#133 = EDGE_LOOP ( 'NONE', ( #284, #156, #158, #234 ) ) ;
#134 = DIRECTION ( 'NONE',  ( -0.0000000000000000000, -0.0000000000000000000, -1.000000000000000000 ) ) ;
#135 = UNCERTAINTY_MEASURE_WITH_UNIT (LENGTH_MEASURE( 1.000000000000000082E-05 ), #178, 'distance_accuracy_value', 'NONE');
#136 =( NAMED_UNIT ( * ) PLANE_ANGLE_UNIT ( ) SI_UNIT ( $, .RADIAN. ) );
#137 = APPLICATION_PROTOCOL_DEFINITION ( 'draft international standard', 'automotive_design', 1998, #172 ) ;
#138 = ORIENTED_EDGE ( 'NONE', *, *, #271, .F. ) ;
#139 = ORIENTED_EDGE ( 'NONE', *, *, #16, .F. ) ;
#140 = DIRECTION ( 'NONE',  ( 1.000000000000000000, 0.0000000000000000000, 0.0000000000000000000 ) ) ;
#141 = AXIS2_PLACEMENT_3D ( 'NONE', #193, #197, #219 ) ;
#142 = ORIENTED_EDGE ( 'NONE', *, *, #1, .F. ) ;
#143 =( NAMED_UNIT ( * ) SI_UNIT ( $, .STERADIAN. ) SOLID_ANGLE_UNIT ( ) );
#144 = EDGE_CURVE ( 'NONE', #91, #47, #249, .T. ) ;
#145 = DIMENSIONAL_EXPONENTS ( 1.000000000000000000, 0.0000000000000000000, 0.0000000000000000000, 0.0000000000000000000, 0.0000000000000000000, 0.0000000000000000000, 0.0000000000000000000 ) ;
#146 = PRESENTATION_STYLE_ASSIGNMENT (( #288 ) ) ;
#147 =( LENGTH_UNIT ( ) NAMED_UNIT ( * ) SI_UNIT ( $, .METRE. ) );
#148 = APPLICATION_CONTEXT ( 'automotive_design' ) ;
#149 = SURFACE_STYLE_FILL_AREA ( #98 ) ;
#150 = DIRECTION ( 'NONE',  ( -1.224646799147353700E-16, -0.0000000000000000000, -1.000000000000000000 ) ) ;
#151 = EDGE_CURVE ( 'NONE', #28, #201, #296, .T. ) ;
#152 = DIRECTION ( 'NONE',  ( 1.000000000000000000, 0.0000000000000000000, 0.0000000000000000000 ) ) ;
#153 = CARTESIAN_POINT ( 'NONE',  ( 0.0000000000000000000, 0.0000000000000000000, 1.500000000000000222 ) ) ;
#154 = AXIS2_PLACEMENT_3D ( 'NONE', #286, #125, #58 ) ;
#155 = LINE ( 'NONE', #217, #253 ) ;
#156 = ORIENTED_EDGE ( 'NONE', *, *, #66, .T. ) ;
#157 = CIRCLE ( 'NONE', #93, 0.06250000000000002776 ) ;
#158 = ORIENTED_EDGE ( 'NONE', *, *, #46, .T. ) ;
#159 = ORIENTED_EDGE ( 'NONE', *, *, #191, .T. ) ;
#160 = CARTESIAN_POINT ( 'NONE',  ( -0.009990000000000000616, 0.0000000000000000000, 2.446844304696412653E-18 ) ) ;
#161 = AXIS2_PLACEMENT_3D ( 'NONE', #276, #67, #218 ) ;
#162 = ORIENTED_EDGE ( 'NONE', *, *, #30, .T. ) ;
#163 = FACE_OUTER_BOUND ( 'NONE', #2, .T. ) ;
#164 = ORIENTED_EDGE ( 'NONE', *, *, #60, .T. ) ;
#165 = AXIS2_PLACEMENT_3D ( 'NONE', #39, #63, #152 ) ;
#166 = FILL_AREA_STYLE_COLOUR ( '', #245 ) ;
#167 = ORIENTED_EDGE ( 'NONE', *, *, #46, .F. ) ;
#168 = LINE ( 'NONE', #100, #170 ) ;
#169 = ADVANCED_FACE ( 'NONE', ( #108 ), #215, .T. ) ;
#170 = VECTOR ( 'NONE', #78, 39.37007874015748143 ) ;
#171 = FACE_OUTER_BOUND ( 'NONE', #51, .T. ) ;
#172 = APPLICATION_CONTEXT ( 'automotive_design' ) ;
#173 = DIRECTION ( 'NONE',  ( -1.000000000000000000, 0.0000000000000000000, 0.0000000000000000000 ) ) ;
#174 = DIRECTION ( 'NONE',  ( -0.0000000000000000000, -0.0000000000000000000, -1.000000000000000000 ) ) ;
#175 = CIRCLE ( 'NONE', #141, 0.04750000000000064587 ) ;
#176 = AXIS2_PLACEMENT_3D ( 'NONE', #240, #212, #241 ) ;
#177 = CYLINDRICAL_SURFACE ( 'NONE', #161, 0.06250000000000002776 ) ;
#178 =( CONVERSION_BASED_UNIT ( 'INCH', #224 ) LENGTH_UNIT ( ) NAMED_UNIT ( #204 ) );
#179 = VERTEX_POINT ( 'NONE', #85 ) ;
#180 = AXIS2_PLACEMENT_3D ( 'NONE', #21, #105, #273 ) ;
#181 = DIRECTION ( 'NONE',  ( 1.000000000000000000, 0.0000000000000000000, 0.0000000000000000000 ) ) ;
#182 = CARTESIAN_POINT ( 'NONE',  ( 0.0000000000000000000, 0.0000000000000000000, 1.485000000000000764 ) ) ;
#183 = AXIS2_PLACEMENT_3D ( 'NONE', #23, #111, #53 ) ;
#184 = SURFACE_SIDE_STYLE ('',( #149 ) ) ;
#185 = EDGE_LOOP ( 'NONE', ( #94, #187, #17, #287 ) ) ;
#186 = CARTESIAN_POINT ( 'NONE',  ( 0.0000000000000000000, 0.0000000000000000000, 0.0000000000000000000 ) ) ;
#187 = ORIENTED_EDGE ( 'NONE', *, *, #76, .T. ) ;
#188 = DIMENSIONAL_EXPONENTS ( 1.000000000000000000, 0.0000000000000000000, 0.0000000000000000000, 0.0000000000000000000, 0.0000000000000000000, 0.0000000000000000000, 0.0000000000000000000 ) ;
#189 = DIRECTION ( 'NONE',  ( 0.0000000000000000000, 0.0000000000000000000, -1.000000000000000000 ) ) ;
#190 = DIRECTION ( 'NONE',  ( -1.224646799147353700E-16, -0.0000000000000000000, -1.000000000000000000 ) ) ;
#191 = EDGE_CURVE ( 'NONE', #28, #90, #199, .T. ) ;
#192 = CARTESIAN_POINT ( 'NONE',  ( 0.009990000000000000616, 1.223422152348205941E-18, 0.0000000000000000000 ) ) ;
#193 = CARTESIAN_POINT ( 'NONE',  ( 0.0000000000000000000, 0.0000000000000000000, 1.500000000000000222 ) ) ;
#194 = PRESENTATION_LAYER_ASSIGNMENT (  '', '', ( #205 ) ) ;
#195 = DIRECTION ( 'NONE',  ( 0.7071067811865462405, 8.659560562354916834E-17, -0.7071067811865486830 ) ) ;
#196 = CARTESIAN_POINT ( 'NONE',  ( 0.04750000000000064587, 5.817072295950006528E-18, 1.500000000000000222 ) ) ;
#197 = DIRECTION ( 'NONE',  ( 0.0000000000000000000, 0.0000000000000000000, 1.000000000000000000 ) ) ;
#198 = PRODUCT_DEFINITION_CONTEXT ( 'detailed design', #148, 'design' ) ;
#199 = CIRCLE ( 'NONE', #165, 0.04750000000000064587 ) ;
#200 = FILL_AREA_STYLE ('',( #69 ) ) ;
#201 = VERTEX_POINT ( 'NONE', #62 ) ;
#202 = EDGE_CURVE ( 'NONE', #201, #47, #155, .T. ) ;
#203 = DIRECTION ( 'NONE',  ( -1.224646799147353700E-16, -0.0000000000000000000, -1.000000000000000000 ) ) ;
#204 = DIMENSIONAL_EXPONENTS ( 1.000000000000000000, 0.0000000000000000000, 0.0000000000000000000, 0.0000000000000000000, 0.0000000000000000000, 0.0000000000000000000, 0.0000000000000000000 ) ;
#205 = STYLED_ITEM ( 'NONE', ( #146 ), #116 ) ;
#206 = EDGE_CURVE ( 'NONE', #3, #272, #50, .T. ) ;
#207 = ORIENTED_EDGE ( 'NONE', *, *, #103, .T. ) ;
#208 = DIRECTION ( 'NONE',  ( -1.224646799147353700E-16, -0.0000000000000000000, -1.000000000000000000 ) ) ;
#209 = CLOSED_SHELL ( 'NONE', ( #49, #169, #129, #292, #213, #84, #96, #263, #117, #68 ) ) ;
#210 = CYLINDRICAL_SURFACE ( 'NONE', #154, 0.009990000000000000616 ) ;
#211 = DIRECTION ( 'NONE',  ( -0.7071067811865462405, 0.0000000000000000000, -0.7071067811865486830 ) ) ;
#212 = DIRECTION ( 'NONE',  ( -1.224646799147353700E-16, -0.0000000000000000000, -1.000000000000000000 ) ) ;
#213 = ADVANCED_FACE ( 'NONE', ( #171 ), #18, .T. ) ;
#214 = FACE_OUTER_BOUND ( 'NONE', #92, .T. ) ;
#215 = CONICAL_SURFACE ( 'NONE', #22, 0.009990000000000002350, 0.1745329251994338637 ) ;
#216 =( GEOMETRIC_REPRESENTATION_CONTEXT ( 3 ) GLOBAL_UNCERTAINTY_ASSIGNED_CONTEXT ( ( #269 ) ) GLOBAL_UNIT_ASSIGNED_CONTEXT ( ( #34, #102, #59 ) ) REPRESENTATION_CONTEXT ( 'NONE', 'WORKASPACE' ) );
#217 = CARTESIAN_POINT ( 'NONE',  ( 0.06250000000000002776, 7.654042494670959086E-18, 1.500000000000000222 ) ) ;
#218 = DIRECTION ( 'NONE',  ( -1.000000000000000000, 0.0000000000000000000, 0.0000000000000000000 ) ) ;
#219 = DIRECTION ( 'NONE',  ( 1.000000000000000000, 0.0000000000000000000, 0.0000000000000000000 ) ) ;
#220 = STYLED_ITEM ( 'NONE', ( #285 ), #12 ) ;
#221 = AXIS2_PLACEMENT_3D ( 'NONE', #265, #267, #244 ) ;
#222 = UNCERTAINTY_MEASURE_WITH_UNIT (LENGTH_MEASURE( 1.000000000000000082E-05 ), #294, 'distance_accuracy_value', 'NONE');
#223 = FACE_OUTER_BOUND ( 'NONE', #260, .T. ) ;
#224 = LENGTH_MEASURE_WITH_UNIT ( LENGTH_MEASURE( 0.02539999999999999897 ), #255 );
#225 =( GEOMETRIC_REPRESENTATION_CONTEXT ( 3 ) GLOBAL_UNCERTAINTY_ASSIGNED_CONTEXT ( ( #135 ) ) GLOBAL_UNIT_ASSIGNED_CONTEXT ( ( #178, #136, #238 ) ) REPRESENTATION_CONTEXT ( 'NONE', 'WORKASPACE' ) );
#226 = AXIS2_PLACEMENT_3D ( 'NONE', #186, #36, #15 ) ;
#227 = SURFACE_STYLE_FILL_AREA ( #200 ) ;
#228 = ORIENTED_EDGE ( 'NONE', *, *, #202, .T. ) ;
#229 = ORIENTED_EDGE ( 'NONE', *, *, #30, .F. ) ;
#230 = EDGE_LOOP ( 'NONE', ( #70, #162, #207, #4 ) ) ;
#231 = ORIENTED_EDGE ( 'NONE', *, *, #1, .T. ) ;
#232 = ORIENTED_EDGE ( 'NONE', *, *, #16, .T. ) ;
#233 = VECTOR ( 'NONE', #211, 39.37007874015748854 ) ;
#234 = ORIENTED_EDGE ( 'NONE', *, *, #144, .F. ) ;
#235 = CARTESIAN_POINT ( 'NONE',  ( 4.014380063372072520E-17, 0.0000000000000000000, 0.3277990083481244765 ) ) ;
#236 = ORIENTED_EDGE ( 'NONE', *, *, #151, .T. ) ;
#237 = LINE ( 'NONE', #11, #57 ) ;
#238 =( NAMED_UNIT ( * ) SI_UNIT ( $, .STERADIAN. ) SOLID_ANGLE_UNIT ( ) );
#239 = CIRCLE ( 'NONE', #14, 0.009990000000000002350 ) ;
#240 = CARTESIAN_POINT ( 'NONE',  ( 1.498260022879197012E-34, 0.0000000000000000000, 1.223422152348206327E-18 ) ) ;
#241 = DIRECTION ( 'NONE',  ( -1.000000000000000000, 0.0000000000000000000, 1.224646799147353700E-16 ) ) ;
#242 = CYLINDRICAL_SURFACE ( 'NONE', #221, 0.009990000000000000616 ) ;
#243 = AXIS2_PLACEMENT_3D ( 'NONE', #250, #45, #131 ) ;
#244 = DIRECTION ( 'NONE',  ( -1.000000000000000000, 0.0000000000000000000, 1.224646799147353700E-16 ) ) ;
#245 = COLOUR_RGB ( '',0.7921568627450980005, 0.8196078431372548767, 0.9333333333333333481 ) ;
#246 = AXIS2_PLACEMENT_3D ( 'NONE', #247, #150, #110 ) ;
#247 = CARTESIAN_POINT ( 'NONE',  ( 4.014380063372072520E-17, 0.0000000000000000000, 0.3277990083481244765 ) ) ;
#248 = DIRECTION ( 'NONE',  ( 0.0000000000000000000, 0.0000000000000000000, -1.000000000000000000 ) ) ;
#249 = LINE ( 'NONE', #86, #126 ) ;
#250 = CARTESIAN_POINT ( 'NONE',  ( 1.498260022879197012E-34, 0.0000000000000000000, 1.223422152348206327E-18 ) ) ;
#251 = EDGE_CURVE ( 'NONE', #179, #64, #109, .T. ) ;
#252 = EDGE_LOOP ( 'NONE', ( #26, #236, #139, #120 ) ) ;
#253 = VECTOR ( 'NONE', #174, 39.37007874015748143 ) ;
#254 = CONICAL_SURFACE ( 'NONE', #79, 0.04750000000000064587, 0.7853981633974466137 ) ;
#255 =( LENGTH_UNIT ( ) NAMED_UNIT ( * ) SI_UNIT ( $, .METRE. ) );
#256 = CARTESIAN_POINT ( 'NONE',  ( 3.673940397442060731E-18, 0.0000000000000000000, 0.02999999999999999889 ) ) ;
#257 = DIRECTION ( 'NONE',  ( -1.224646799147353700E-16, -0.0000000000000000000, -1.000000000000000000 ) ) ;
#258 = AXIS2_PLACEMENT_3D ( 'NONE', #182, #283, #24 ) ;
#259 = AXIS2_PLACEMENT_3D ( 'NONE', #77, #7, #9 ) ;
#260 = EDGE_LOOP ( 'NONE', ( #113, #229, #75, #282 ) ) ;
#261 = FACE_OUTER_BOUND ( 'NONE', #230, .T. ) ;
#262 = FACE_OUTER_BOUND ( 'NONE', #185, .T. ) ;
#263 = ADVANCED_FACE ( 'NONE', ( #223 ), #8, .T. ) ;
#264 = FACE_OUTER_BOUND ( 'NONE', #278, .T. ) ;
#265 = CARTESIAN_POINT ( 'NONE',  ( 0.0000000000000000000, 0.0000000000000000000, 0.0000000000000000000 ) ) ;
#266 = EDGE_CURVE ( 'NONE', #47, #64, #38, .T. ) ;
#267 = DIRECTION ( 'NONE',  ( -1.224646799147353700E-16, -0.0000000000000000000, -1.000000000000000000 ) ) ;
#268 = CIRCLE ( 'NONE', #115, 0.06250000000000002776 ) ;
#269 = UNCERTAINTY_MEASURE_WITH_UNIT (LENGTH_MEASURE( 1.000000000000000082E-05 ), #34, 'distance_accuracy_value', 'NONE');
#270 =( NAMED_UNIT ( * ) PLANE_ANGLE_UNIT ( ) SI_UNIT ( $, .RADIAN. ) );
#271 = EDGE_CURVE ( 'NONE', #90, #28, #175, .T. ) ;
#272 = VERTEX_POINT ( 'NONE', #192 ) ;
#273 = DIRECTION ( 'NONE',  ( 1.000000000000000000, 0.0000000000000000000, 0.0000000000000000000 ) ) ;
#274 = COLOUR_RGB ( '',0.7921568627450980005, 0.8196078431372548767, 0.9333333333333333481 ) ;
#275 = CARTESIAN_POINT ( 'NONE',  ( -0.06250000000000002776, 0.0000000000000000000, 1.500000000000000222 ) ) ;
#276 = CARTESIAN_POINT ( 'NONE',  ( 0.0000000000000000000, 0.0000000000000000000, 1.500000000000000222 ) ) ;
#277 = PRODUCT_DEFINITION_SHAPE ( 'NONE', 'NONE',  #40 ) ;
#278 = EDGE_LOOP ( 'NONE', ( #118, #159 ) ) ;
#279 = ORIENTED_EDGE ( 'NONE', *, *, #251, .F. ) ;
#280 = DIRECTION ( 'NONE',  ( -1.000000000000000000, 0.0000000000000000000, 0.0000000000000000000 ) ) ;
#281 = AXIS2_PLACEMENT_3D ( 'NONE', #123, #189, #80 ) ;
#282 = ORIENTED_EDGE ( 'NONE', *, *, #266, .T. ) ;
#283 = DIRECTION ( 'NONE',  ( 0.0000000000000000000, 0.0000000000000000000, -1.000000000000000000 ) ) ;
#284 = ORIENTED_EDGE ( 'NONE', *, *, #27, .F. ) ;
#285 = PRESENTATION_STYLE_ASSIGNMENT (( #99 ) ) ;
#286 = CARTESIAN_POINT ( 'NONE',  ( 0.0000000000000000000, 0.0000000000000000000, 0.0000000000000000000 ) ) ;
#287 = ORIENTED_EDGE ( 'NONE', *, *, #103, .F. ) ;
#288 = SURFACE_STYLE_USAGE ( .BOTH. , #184 ) ;
#289 = CARTESIAN_POINT ( 'NONE',  ( 0.009990000000000007555, 0.0000000000000000000, 0.02999999999999999889 ) ) ;
#290 = ORIENTED_EDGE ( 'NONE', *, *, #151, .F. ) ;
#291 = CARTESIAN_POINT ( 'NONE',  ( -0.04750000000000064587, 0.0000000000000000000, 1.500000000000000222 ) ) ;
#292 = ADVANCED_FACE ( 'NONE', ( #88 ), #177, .T. ) ;
#293 =( LENGTH_UNIT ( ) NAMED_UNIT ( * ) SI_UNIT ( $, .METRE. ) );
#294 =( CONVERSION_BASED_UNIT ( 'INCH', #106 ) LENGTH_UNIT ( ) NAMED_UNIT ( #145 ) );
#295 = ORIENTED_EDGE ( 'NONE', *, *, #206, .T. ) ;
#296 = LINE ( 'NONE', #196, #122 ) ;
#297 = DIRECTION ( 'NONE',  ( -1.000000000000000000, 0.0000000000000000000, 0.0000000000000000000 ) ) ;
#298 = PRODUCT_RELATED_PRODUCT_CATEGORY ( 'part', '', ( #89 ) ) ;
#299 = DIRECTION ( 'NONE',  ( -0.0000000000000000000, -0.0000000000000000000, -1.000000000000000000 ) ) ;
ENDSEC;
END-ISO-10303-21;
