ISO-10303-21;
HEADER;
FILE_DESCRIPTION (( 'STEP AP214' ),
    '1' );
FILE_NAME ('83874.STEP',
    '2023-07-12T13:07:45',
    ( '' ),
    ( '' ),
    'SwSTEP 2.0',
    'SolidWorks 2023',
    '' );
FILE_SCHEMA (( 'AUTOMOTIVE_DESIGN' ));
ENDSEC;

DATA;
#1 = PRODUCT_DEFINITION_SHAPE ( 'NONE', 'NONE',  #167 ) ;
#2 = ADVANCED_FACE ( 'NONE', ( #176 ), #264, .T. ) ;
#3 = COLOUR_RGB ( '',1.000000000000000000, 0.000000000000000000, 0.000000000000000000 ) ;
#4 = EDGE_LOOP ( 'NONE', ( #231, #290 ) ) ;
#5 = DIRECTION ( 'NONE',  ( -0.7071067811865486830, 0.7071067811865462405, 0.000000000000000000 ) ) ;
#6 = VERTEX_POINT ( 'NONE', #87 ) ;
#7 = FACE_OUTER_BOUND ( 'NONE', #4, .T. ) ;
#8 =( NAMED_UNIT ( * ) PLANE_ANGLE_UNIT ( ) SI_UNIT ( $, .RADIAN. ) );
#9 = ORIENTED_EDGE ( 'NONE', *, *, #295, .F. ) ;
#10 = CIRCLE ( 'NONE', #249, 0.06249999999999999306 ) ;
#11 = FILL_AREA_STYLE_COLOUR ( '', #158 ) ;
#12 = DIRECTION ( 'NONE',  ( 1.232771808041434271E-16, -1.000000000000000000, 0.000000000000000000 ) ) ;
#13 =( NAMED_UNIT ( * ) SI_UNIT ( $, .STERADIAN. ) SOLID_ANGLE_UNIT ( ) );
#14 = SURFACE_STYLE_FILL_AREA ( #275 ) ;
#15 =( CONVERSION_BASED_UNIT ( 'INCH', #308 ) LENGTH_UNIT ( ) NAMED_UNIT ( #47 ) );
#16 = ADVANCED_FACE ( 'NONE', ( #157 ), #244, .T. ) ;
#17 = LINE ( 'NONE', #243, #191 ) ;
#18 = DIRECTION ( 'NONE',  ( -1.232771808041434271E-16, 1.000000000000000000, -0.000000000000000000 ) ) ;
#19 =( NAMED_UNIT ( * ) PLANE_ANGLE_UNIT ( ) SI_UNIT ( $, .RADIAN. ) );
#20 = SURFACE_STYLE_USAGE ( .BOTH. , #95 ) ;
#21 = COLOUR_RGB ( '',0.7921568627450980005, 0.8196078431372548767, 0.9333333333333333481 ) ;
#22 = DIRECTION ( 'NONE',  ( -1.232771808041434271E-16, 1.000000000000000000, -0.000000000000000000 ) ) ;
#23 =( CONVERSION_BASED_UNIT ( 'INCH', #169 ) LENGTH_UNIT ( ) NAMED_UNIT ( #96 ) );
#24 = LENGTH_MEASURE_WITH_UNIT ( LENGTH_MEASURE( 0.02539999999999999897 ), #177 );
#25 =( GEOMETRIC_REPRESENTATION_CONTEXT ( 3 ) GLOBAL_UNCERTAINTY_ASSIGNED_CONTEXT ( ( #302 ) ) GLOBAL_UNIT_ASSIGNED_CONTEXT ( ( #23, #98, #127 ) ) REPRESENTATION_CONTEXT ( 'NONE', 'WORKASPACE' ) );
#26 = PRESENTATION_STYLE_ASSIGNMENT (( #289 ) ) ;
#27 = ORIENTED_EDGE ( 'NONE', *, *, #227, .F. ) ;
#28 = DIRECTION ( 'NONE',  ( -1.232771808041434271E-16, 1.000000000000000000, -0.000000000000000000 ) ) ;
#29 = EDGE_LOOP ( 'NONE', ( #172, #226 ) ) ;
#30 = DIRECTION ( 'NONE',  ( 4.364974079262391523E-17, -1.000000000000000000, -0.000000000000000000 ) ) ;
#31 = MECHANICAL_DESIGN_GEOMETRIC_PRESENTATION_REPRESENTATION (  '', ( #190 ), #62 ) ;
#32 = CIRCLE ( 'NONE', #283, 0.06249999999999975020 ) ;
#33 = APPLICATION_PROTOCOL_DEFINITION ( 'draft international standard', 'automotive_design', 1998, #122 ) ;
#34 = ORIENTED_EDGE ( 'NONE', *, *, #185, .F. ) ;
#35 =( CONVERSION_BASED_UNIT ( 'INCH', #297 ) LENGTH_UNIT ( ) NAMED_UNIT ( #123 ) );
#36 = PRESENTATION_STYLE_ASSIGNMENT (( #140 ) ) ;
#37 = DIRECTION ( 'NONE',  ( -1.232771808041434271E-16, 1.000000000000000000, -0.000000000000000000 ) ) ;
#38 = UNCERTAINTY_MEASURE_WITH_UNIT (LENGTH_MEASURE( 1.000000000000000082E-05 ), #285, 'distance_accuracy_value', 'NONE');
#39 = CYLINDRICAL_SURFACE ( 'NONE', #278, 0.06249999999999984041 ) ;
#40 = PRODUCT_CONTEXT ( 'NONE', #122, 'mechanical' ) ;
#41 = CARTESIAN_POINT ( 'NONE',  ( 0.06249999999999989592, 1.500000000000000222, 7.654042494670937515E-18 ) ) ;
#42 = CYLINDRICAL_SURFACE ( 'NONE', #181, 0.06249999999999984041 ) ;
#43 = DIRECTION ( 'NONE',  ( -4.364974079262391523E-17, 1.000000000000000000, 0.000000000000000000 ) ) ;
#44 = PRESENTATION_STYLE_ASSIGNMENT (( #307 ) ) ;
#45 = STYLED_ITEM ( 'NONE', ( #36 ), #70 ) ;
#46 =( GEOMETRIC_REPRESENTATION_CONTEXT ( 3 ) GLOBAL_UNCERTAINTY_ASSIGNED_CONTEXT ( ( #273 ) ) GLOBAL_UNIT_ASSIGNED_CONTEXT ( ( #35, #19, #188 ) ) REPRESENTATION_CONTEXT ( 'NONE', 'WORKASPACE' ) );
#47 = DIMENSIONAL_EXPONENTS ( 1.000000000000000000, 0.000000000000000000, 0.000000000000000000, 0.000000000000000000, 0.000000000000000000, 0.000000000000000000, 0.000000000000000000 ) ;
#48 = PRODUCT ( '83874', '83874', '', ( #40 ) ) ;
#49 = PRESENTATION_LAYER_ASSIGNMENT (  '', '', ( #214 ) ) ;
#50 = PRODUCT_RELATED_PRODUCT_CATEGORY ( 'part', '', ( #48 ) ) ;
#51 = FILL_AREA_STYLE_COLOUR ( '', #213 ) ;
#52 =( NAMED_UNIT ( * ) SI_UNIT ( $, .STERADIAN. ) SOLID_ANGLE_UNIT ( ) );
#53 = STYLED_ITEM ( 'NONE', ( #44 ), #286 ) ;
#54 = ORIENTED_EDGE ( 'NONE', *, *, #126, .F. ) ;
#55 =( CONVERSION_BASED_UNIT ( 'INCH', #171 ) LENGTH_UNIT ( ) NAMED_UNIT ( #279 ) );
#56 = LENGTH_MEASURE_WITH_UNIT ( LENGTH_MEASURE( 0.02539999999999999897 ), #229 );
#57 = ORIENTED_EDGE ( 'NONE', *, *, #295, .T. ) ;
#58 = ADVANCED_FACE ( 'NONE', ( #117 ), #42, .T. ) ;
#59 = CARTESIAN_POINT ( 'NONE',  ( 6.123233995736763571E-17, 1.500000000000000222, 0.000000000000000000 ) ) ;
#60 = SURFACE_STYLE_USAGE ( .BOTH. , #179 ) ;
#61 = DIRECTION ( 'NONE',  ( -1.000000000000000000, -1.365923996832137033E-16, 0.000000000000000000 ) ) ;
#62 =( GEOMETRIC_REPRESENTATION_CONTEXT ( 3 ) GLOBAL_UNCERTAINTY_ASSIGNED_CONTEXT ( ( #235 ) ) GLOBAL_UNIT_ASSIGNED_CONTEXT ( ( #15, #274, #13 ) ) REPRESENTATION_CONTEXT ( 'NONE', 'WORKASPACE' ) );
#63 = FILL_AREA_STYLE ('',( #164 ) ) ;
#64 =( LENGTH_UNIT ( ) NAMED_UNIT ( * ) SI_UNIT ( $, .METRE. ) );
#65 = UNCERTAINTY_MEASURE_WITH_UNIT (LENGTH_MEASURE( 1.000000000000000082E-05 ), #55, 'distance_accuracy_value', 'NONE');
#66 = SURFACE_STYLE_FILL_AREA ( #165 ) ;
#67 = CARTESIAN_POINT ( 'NONE',  ( 6.123233995736763571E-17, 1.500000000000000222, 0.000000000000000000 ) ) ;
#68 = UNCERTAINTY_MEASURE_WITH_UNIT (LENGTH_MEASURE( 1.000000000000000082E-05 ), #115, 'distance_accuracy_value', 'NONE');
#69 = STYLED_ITEM ( 'NONE', ( #26 ), #99 ) ;
#70 = ADVANCED_FACE ( 'NONE', ( #216 ), #154, .T. ) ;
#71 =( NAMED_UNIT ( * ) SI_UNIT ( $, .STERADIAN. ) SOLID_ANGLE_UNIT ( ) );
#72 =( NAMED_UNIT ( * ) SI_UNIT ( $, .STERADIAN. ) SOLID_ANGLE_UNIT ( ) );
#73 = VERTEX_POINT ( 'NONE', #252 ) ;
#74 = DIRECTION ( 'NONE',  ( 1.000000000000000000, 4.364974079262391523E-17, 0.000000000000000000 ) ) ;
#75 = ORIENTED_EDGE ( 'NONE', *, *, #185, .T. ) ;
#76 = AXIS2_PLACEMENT_3D ( 'NONE', #301, #12, #110 ) ;
#77 = ORIENTED_EDGE ( 'NONE', *, *, #207, .T. ) ;
#78 = FILL_AREA_STYLE ('',( #51 ) ) ;
#79 =( CONVERSION_BASED_UNIT ( 'INCH', #56 ) LENGTH_UNIT ( ) NAMED_UNIT ( #282 ) );
#80 = EDGE_LOOP ( 'NONE', ( #27, #77, #132, #149 ) ) ;
#81 = DIRECTION ( 'NONE',  ( -1.000000000000000000, 0.000000000000000000, 0.000000000000000000 ) ) ;
#82 = SURFACE_STYLE_FILL_AREA ( #108 ) ;
#83 = CARTESIAN_POINT ( 'NONE',  ( 0.02000000000000000042, 0.000000000000000000, 5.051668046482832349E-18 ) ) ;
#84 = CIRCLE ( 'NONE', #201, 0.02000000000000000042 ) ;
#85 =( NAMED_UNIT ( * ) PLANE_ANGLE_UNIT ( ) SI_UNIT ( $, .RADIAN. ) );
#86 = DIRECTION ( 'NONE',  ( -1.232771808041434271E-16, 1.000000000000000000, 0.000000000000000000 ) ) ;
#87 = CARTESIAN_POINT ( 'NONE',  ( 0.06249999999999999306, 0.04249999999999984346, 7.654042494670956004E-18 ) ) ;
#88 = FACE_OUTER_BOUND ( 'NONE', #29, .T. ) ;
#89 = DIRECTION ( 'NONE',  ( -1.232771808041434271E-16, 1.000000000000000000, -0.000000000000000000 ) ) ;
#90 = PLANE ( 'NONE',  #76 ) ;
#91 = MECHANICAL_DESIGN_GEOMETRIC_PRESENTATION_REPRESENTATION (  '', ( #277 ), #218 ) ;
#92 =( LENGTH_UNIT ( ) NAMED_UNIT ( * ) SI_UNIT ( $, .METRE. ) );
#93 = AXIS2_PLACEMENT_3D ( 'NONE', #211, #86, #186 ) ;
#94 = CARTESIAN_POINT ( 'NONE',  ( 6.123233995736763571E-17, 1.500000000000000222, 0.000000000000000000 ) ) ;
#95 = SURFACE_SIDE_STYLE ('',( #212 ) ) ;
#96 = DIMENSIONAL_EXPONENTS ( 1.000000000000000000, 0.000000000000000000, 0.000000000000000000, 0.000000000000000000, 0.000000000000000000, 0.000000000000000000, 0.000000000000000000 ) ;
#97 = PRESENTATION_LAYER_ASSIGNMENT (  '', '', ( #53 ) ) ;
#98 =( NAMED_UNIT ( * ) PLANE_ANGLE_UNIT ( ) SI_UNIT ( $, .RADIAN. ) );
#99 = ADVANCED_FACE ( 'NONE', ( #7 ), #131, .T. ) ;
#100 = AXIS2_PLACEMENT_3D ( 'NONE', #221, #189, #238 ) ;
#101 = SURFACE_STYLE_FILL_AREA ( #78 ) ;
#102 = EDGE_LOOP ( 'NONE', ( #233, #202, #210, #75 ) ) ;
#103 = DIRECTION ( 'NONE',  ( -1.000000000000000000, -4.364974079262391523E-17, 0.000000000000000000 ) ) ;
#104 = ORIENTED_EDGE ( 'NONE', *, *, #288, .F. ) ;
#105 = EDGE_LOOP ( 'NONE', ( #251, #204, #150, #104 ) ) ;
#106 = FACE_OUTER_BOUND ( 'NONE', #287, .T. ) ;
#107 = DIRECTION ( 'NONE',  ( -1.000000000000000000, 0.000000000000000000, 0.000000000000000000 ) ) ;
#108 = FILL_AREA_STYLE ('',( #11 ) ) ;
#109 = ORIENTED_EDGE ( 'NONE', *, *, #284, .T. ) ;
#110 = DIRECTION ( 'NONE',  ( 1.000000000000000000, 1.232771808041434271E-16, 0.000000000000000000 ) ) ;
#111 = EDGE_CURVE ( 'NONE', #266, #178, #182, .T. ) ;
#112 = MECHANICAL_DESIGN_GEOMETRIC_PRESENTATION_REPRESENTATION (  '', ( #69 ), #174 ) ;
#113 = MECHANICAL_DESIGN_GEOMETRIC_PRESENTATION_REPRESENTATION (  '', ( #214 ), #46 ) ;
#114 = DIRECTION ( 'NONE',  ( -1.232771808041434271E-16, 1.000000000000000000, -0.000000000000000000 ) ) ;
#115 =( CONVERSION_BASED_UNIT ( 'INCH', #197 ) LENGTH_UNIT ( ) NAMED_UNIT ( #223 ) );
#116 = DIRECTION ( 'NONE',  ( 4.364974079262391523E-17, -1.000000000000000000, -0.000000000000000000 ) ) ;
#117 = FACE_OUTER_BOUND ( 'NONE', #298, .T. ) ;
#118 = CARTESIAN_POINT ( 'NONE',  ( 0.06249999999999997918, 1.500000000000000222, 7.654042494670942137E-18 ) ) ;
#119 = CIRCLE ( 'NONE', #151, 0.06249999999999975020 ) ;
#120 = AXIS2_PLACEMENT_3D ( 'NONE', #94, #292, #107 ) ;
#121 = ADVANCED_FACE ( 'NONE', ( #106 ), #90, .F. ) ;
#122 = APPLICATION_CONTEXT ( 'automotive_design' ) ;
#123 = DIMENSIONAL_EXPONENTS ( 1.000000000000000000, 0.000000000000000000, 0.000000000000000000, 0.000000000000000000, 0.000000000000000000, 0.000000000000000000, 0.000000000000000000 ) ;
#124 = AXIS2_PLACEMENT_3D ( 'NONE', #129, #30, #74 ) ;
#125 = CIRCLE ( 'NONE', #120, 0.06249999999999992367 ) ;
#126 = EDGE_CURVE ( 'NONE', #73, #178, #135, .T. ) ;
#127 =( NAMED_UNIT ( * ) SI_UNIT ( $, .STERADIAN. ) SOLID_ANGLE_UNIT ( ) );
#128 = VERTEX_POINT ( 'NONE', #83 ) ;
#129 = CARTESIAN_POINT ( 'NONE',  ( 1.905299871263256159E-35, -4.364974079262391100E-19, 0.000000000000000000 ) ) ;
#130 = VERTEX_POINT ( 'NONE', #155 ) ;
#131 = PLANE ( 'NONE',  #124 ) ;
#132 = ORIENTED_EDGE ( 'NONE', *, *, #126, .T. ) ;
#133 = CLOSED_SHELL ( 'NONE', ( #58, #170, #166, #121 ) ) ;
#134 = DIRECTION ( 'NONE',  ( 1.000000000000000000, 0.000000000000000000, 0.000000000000000000 ) ) ;
#135 = LINE ( 'NONE', #153, #291 ) ;
#136 = UNCERTAINTY_MEASURE_WITH_UNIT (LENGTH_MEASURE( 1.000000000000000082E-05 ), #79, 'distance_accuracy_value', 'NONE');
#137 = AXIS2_PLACEMENT_3D ( 'NONE', #139, #116, #217 ) ;
#138 =( NAMED_UNIT ( * ) SI_UNIT ( $, .STERADIAN. ) SOLID_ANGLE_UNIT ( ) );
#139 = CARTESIAN_POINT ( 'NONE',  ( -1.855113983686509741E-18, 0.04249999999999984346, 0.000000000000000000 ) ) ;
#140 = SURFACE_STYLE_USAGE ( .BOTH. , #161 ) ;
#141 = CARTESIAN_POINT ( 'NONE',  ( 2.409088309794067243E-16, 0.04249999999999988509, 0.000000000000000000 ) ) ;
#142 = DIRECTION ( 'NONE',  ( 4.364974079262391523E-17, -1.000000000000000000, -0.000000000000000000 ) ) ;
#143 = PRESENTATION_LAYER_ASSIGNMENT (  '', '', ( #277 ) ) ;
#144 = ADVANCED_BREP_SHAPE_REPRESENTATION ( '83874', ( #286, #199, #228 ), #193 ) ;
#145 = AXIS2_PLACEMENT_3D ( 'NONE', #296, #43, #304 ) ;
#146 = AXIS2_PLACEMENT_3D ( 'NONE', #250, #28, #230 ) ;
#147 = DIRECTION ( 'NONE',  ( -4.364974079262391523E-17, 1.000000000000000000, 0.000000000000000000 ) ) ;
#148 = VERTEX_POINT ( 'NONE', #215 ) ;
#149 = ORIENTED_EDGE ( 'NONE', *, *, #111, .F. ) ;
#150 = ORIENTED_EDGE ( 'NONE', *, *, #247, .T. ) ;
#151 = AXIS2_PLACEMENT_3D ( 'NONE', #280, #22, #245 ) ;
#152 = PRODUCT_DEFINITION_FORMATION_WITH_SPECIFIED_SOURCE ( 'ANY', '', #48, .NOT_KNOWN. ) ;
#153 = CARTESIAN_POINT ( 'NONE',  ( -0.06249999999999977796, 1.500000000000000222, 0.000000000000000000 ) ) ;
#154 = PLANE ( 'NONE',  #309 ) ;
#155 = CARTESIAN_POINT ( 'NONE',  ( -0.06249999999999999306, 0.04249999999999984346, 0.000000000000000000 ) ) ;
#156 = SHAPE_DEFINITION_REPRESENTATION ( #1, #144 ) ;
#157 = FACE_OUTER_BOUND ( 'NONE', #105, .T. ) ;
#158 = COLOUR_RGB ( '',1.000000000000000000, 0.000000000000000000, 0.000000000000000000 ) ;
#159 = DIRECTION ( 'NONE',  ( 4.364974079262391523E-17, -1.000000000000000000, -0.000000000000000000 ) ) ;
#160 = APPLICATION_PROTOCOL_DEFINITION ( 'draft international standard', 'automotive_design', 1998, #162 ) ;
#161 = SURFACE_SIDE_STYLE ('',( #259 ) ) ;
#162 = APPLICATION_CONTEXT ( 'automotive_design' ) ;
#163 = DIRECTION ( 'NONE',  ( -1.232771808041434271E-16, 1.000000000000000000, -0.000000000000000000 ) ) ;
#164 = FILL_AREA_STYLE_COLOUR ( '', #205 ) ;
#165 = FILL_AREA_STYLE ('',( #260 ) ) ;
#166 = ADVANCED_FACE ( 'NONE', ( #255 ), #39, .T. ) ;
#167 = PRODUCT_DEFINITION ( 'UNKNOWN', '', #152, #267 ) ;
#168 = MECHANICAL_DESIGN_GEOMETRIC_PRESENTATION_REPRESENTATION (  '', ( #45 ), #25 ) ;
#169 = LENGTH_MEASURE_WITH_UNIT ( LENGTH_MEASURE( 0.02539999999999999897 ), #92 );
#170 = ADVANCED_FACE ( 'NONE', ( #88 ), #236, .F. ) ;
#171 = LENGTH_MEASURE_WITH_UNIT ( LENGTH_MEASURE( 0.02539999999999999897 ), #175 );
#172 = ORIENTED_EDGE ( 'NONE', *, *, #284, .F. ) ;
#173 = ORIENTED_EDGE ( 'NONE', *, *, #111, .T. ) ;
#174 =( GEOMETRIC_REPRESENTATION_CONTEXT ( 3 ) GLOBAL_UNCERTAINTY_ASSIGNED_CONTEXT ( ( #65 ) ) GLOBAL_UNIT_ASSIGNED_CONTEXT ( ( #55, #262, #71 ) ) REPRESENTATION_CONTEXT ( 'NONE', 'WORKASPACE' ) );
#175 =( LENGTH_UNIT ( ) NAMED_UNIT ( * ) SI_UNIT ( $, .METRE. ) );
#176 = FACE_OUTER_BOUND ( 'NONE', #102, .T. ) ;
#177 =( LENGTH_UNIT ( ) NAMED_UNIT ( * ) SI_UNIT ( $, .METRE. ) );
#178 = VERTEX_POINT ( 'NONE', #239 ) ;
#179 = SURFACE_SIDE_STYLE ('',( #14 ) ) ;
#180 = SURFACE_STYLE_USAGE ( .BOTH. , #208 ) ;
#181 = AXIS2_PLACEMENT_3D ( 'NONE', #67, #89, #240 ) ;
#182 = CIRCLE ( 'NONE', #146, 0.06249999999999992367 ) ;
#183 = DIRECTION ( 'NONE',  ( 0.7071067811865486830, 0.7071067811865462405, 8.659560562354947649E-17 ) ) ;
#184 =( LENGTH_UNIT ( ) NAMED_UNIT ( * ) SI_UNIT ( $, .METRE. ) );
#185 = EDGE_CURVE ( 'NONE', #130, #6, #10, .T. ) ;
#186 = DIRECTION ( 'NONE',  ( -1.000000000000000000, -1.232771808041434271E-16, 0.000000000000000000 ) ) ;
#187 = PRESENTATION_STYLE_ASSIGNMENT (( #180 ) ) ;
#188 =( NAMED_UNIT ( * ) SI_UNIT ( $, .STERADIAN. ) SOLID_ANGLE_UNIT ( ) );
#189 = DIRECTION ( 'NONE',  ( -4.364974079262391523E-17, 1.000000000000000000, 0.000000000000000000 ) ) ;
#190 = STYLED_ITEM ( 'NONE', ( #187 ), #2 ) ;
#191 = VECTOR ( 'NONE', #183, 39.37007874015748854 ) ;
#192 = PRESENTATION_STYLE_ASSIGNMENT (( #60 ) ) ;
#193 =( GEOMETRIC_REPRESENTATION_CONTEXT ( 3 ) GLOBAL_UNCERTAINTY_ASSIGNED_CONTEXT ( ( #38 ) ) GLOBAL_UNIT_ASSIGNED_CONTEXT ( ( #285, #8, #72 ) ) REPRESENTATION_CONTEXT ( 'NONE', 'WORKASPACE' ) );
#194 = DIRECTION ( 'NONE',  ( 1.000000000000000000, 0.000000000000000000, 0.000000000000000000 ) ) ;
#195 = EDGE_CURVE ( 'NONE', #128, #6, #17, .T. ) ;
#196 = DIRECTION ( 'NONE',  ( 1.000000000000000000, 4.364974079262390907E-17, 0.000000000000000000 ) ) ;
#197 = LENGTH_MEASURE_WITH_UNIT ( LENGTH_MEASURE( 0.02539999999999999897 ), #242 );
#198 = DIMENSIONAL_EXPONENTS ( 1.000000000000000000, 0.000000000000000000, 0.000000000000000000, 0.000000000000000000, 0.000000000000000000, 0.000000000000000000, 0.000000000000000000 ) ;
#199 = MANIFOLD_SOLID_BREP ( 'Revolve - Tool Body (Tipped Off)', #133 ) ;
#200 = CIRCLE ( 'NONE', #254, 0.02000000000000000042 ) ;
#201 = AXIS2_PLACEMENT_3D ( 'NONE', #306, #142, #196 ) ;
#202 = ORIENTED_EDGE ( 'NONE', *, *, #271, .F. ) ;
#203 = VERTEX_POINT ( 'NONE', #276 ) ;
#204 = ORIENTED_EDGE ( 'NONE', *, *, #195, .T. ) ;
#205 = COLOUR_RGB ( '',1.000000000000000000, 0.000000000000000000, 0.000000000000000000 ) ;
#206 = VECTOR ( 'NONE', #5, 39.37007874015748854 ) ;
#207 = EDGE_CURVE ( 'NONE', #203, #73, #32, .T. ) ;
#208 = SURFACE_SIDE_STYLE ('',( #82 ) ) ;
#209 = SURFACE_SIDE_STYLE ('',( #101 ) ) ;
#210 = ORIENTED_EDGE ( 'NONE', *, *, #288, .T. ) ;
#211 = CARTESIAN_POINT ( 'NONE',  ( 2.409088309794067243E-16, 0.04249999999999984346, 0.000000000000000000 ) ) ;
#212 = SURFACE_STYLE_FILL_AREA ( #63 ) ;
#213 = COLOUR_RGB ( '',1.000000000000000000, 0.000000000000000000, 0.000000000000000000 ) ;
#214 = STYLED_ITEM ( 'NONE', ( #192 ), #199 ) ;
#215 = CARTESIAN_POINT ( 'NONE',  ( -0.02000000000000000042, -1.745989631704956440E-18, 0.000000000000000000 ) ) ;
#216 = FACE_OUTER_BOUND ( 'NONE', #293, .T. ) ;
#217 = DIRECTION ( 'NONE',  ( 1.000000000000000000, 0.000000000000000000, 0.000000000000000000 ) ) ;
#218 =( GEOMETRIC_REPRESENTATION_CONTEXT ( 3 ) GLOBAL_UNCERTAINTY_ASSIGNED_CONTEXT ( ( #68 ) ) GLOBAL_UNIT_ASSIGNED_CONTEXT ( ( #115, #85, #138 ) ) REPRESENTATION_CONTEXT ( 'NONE', 'WORKASPACE' ) );
#219 = VECTOR ( 'NONE', #18, 39.37007874015748143 ) ;
#220 = SURFACE_SIDE_STYLE ('',( #66 ) ) ;
#221 = CARTESIAN_POINT ( 'NONE',  ( 3.810599742526512318E-35, -8.729948158524782199E-19, 0.000000000000000000 ) ) ;
#222 = EDGE_CURVE ( 'NONE', #128, #148, #200, .T. ) ;
#223 = DIMENSIONAL_EXPONENTS ( 1.000000000000000000, 0.000000000000000000, 0.000000000000000000, 0.000000000000000000, 0.000000000000000000, 0.000000000000000000, 0.000000000000000000 ) ;
#224 = PRESENTATION_LAYER_ASSIGNMENT (  '', '', ( #45 ) ) ;
#225 = CIRCLE ( 'NONE', #137, 0.06249999999999999306 ) ;
#226 = ORIENTED_EDGE ( 'NONE', *, *, #207, .F. ) ;
#227 = EDGE_CURVE ( 'NONE', #203, #266, #258, .T. ) ;
#228 = AXIS2_PLACEMENT_3D ( 'NONE', #300, #303, #194 ) ;
#229 =( LENGTH_UNIT ( ) NAMED_UNIT ( * ) SI_UNIT ( $, .METRE. ) );
#230 = DIRECTION ( 'NONE',  ( -1.000000000000000000, 0.000000000000000000, 0.000000000000000000 ) ) ;
#231 = ORIENTED_EDGE ( 'NONE', *, *, #271, .T. ) ;
#232 = LINE ( 'NONE', #263, #206 ) ;
#233 = ORIENTED_EDGE ( 'NONE', *, *, #195, .F. ) ;
#234 = PRESENTATION_LAYER_ASSIGNMENT (  '', '', ( #190 ) ) ;
#235 = UNCERTAINTY_MEASURE_WITH_UNIT (LENGTH_MEASURE( 1.000000000000000082E-05 ), #15, 'distance_accuracy_value', 'NONE');
#236 = PLANE ( 'NONE',  #93 ) ;
#237 = DIRECTION ( 'NONE',  ( 4.364974079262391523E-17, -1.000000000000000000, -0.000000000000000000 ) ) ;
#238 = DIRECTION ( 'NONE',  ( -1.000000000000000000, -4.364974079262390907E-17, 0.000000000000000000 ) ) ;
#239 = CARTESIAN_POINT ( 'NONE',  ( -0.06249999999999986122, 1.500000000000000222, 0.000000000000000000 ) ) ;
#240 = DIRECTION ( 'NONE',  ( -1.000000000000000000, 0.000000000000000000, 0.000000000000000000 ) ) ;
#241 = CARTESIAN_POINT ( 'NONE',  ( 3.810599742526512318E-35, -8.729948158524782199E-19, 0.000000000000000000 ) ) ;
#242 =( LENGTH_UNIT ( ) NAMED_UNIT ( * ) SI_UNIT ( $, .METRE. ) );
#243 = CARTESIAN_POINT ( 'NONE',  ( 0.02000000000000000042, 0.000000000000000000, 2.449293598294706769E-18 ) ) ;
#244 = CONICAL_SURFACE ( 'NONE', #100, 0.02000000000000000042, 0.7853981633974500554 ) ;
#245 = DIRECTION ( 'NONE',  ( -1.000000000000000000, -1.365923996832137033E-16, 0.000000000000000000 ) ) ;
#246 = CLOSED_SHELL ( 'NONE', ( #16, #70, #2, #99 ) ) ;
#247 = EDGE_CURVE ( 'NONE', #6, #130, #225, .T. ) ;
#248 = PRESENTATION_LAYER_ASSIGNMENT (  '', '', ( #69 ) ) ;
#249 = AXIS2_PLACEMENT_3D ( 'NONE', #299, #237, #134 ) ;
#250 = CARTESIAN_POINT ( 'NONE',  ( 6.123233995736763571E-17, 1.500000000000000222, 0.000000000000000000 ) ) ;
#251 = ORIENTED_EDGE ( 'NONE', *, *, #222, .F. ) ;
#252 = CARTESIAN_POINT ( 'NONE',  ( -0.06249999999999951428, 0.04249999999999987815, 0.000000000000000000 ) ) ;
#253 = ORIENTED_EDGE ( 'NONE', *, *, #247, .F. ) ;
#254 = AXIS2_PLACEMENT_3D ( 'NONE', #241, #159, #256 ) ;
#255 = FACE_OUTER_BOUND ( 'NONE', #80, .T. ) ;
#256 = DIRECTION ( 'NONE',  ( 1.000000000000000000, 4.364974079262390907E-17, 0.000000000000000000 ) ) ;
#257 = FILL_AREA_STYLE_COLOUR ( '', #3 ) ;
#258 = LINE ( 'NONE', #41, #219 ) ;
#259 = SURFACE_STYLE_FILL_AREA ( #305 ) ;
#260 = FILL_AREA_STYLE_COLOUR ( '', #21 ) ;
#261 =( NAMED_UNIT ( * ) PLANE_ANGLE_UNIT ( ) SI_UNIT ( $, .RADIAN. ) );
#262 =( NAMED_UNIT ( * ) PLANE_ANGLE_UNIT ( ) SI_UNIT ( $, .RADIAN. ) );
#263 = CARTESIAN_POINT ( 'NONE',  ( -0.02000000000000000042, -1.745989631704956440E-18, 0.000000000000000000 ) ) ;
#264 = CONICAL_SURFACE ( 'NONE', #145, 0.02000000000000000042, 0.7853981633974500554 ) ;
#265 = MECHANICAL_DESIGN_GEOMETRIC_PRESENTATION_REPRESENTATION (  '', ( #53 ), #270 ) ;
#266 = VERTEX_POINT ( 'NONE', #118 ) ;
#267 = PRODUCT_DEFINITION_CONTEXT ( 'detailed design', #162, 'design' ) ;
#268 = ORIENTED_EDGE ( 'NONE', *, *, #227, .T. ) ;
#269 = COLOUR_RGB ( '',0.7921568627450980005, 0.8196078431372548767, 0.9333333333333333481 ) ;
#270 =( GEOMETRIC_REPRESENTATION_CONTEXT ( 3 ) GLOBAL_UNCERTAINTY_ASSIGNED_CONTEXT ( ( #136 ) ) GLOBAL_UNIT_ASSIGNED_CONTEXT ( ( #79, #261, #52 ) ) REPRESENTATION_CONTEXT ( 'NONE', 'WORKASPACE' ) );
#271 = EDGE_CURVE ( 'NONE', #148, #128, #84, .T. ) ;
#272 = FILL_AREA_STYLE_COLOUR ( '', #269 ) ;
#273 = UNCERTAINTY_MEASURE_WITH_UNIT (LENGTH_MEASURE( 1.000000000000000082E-05 ), #35, 'distance_accuracy_value', 'NONE');
#274 =( NAMED_UNIT ( * ) PLANE_ANGLE_UNIT ( ) SI_UNIT ( $, .RADIAN. ) );
#275 = FILL_AREA_STYLE ('',( #272 ) ) ;
#276 = CARTESIAN_POINT ( 'NONE',  ( 0.06249999999999999306, 0.04249999999999989897, 7.654042494670942137E-18 ) ) ;
#277 = STYLED_ITEM ( 'NONE', ( #281 ), #16 ) ;
#278 = AXIS2_PLACEMENT_3D ( 'NONE', #59, #114, #81 ) ;
#279 = DIMENSIONAL_EXPONENTS ( 1.000000000000000000, 0.000000000000000000, 0.000000000000000000, 0.000000000000000000, 0.000000000000000000, 0.000000000000000000, 0.000000000000000000 ) ;
#280 = CARTESIAN_POINT ( 'NONE',  ( 2.409088309794067243E-16, 0.04249999999999988509, 0.000000000000000000 ) ) ;
#281 = PRESENTATION_STYLE_ASSIGNMENT (( #20 ) ) ;
#282 = DIMENSIONAL_EXPONENTS ( 1.000000000000000000, 0.000000000000000000, 0.000000000000000000, 0.000000000000000000, 0.000000000000000000, 0.000000000000000000, 0.000000000000000000 ) ;
#283 = AXIS2_PLACEMENT_3D ( 'NONE', #141, #163, #61 ) ;
#284 = EDGE_CURVE ( 'NONE', #73, #203, #119, .T. ) ;
#285 =( CONVERSION_BASED_UNIT ( 'INCH', #24 ) LENGTH_UNIT ( ) NAMED_UNIT ( #198 ) );
#286 = MANIFOLD_SOLID_BREP ( 'Revolve - Cutting Edge', #246 ) ;
#287 = EDGE_LOOP ( 'NONE', ( #57, #173 ) ) ;
#288 = EDGE_CURVE ( 'NONE', #148, #130, #232, .T. ) ;
#289 = SURFACE_STYLE_USAGE ( .BOTH. , #209 ) ;
#290 = ORIENTED_EDGE ( 'NONE', *, *, #222, .T. ) ;
#291 = VECTOR ( 'NONE', #37, 39.37007874015748143 ) ;
#292 = DIRECTION ( 'NONE',  ( -1.232771808041434271E-16, 1.000000000000000000, -0.000000000000000000 ) ) ;
#293 = EDGE_LOOP ( 'NONE', ( #34, #253 ) ) ;
#294 = CARTESIAN_POINT ( 'NONE',  ( -1.855113983686509741E-18, 0.04249999999999984346, 0.000000000000000000 ) ) ;
#295 = EDGE_CURVE ( 'NONE', #178, #266, #125, .T. ) ;
#296 = CARTESIAN_POINT ( 'NONE',  ( 3.810599742526512318E-35, -8.729948158524782199E-19, 0.000000000000000000 ) ) ;
#297 = LENGTH_MEASURE_WITH_UNIT ( LENGTH_MEASURE( 0.02539999999999999897 ), #64 );
#298 = EDGE_LOOP ( 'NONE', ( #109, #268, #9, #54 ) ) ;
#299 = CARTESIAN_POINT ( 'NONE',  ( -1.855113983686509741E-18, 0.04249999999999984346, 0.000000000000000000 ) ) ;
#300 = CARTESIAN_POINT ( 'NONE',  ( 0.000000000000000000, 0.000000000000000000, 0.000000000000000000 ) ) ;
#301 = CARTESIAN_POINT ( 'NONE',  ( 0.06249999999999997918, 1.500000000000000222, 0.000000000000000000 ) ) ;
#302 = UNCERTAINTY_MEASURE_WITH_UNIT (LENGTH_MEASURE( 1.000000000000000082E-05 ), #23, 'distance_accuracy_value', 'NONE');
#303 = DIRECTION ( 'NONE',  ( 0.000000000000000000, 0.000000000000000000, 1.000000000000000000 ) ) ;
#304 = DIRECTION ( 'NONE',  ( -1.000000000000000000, -4.364974079262390907E-17, 0.000000000000000000 ) ) ;
#305 = FILL_AREA_STYLE ('',( #257 ) ) ;
#306 = CARTESIAN_POINT ( 'NONE',  ( 3.810599742526512318E-35, -8.729948158524782199E-19, 0.000000000000000000 ) ) ;
#307 = SURFACE_STYLE_USAGE ( .BOTH. , #220 ) ;
#308 = LENGTH_MEASURE_WITH_UNIT ( LENGTH_MEASURE( 0.02539999999999999897 ), #184 );
#309 = AXIS2_PLACEMENT_3D ( 'NONE', #294, #147, #103 ) ;
ENDSEC;
END-ISO-10303-21;
