ISO-10303-21;
HEADER;
FILE_DESCRIPTION (( 'STEP AP214' ),
    '1' );
FILE_NAME ('03285.STEP',
    '2023-06-22T15:07:39',
    ( '' ),
    ( '' ),
    'SwSTEP 2.0',
    'SolidWorks 2023',
    '' );
FILE_SCHEMA (( 'AUTOMOTIVE_DESIGN' ));
ENDSEC;

DATA;
#1 = SURFACE_STYLE_FILL_AREA ( #241 ) ;
#2 = APPLICATION_PROTOCOL_DEFINITION ( 'draft international standard', 'automotive_design', 1998, #102 ) ;
#3 =( GEOMETRIC_REPRESENTATION_CONTEXT ( 3 ) GLOBAL_UNCERTAINTY_ASSIGNED_CONTEXT ( ( #85 ) ) GLOBAL_UNIT_ASSIGNED_CONTEXT ( ( #183, #234, #210 ) ) REPRESENTATION_CONTEXT ( 'NONE', 'WORKASPACE' ) );
#4 = CARTESIAN_POINT ( 'NONE',  ( 0.000000000000000000, 0.000000000000000000, 0.000000000000000000 ) ) ;
#5 = SURFACE_SIDE_STYLE ('',( #117 ) ) ;
#6 = DIMENSIONAL_EXPONENTS ( 1.000000000000000000, 0.000000000000000000, 0.000000000000000000, 0.000000000000000000, 0.000000000000000000, 0.000000000000000000, 0.000000000000000000 ) ;
#7 = FACE_OUTER_BOUND ( 'NONE', #192, .T. ) ;
#8 = PRESENTATION_LAYER_ASSIGNMENT (  '', '', ( #58 ) ) ;
#9 = CIRCLE ( 'NONE', #54, 0.1562500000000000000 ) ;
#10 =( CONVERSION_BASED_UNIT ( 'INCH', #50 ) LENGTH_UNIT ( ) NAMED_UNIT ( #292 ) );
#11 = PRODUCT_DEFINITION_FORMATION_WITH_SPECIFIED_SOURCE ( 'ANY', '', #224, .NOT_KNOWN. ) ;
#12 = CARTESIAN_POINT ( 'NONE',  ( 0.1562500000000000000, 3.000000000000000444, 1.913510623667739771E-17 ) ) ;
#13 = PRESENTATION_LAYER_ASSIGNMENT (  '', '', ( #270 ) ) ;
#14 = FILL_AREA_STYLE ('',( #229 ) ) ;
#15 = CARTESIAN_POINT ( 'NONE',  ( -0.1562500000000001110, 3.000000000000000444, 0.000000000000000000 ) ) ;
#16 = UNCERTAINTY_MEASURE_WITH_UNIT (LENGTH_MEASURE( 1.000000000000000082E-05 ), #10, 'distance_accuracy_value', 'NONE');
#17 = MECHANICAL_DESIGN_GEOMETRIC_PRESENTATION_REPRESENTATION (  '', ( #58 ), #156 ) ;
#18 = STYLED_ITEM ( 'NONE', ( #43 ), #279 ) ;
#19 = LINE ( 'NONE', #15, #277 ) ;
#20 = EDGE_LOOP ( 'NONE', ( #193, #186 ) ) ;
#21 = EDGE_CURVE ( 'NONE', #190, #257, #42, .T. ) ;
#22 = COLOUR_RGB ( '',1.000000000000000000, 0.000000000000000000, 0.000000000000000000 ) ;
#23 = CIRCLE ( 'NONE', #133, 0.1562500000000000000 ) ;
#24 = DIRECTION ( 'NONE',  ( -3.498990854706726443E-17, 1.000000000000000000, -0.000000000000000000 ) ) ;
#25 = FILL_AREA_STYLE_COLOUR ( '', #22 ) ;
#26 =( NAMED_UNIT ( * ) SI_UNIT ( $, .STERADIAN. ) SOLID_ANGLE_UNIT ( ) );
#27 = ORIENTED_EDGE ( 'NONE', *, *, #307, .F. ) ;
#28 = SURFACE_STYLE_USAGE ( .BOTH. , #92 ) ;
#29 = DIRECTION ( 'NONE',  ( 0.000000000000000000, 0.000000000000000000, -1.000000000000000000 ) ) ;
#30 = DIMENSIONAL_EXPONENTS ( 1.000000000000000000, 0.000000000000000000, 0.000000000000000000, 0.000000000000000000, 0.000000000000000000, 0.000000000000000000, 0.000000000000000000 ) ;
#31 =( NAMED_UNIT ( * ) PLANE_ANGLE_UNIT ( ) SI_UNIT ( $, .RADIAN. ) );
#32 = CARTESIAN_POINT ( 'NONE',  ( 0.000000000000000000, 0.000000000000000000, 0.000000000000000000 ) ) ;
#33 = AXIS2_PLACEMENT_3D ( 'NONE', #72, #262, #246 ) ;
#34 = DIRECTION ( 'NONE',  ( -3.498990854706726443E-17, 1.000000000000000000, 0.000000000000000000 ) ) ;
#35 = DIRECTION ( 'NONE',  ( 0.000000000000000000, 0.000000000000000000, -1.000000000000000000 ) ) ;
#36 = COLOUR_RGB ( '',0.7921568627450980005, 0.8196078431372548767, 0.9333333333333333481 ) ;
#37 = PRESENTATION_STYLE_ASSIGNMENT (( #56 ) ) ;
#38 = APPLICATION_CONTEXT ( 'automotive_design' ) ;
#39 =( LENGTH_UNIT ( ) NAMED_UNIT ( * ) SI_UNIT ( $, .METRE. ) );
#40 = EDGE_LOOP ( 'NONE', ( #235, #165 ) ) ;
#41 = DIRECTION ( 'NONE',  ( -3.498990854706726443E-17, 1.000000000000000000, -0.000000000000000000 ) ) ;
#42 = CIRCLE ( 'NONE', #185, 0.1562500000000000833 ) ;
#43 = PRESENTATION_STYLE_ASSIGNMENT (( #167 ) ) ;
#44 = ORIENTED_EDGE ( 'NONE', *, *, #174, .F. ) ;
#45 = DIRECTION ( 'NONE',  ( 0.000000000000000000, -1.000000000000000000, -0.000000000000000000 ) ) ;
#46 = LINE ( 'NONE', #149, #88 ) ;
#47 = PRESENTATION_LAYER_ASSIGNMENT (  '', '', ( #18 ) ) ;
#48 = DIMENSIONAL_EXPONENTS ( 1.000000000000000000, 0.000000000000000000, 0.000000000000000000, 0.000000000000000000, 0.000000000000000000, 0.000000000000000000, 0.000000000000000000 ) ;
#49 = CARTESIAN_POINT ( 'NONE',  ( 0.000000000000000000, 0.000000000000000000, 0.000000000000000000 ) ) ;
#50 = LENGTH_MEASURE_WITH_UNIT ( LENGTH_MEASURE( 0.02539999999999999897 ), #247 );
#51 = CARTESIAN_POINT ( 'NONE',  ( 0.1562500000000000000, 3.000000000000000444, 0.000000000000000000 ) ) ;
#52 = MECHANICAL_DESIGN_GEOMETRIC_PRESENTATION_REPRESENTATION (  '', ( #302 ), #225 ) ;
#53 = ADVANCED_FACE ( 'NONE', ( #239 ), #220, .T. ) ;
#54 = AXIS2_PLACEMENT_3D ( 'NONE', #4, #290, #70 ) ;
#55 = LINE ( 'NONE', #180, #281 ) ;
#56 = SURFACE_STYLE_USAGE ( .BOTH. , #203 ) ;
#57 = LENGTH_MEASURE_WITH_UNIT ( LENGTH_MEASURE( 0.02539999999999999897 ), #81 );
#58 = STYLED_ITEM ( 'NONE', ( #103 ), #226 ) ;
#59 = SURFACE_SIDE_STYLE ('',( #84 ) ) ;
#60 = SURFACE_STYLE_USAGE ( .BOTH. , #187 ) ;
#61 =( LENGTH_UNIT ( ) NAMED_UNIT ( * ) SI_UNIT ( $, .METRE. ) );
#62 = EDGE_LOOP ( 'NONE', ( #66, #308, #288, #286 ) ) ;
#63 = VERTEX_POINT ( 'NONE', #244 ) ;
#64 = ADVANCED_FACE ( 'NONE', ( #120 ), #267, .T. ) ;
#65 = FACE_OUTER_BOUND ( 'NONE', #40, .T. ) ;
#66 = ORIENTED_EDGE ( 'NONE', *, *, #252, .T. ) ;
#67 = MECHANICAL_DESIGN_GEOMETRIC_PRESENTATION_REPRESENTATION (  '', ( #270 ), #276 ) ;
#68 = FILL_AREA_STYLE_COLOUR ( '', #206 ) ;
#69 = ORIENTED_EDGE ( 'NONE', *, *, #21, .F. ) ;
#70 = DIRECTION ( 'NONE',  ( 0.000000000000000000, 0.000000000000000000, -1.000000000000000000 ) ) ;
#71 = DIMENSIONAL_EXPONENTS ( 1.000000000000000000, 0.000000000000000000, 0.000000000000000000, 0.000000000000000000, 0.000000000000000000, 0.000000000000000000, 0.000000000000000000 ) ;
#72 = CARTESIAN_POINT ( 'NONE',  ( 0.000000000000000000, 1.250000000000000000, 0.000000000000000000 ) ) ;
#73 = AXIS2_PLACEMENT_3D ( 'NONE', #163, #89, #282 ) ;
#74 = DIRECTION ( 'NONE',  ( -3.498990854706726443E-17, 1.000000000000000000, -0.000000000000000000 ) ) ;
#75 = PRODUCT_DEFINITION_SHAPE ( 'NONE', 'NONE',  #233 ) ;
#76 = PLANE ( 'NONE',  #237 ) ;
#77 = PRODUCT_DEFINITION_CONTEXT ( 'detailed design', #38, 'design' ) ;
#78 = STYLED_ITEM ( 'NONE', ( #37 ), #170 ) ;
#79 = CYLINDRICAL_SURFACE ( 'NONE', #213, 0.1562500000000000000 ) ;
#80 = DIRECTION ( 'NONE',  ( -0.000000000000000000, -1.000000000000000000, -0.000000000000000000 ) ) ;
#81 =( LENGTH_UNIT ( ) NAMED_UNIT ( * ) SI_UNIT ( $, .METRE. ) );
#82 =( NAMED_UNIT ( * ) PLANE_ANGLE_UNIT ( ) SI_UNIT ( $, .RADIAN. ) );
#83 = COLOUR_RGB ( '',0.7921568627450980005, 0.8196078431372548767, 0.9333333333333333481 ) ;
#84 = SURFACE_STYLE_FILL_AREA ( #14 ) ;
#85 = UNCERTAINTY_MEASURE_WITH_UNIT (LENGTH_MEASURE( 1.000000000000000082E-05 ), #183, 'distance_accuracy_value', 'NONE');
#86 = DIRECTION ( 'NONE',  ( -1.000000000000000000, 0.000000000000000000, 0.000000000000000000 ) ) ;
#87 = ORIENTED_EDGE ( 'NONE', *, *, #209, .T. ) ;
#88 = VECTOR ( 'NONE', #243, 39.37007874015748143 ) ;
#89 = DIRECTION ( 'NONE',  ( -0.000000000000000000, -1.000000000000000000, -0.000000000000000000 ) ) ;
#90 = VERTEX_POINT ( 'NONE', #98 ) ;
#91 = PLANE ( 'NONE',  #214 ) ;
#92 = SURFACE_SIDE_STYLE ('',( #1 ) ) ;
#93 = ORIENTED_EDGE ( 'NONE', *, *, #178, .T. ) ;
#94 = CLOSED_SHELL ( 'NONE', ( #226, #53, #170, #279 ) ) ;
#95 = PRODUCT_CONTEXT ( 'NONE', #102, 'mechanical' ) ;
#96 = EDGE_LOOP ( 'NONE', ( #136, #211 ) ) ;
#97 = CARTESIAN_POINT ( 'NONE',  ( 0.000000000000000000, 1.250000000000000000, 0.000000000000000000 ) ) ;
#98 = CARTESIAN_POINT ( 'NONE',  ( -0.1562500000000000000, 1.250000000000000000, 0.000000000000000000 ) ) ;
#99 = COLOUR_RGB ( '',1.000000000000000000, 0.000000000000000000, 0.000000000000000000 ) ;
#100 = SHAPE_DEFINITION_REPRESENTATION ( #75, #230 ) ;
#101 = CARTESIAN_POINT ( 'NONE',  ( 0.000000000000000000, 1.250000000000000000, -0.1562500000000000000 ) ) ;
#102 = APPLICATION_CONTEXT ( 'automotive_design' ) ;
#103 = PRESENTATION_STYLE_ASSIGNMENT (( #272 ) ) ;
#104 = SURFACE_STYLE_FILL_AREA ( #182 ) ;
#105 = AXIS2_PLACEMENT_3D ( 'NONE', #263, #124, #176 ) ;
#106 = ADVANCED_FACE ( 'NONE', ( #227 ), #294, .F. ) ;
#107 = SURFACE_STYLE_FILL_AREA ( #260 ) ;
#108 = ORIENTED_EDGE ( 'NONE', *, *, #289, .F. ) ;
#109 = CIRCLE ( 'NONE', #157, 0.1562500000000000833 ) ;
#110 = DIRECTION ( 'NONE',  ( -0.000000000000000000, -1.000000000000000000, -0.000000000000000000 ) ) ;
#111 = ORIENTED_EDGE ( 'NONE', *, *, #221, .T. ) ;
#112 = EDGE_LOOP ( 'NONE', ( #236, #27 ) ) ;
#113 = DIRECTION ( 'NONE',  ( 0.000000000000000000, 0.000000000000000000, 1.000000000000000000 ) ) ;
#114 = PRESENTATION_STYLE_ASSIGNMENT (( #28 ) ) ;
#115 = AXIS2_PLACEMENT_3D ( 'NONE', #51, #295, #194 ) ;
#116 = CARTESIAN_POINT ( 'NONE',  ( 0.000000000000000000, 0.000000000000000000, -0.1562500000000000000 ) ) ;
#117 = SURFACE_STYLE_FILL_AREA ( #146 ) ;
#118 = LENGTH_MEASURE_WITH_UNIT ( LENGTH_MEASURE( 0.02539999999999999897 ), #269 );
#119 = LENGTH_MEASURE_WITH_UNIT ( LENGTH_MEASURE( 0.02539999999999999897 ), #152 );
#120 = FACE_OUTER_BOUND ( 'NONE', #62, .T. ) ;
#121 = STYLED_ITEM ( 'NONE', ( #123 ), #131 ) ;
#122 = CIRCLE ( 'NONE', #73, 0.1562500000000000000 ) ;
#123 = PRESENTATION_STYLE_ASSIGNMENT (( #223 ) ) ;
#124 = DIRECTION ( 'NONE',  ( -3.498990854706726443E-17, 1.000000000000000000, -0.000000000000000000 ) ) ;
#125 =( CONVERSION_BASED_UNIT ( 'INCH', #301 ) LENGTH_UNIT ( ) NAMED_UNIT ( #6 ) );
#126 = EDGE_CURVE ( 'NONE', #135, #190, #46, .T. ) ;
#127 =( GEOMETRIC_REPRESENTATION_CONTEXT ( 3 ) GLOBAL_UNCERTAINTY_ASSIGNED_CONTEXT ( ( #16 ) ) GLOBAL_UNIT_ASSIGNED_CONTEXT ( ( #10, #293, #195 ) ) REPRESENTATION_CONTEXT ( 'NONE', 'WORKASPACE' ) );
#128 =( NAMED_UNIT ( * ) PLANE_ANGLE_UNIT ( ) SI_UNIT ( $, .RADIAN. ) );
#129 = UNCERTAINTY_MEASURE_WITH_UNIT (LENGTH_MEASURE( 1.000000000000000082E-05 ), #150, 'distance_accuracy_value', 'NONE');
#130 = ADVANCED_FACE ( 'NONE', ( #7 ), #199, .T. ) ;
#131 = MANIFOLD_SOLID_BREP ( 'Revolve - Cutting Edge', #94 ) ;
#132 = CARTESIAN_POINT ( 'NONE',  ( 0.000000000000000000, 0.000000000000000000, 0.000000000000000000 ) ) ;
#133 = AXIS2_PLACEMENT_3D ( 'NONE', #188, #137, #86 ) ;
#134 = LENGTH_MEASURE_WITH_UNIT ( LENGTH_MEASURE( 0.02539999999999999897 ), #61 );
#135 = VERTEX_POINT ( 'NONE', #297 ) ;
#136 = ORIENTED_EDGE ( 'NONE', *, *, #209, .F. ) ;
#137 = DIRECTION ( 'NONE',  ( -3.498990854706726443E-17, 1.000000000000000000, -0.000000000000000000 ) ) ;
#138 = CIRCLE ( 'NONE', #191, 0.1562500000000000000 ) ;
#139 = DIRECTION ( 'NONE',  ( -1.000000000000000000, 0.000000000000000000, 0.000000000000000000 ) ) ;
#140 = AXIS2_PLACEMENT_3D ( 'NONE', #97, #74, #268 ) ;
#141 = ADVANCED_FACE ( 'NONE', ( #249 ), #76, .F. ) ;
#142 = VERTEX_POINT ( 'NONE', #101 ) ;
#143 = SURFACE_STYLE_FILL_AREA ( #171 ) ;
#144 = CARTESIAN_POINT ( 'NONE',  ( -6.123233995736772199E-17, 3.000000000000000444, 0.000000000000000000 ) ) ;
#145 =( NAMED_UNIT ( * ) PLANE_ANGLE_UNIT ( ) SI_UNIT ( $, .RADIAN. ) );
#146 = FILL_AREA_STYLE ('',( #173 ) ) ;
#147 = VECTOR ( 'NONE', #253, 39.37007874015748143 ) ;
#148 = DIRECTION ( 'NONE',  ( 1.000000000000000000, 0.000000000000000000, 0.000000000000000000 ) ) ;
#149 = CARTESIAN_POINT ( 'NONE',  ( 0.1562499999999999722, 3.000000000000000444, 1.913510623667739771E-17 ) ) ;
#150 =( CONVERSION_BASED_UNIT ( 'INCH', #118 ) LENGTH_UNIT ( ) NAMED_UNIT ( #71 ) );
#151 = CLOSED_SHELL ( 'NONE', ( #64, #141, #130, #106 ) ) ;
#152 =( LENGTH_UNIT ( ) NAMED_UNIT ( * ) SI_UNIT ( $, .METRE. ) );
#153 = CARTESIAN_POINT ( 'NONE',  ( 9.564794532282272738E-35, 1.250000000000000000, 0.000000000000000000 ) ) ;
#154 = CARTESIAN_POINT ( 'NONE',  ( 0.000000000000000000, 1.250000000000000000, 0.000000000000000000 ) ) ;
#155 = UNCERTAINTY_MEASURE_WITH_UNIT (LENGTH_MEASURE( 1.000000000000000082E-05 ), #305, 'distance_accuracy_value', 'NONE');
#156 =( GEOMETRIC_REPRESENTATION_CONTEXT ( 3 ) GLOBAL_UNCERTAINTY_ASSIGNED_CONTEXT ( ( #304 ) ) GLOBAL_UNIT_ASSIGNED_CONTEXT ( ( #158, #128, #26 ) ) REPRESENTATION_CONTEXT ( 'NONE', 'WORKASPACE' ) );
#157 = AXIS2_PLACEMENT_3D ( 'NONE', #217, #24, #309 ) ;
#158 =( CONVERSION_BASED_UNIT ( 'INCH', #57 ) LENGTH_UNIT ( ) NAMED_UNIT ( #166 ) );
#159 =( LENGTH_UNIT ( ) NAMED_UNIT ( * ) SI_UNIT ( $, .METRE. ) );
#160 = DIRECTION ( 'NONE',  ( 0.000000000000000000, 0.000000000000000000, -1.000000000000000000 ) ) ;
#161 = LENGTH_MEASURE_WITH_UNIT ( LENGTH_MEASURE( 0.02539999999999999897 ), #39 );
#162 = VERTEX_POINT ( 'NONE', #273 ) ;
#163 = CARTESIAN_POINT ( 'NONE',  ( 0.000000000000000000, 1.250000000000000000, 0.000000000000000000 ) ) ;
#164 = ORIENTED_EDGE ( 'NONE', *, *, #307, .T. ) ;
#165 = ORIENTED_EDGE ( 'NONE', *, *, #172, .T. ) ;
#166 = DIMENSIONAL_EXPONENTS ( 1.000000000000000000, 0.000000000000000000, 0.000000000000000000, 0.000000000000000000, 0.000000000000000000, 0.000000000000000000, 0.000000000000000000 ) ;
#167 = SURFACE_STYLE_USAGE ( .BOTH. , #240 ) ;
#168 = PRESENTATION_LAYER_ASSIGNMENT (  '', '', ( #302 ) ) ;
#169 = ORIENTED_EDGE ( 'NONE', *, *, #172, .F. ) ;
#170 = ADVANCED_FACE ( 'NONE', ( #179 ), #79, .T. ) ;
#171 = FILL_AREA_STYLE ('',( #68 ) ) ;
#172 = EDGE_CURVE ( 'NONE', #162, #291, #138, .T. ) ;
#173 = FILL_AREA_STYLE_COLOUR ( '', #36 ) ;
#174 = EDGE_CURVE ( 'NONE', #142, #291, #55, .T. ) ;
#175 = MECHANICAL_DESIGN_GEOMETRIC_PRESENTATION_REPRESENTATION (  '', ( #121 ), #127 ) ;
#176 = DIRECTION ( 'NONE',  ( -1.000000000000000000, 0.000000000000000000, 0.000000000000000000 ) ) ;
#177 = CIRCLE ( 'NONE', #140, 0.1562500000000000000 ) ;
#178 = EDGE_CURVE ( 'NONE', #90, #257, #19, .T. ) ;
#179 = FACE_OUTER_BOUND ( 'NONE', #216, .T. ) ;
#180 = CARTESIAN_POINT ( 'NONE',  ( 0.000000000000000000, 0.000000000000000000, -0.1562500000000000000 ) ) ;
#181 = CYLINDRICAL_SURFACE ( 'NONE', #259, 0.1562500000000000000 ) ;
#182 = FILL_AREA_STYLE ('',( #300 ) ) ;
#183 =( CONVERSION_BASED_UNIT ( 'INCH', #161 ) LENGTH_UNIT ( ) NAMED_UNIT ( #48 ) );
#184 = FILL_AREA_STYLE_COLOUR ( '', #83 ) ;
#185 = AXIS2_PLACEMENT_3D ( 'NONE', #144, #41, #139 ) ;
#186 = ORIENTED_EDGE ( 'NONE', *, *, #21, .T. ) ;
#187 = SURFACE_SIDE_STYLE ('',( #107 ) ) ;
#188 = CARTESIAN_POINT ( 'NONE',  ( 0.000000000000000000, 1.250000000000000000, 0.000000000000000000 ) ) ;
#189 = DIMENSIONAL_EXPONENTS ( 1.000000000000000000, 0.000000000000000000, 0.000000000000000000, 0.000000000000000000, 0.000000000000000000, 0.000000000000000000, 0.000000000000000000 ) ;
#190 = VERTEX_POINT ( 'NONE', #12 ) ;
#191 = AXIS2_PLACEMENT_3D ( 'NONE', #207, #80, #202 ) ;
#192 = EDGE_LOOP ( 'NONE', ( #261, #164, #93, #69 ) ) ;
#193 = ORIENTED_EDGE ( 'NONE', *, *, #274, .T. ) ;
#194 = DIRECTION ( 'NONE',  ( 1.000000000000000000, 3.498990854706726443E-17, 0.000000000000000000 ) ) ;
#195 =( NAMED_UNIT ( * ) SI_UNIT ( $, .STERADIAN. ) SOLID_ANGLE_UNIT ( ) );
#196 = MECHANICAL_DESIGN_GEOMETRIC_PRESENTATION_REPRESENTATION (  '', ( #18 ), #3 ) ;
#197 = DIRECTION ( 'NONE',  ( -3.498990854706726443E-17, 1.000000000000000000, -0.000000000000000000 ) ) ;
#198 = DIRECTION ( 'NONE',  ( -1.000000000000000000, 0.000000000000000000, 0.000000000000000000 ) ) ;
#199 = CYLINDRICAL_SURFACE ( 'NONE', #105, 0.1562500000000000278 ) ;
#200 =( GEOMETRIC_REPRESENTATION_CONTEXT ( 3 ) GLOBAL_UNCERTAINTY_ASSIGNED_CONTEXT ( ( #204 ) ) GLOBAL_UNIT_ASSIGNED_CONTEXT ( ( #125, #82, #280 ) ) REPRESENTATION_CONTEXT ( 'NONE', 'WORKASPACE' ) );
#201 = DIRECTION ( 'NONE',  ( -0.000000000000000000, -1.000000000000000000, -0.000000000000000000 ) ) ;
#202 = DIRECTION ( 'NONE',  ( 0.000000000000000000, 0.000000000000000000, -1.000000000000000000 ) ) ;
#203 = SURFACE_SIDE_STYLE ('',( #104 ) ) ;
#204 = UNCERTAINTY_MEASURE_WITH_UNIT (LENGTH_MEASURE( 1.000000000000000082E-05 ), #125, 'distance_accuracy_value', 'NONE');
#205 = CIRCLE ( 'NONE', #248, 0.1562500000000000000 ) ;
#206 = COLOUR_RGB ( '',1.000000000000000000, 0.000000000000000000, 0.000000000000000000 ) ;
#207 = CARTESIAN_POINT ( 'NONE',  ( 0.000000000000000000, 0.000000000000000000, 0.000000000000000000 ) ) ;
#208 =( NAMED_UNIT ( * ) PLANE_ANGLE_UNIT ( ) SI_UNIT ( $, .RADIAN. ) );
#209 = EDGE_CURVE ( 'NONE', #142, #63, #205, .T. ) ;
#210 =( NAMED_UNIT ( * ) SI_UNIT ( $, .STERADIAN. ) SOLID_ANGLE_UNIT ( ) );
#211 = ORIENTED_EDGE ( 'NONE', *, *, #250, .F. ) ;
#212 =( NAMED_UNIT ( * ) SI_UNIT ( $, .STERADIAN. ) SOLID_ANGLE_UNIT ( ) );
#213 = AXIS2_PLACEMENT_3D ( 'NONE', #132, #201, #160 ) ;
#214 = AXIS2_PLACEMENT_3D ( 'NONE', #32, #45, #29 ) ;
#215 = EDGE_LOOP ( 'NONE', ( #87, #111, #108, #44 ) ) ;
#216 = EDGE_LOOP ( 'NONE', ( #283, #306, #284, #169 ) ) ;
#217 = CARTESIAN_POINT ( 'NONE',  ( -6.123233995736772199E-17, 3.000000000000000444, 0.000000000000000000 ) ) ;
#218 =( NAMED_UNIT ( * ) SI_UNIT ( $, .STERADIAN. ) SOLID_ANGLE_UNIT ( ) );
#219 = COLOUR_RGB ( '',1.000000000000000000, 0.000000000000000000, 0.000000000000000000 ) ;
#220 = PLANE ( 'NONE',  #33 ) ;
#221 = EDGE_CURVE ( 'NONE', #63, #162, #254, .T. ) ;
#222 = CARTESIAN_POINT ( 'NONE',  ( -6.123233995736772199E-17, 3.000000000000000444, 0.000000000000000000 ) ) ;
#223 = SURFACE_STYLE_USAGE ( .BOTH. , #5 ) ;
#224 = PRODUCT ( '03285', '03285', '', ( #95 ) ) ;
#225 =( GEOMETRIC_REPRESENTATION_CONTEXT ( 3 ) GLOBAL_UNCERTAINTY_ASSIGNED_CONTEXT ( ( #155 ) ) GLOBAL_UNIT_ASSIGNED_CONTEXT ( ( #305, #208, #212 ) ) REPRESENTATION_CONTEXT ( 'NONE', 'WORKASPACE' ) );
#226 = ADVANCED_FACE ( 'NONE', ( #303 ), #181, .T. ) ;
#227 = FACE_OUTER_BOUND ( 'NONE', #20, .T. ) ;
#228 = AXIS2_PLACEMENT_3D ( 'NONE', #222, #197, #198 ) ;
#229 = FILL_AREA_STYLE_COLOUR ( '', #99 ) ;
#230 = ADVANCED_BREP_SHAPE_REPRESENTATION ( '03285', ( #131, #245, #231 ), #238 ) ;
#231 = AXIS2_PLACEMENT_3D ( 'NONE', #49, #113, #148 ) ;
#232 = CARTESIAN_POINT ( 'NONE',  ( 1.913510623667739463E-17, 0.000000000000000000, 0.1562500000000000000 ) ) ;
#233 = PRODUCT_DEFINITION ( 'UNKNOWN', '', #11, #77 ) ;
#234 =( NAMED_UNIT ( * ) PLANE_ANGLE_UNIT ( ) SI_UNIT ( $, .RADIAN. ) );
#235 = ORIENTED_EDGE ( 'NONE', *, *, #289, .T. ) ;
#236 = ORIENTED_EDGE ( 'NONE', *, *, #252, .F. ) ;
#237 = AXIS2_PLACEMENT_3D ( 'NONE', #153, #34, #278 ) ;
#238 =( GEOMETRIC_REPRESENTATION_CONTEXT ( 3 ) GLOBAL_UNCERTAINTY_ASSIGNED_CONTEXT ( ( #271 ) ) GLOBAL_UNIT_ASSIGNED_CONTEXT ( ( #264, #145, #218 ) ) REPRESENTATION_CONTEXT ( 'NONE', 'WORKASPACE' ) );
#239 = FACE_OUTER_BOUND ( 'NONE', #96, .T. ) ;
#240 = SURFACE_SIDE_STYLE ('',( #143 ) ) ;
#241 = FILL_AREA_STYLE ('',( #25 ) ) ;
#242 = PRESENTATION_LAYER_ASSIGNMENT (  '', '', ( #121 ) ) ;
#243 = DIRECTION ( 'NONE',  ( -3.498990854706726443E-17, 1.000000000000000000, -0.000000000000000000 ) ) ;
#244 = CARTESIAN_POINT ( 'NONE',  ( 1.913510623667739463E-17, 1.250000000000000000, 0.1562500000000000000 ) ) ;
#245 = MANIFOLD_SOLID_BREP ( 'Revolve - Tool Body (Straight Shanked)', #151 ) ;
#246 = DIRECTION ( 'NONE',  ( 0.000000000000000000, -0.000000000000000000, 1.000000000000000000 ) ) ;
#247 =( LENGTH_UNIT ( ) NAMED_UNIT ( * ) SI_UNIT ( $, .METRE. ) );
#248 = AXIS2_PLACEMENT_3D ( 'NONE', #154, #275, #35 ) ;
#249 = FACE_OUTER_BOUND ( 'NONE', #112, .T. ) ;
#250 = EDGE_CURVE ( 'NONE', #63, #142, #122, .T. ) ;
#251 = DIRECTION ( 'NONE',  ( -3.498990854706726443E-17, 1.000000000000000000, -0.000000000000000000 ) ) ;
#252 = EDGE_CURVE ( 'NONE', #90, #135, #23, .T. ) ;
#253 = DIRECTION ( 'NONE',  ( -0.000000000000000000, -1.000000000000000000, -0.000000000000000000 ) ) ;
#254 = LINE ( 'NONE', #232, #147 ) ;
#255 = PRESENTATION_LAYER_ASSIGNMENT (  '', '', ( #78 ) ) ;
#256 = PRESENTATION_STYLE_ASSIGNMENT (( #60 ) ) ;
#257 = VERTEX_POINT ( 'NONE', #287 ) ;
#258 = DIRECTION ( 'NONE',  ( 0.000000000000000000, 0.000000000000000000, -1.000000000000000000 ) ) ;
#259 = AXIS2_PLACEMENT_3D ( 'NONE', #285, #110, #258 ) ;
#260 = FILL_AREA_STYLE ('',( #184 ) ) ;
#261 = ORIENTED_EDGE ( 'NONE', *, *, #126, .F. ) ;
#262 = DIRECTION ( 'NONE',  ( 0.000000000000000000, 1.000000000000000000, 0.000000000000000000 ) ) ;
#263 = CARTESIAN_POINT ( 'NONE',  ( -6.123233995736772199E-17, 3.000000000000000444, 0.000000000000000000 ) ) ;
#264 =( CONVERSION_BASED_UNIT ( 'INCH', #119 ) LENGTH_UNIT ( ) NAMED_UNIT ( #189 ) );
#265 =( NAMED_UNIT ( * ) SI_UNIT ( $, .STERADIAN. ) SOLID_ANGLE_UNIT ( ) );
#266 = APPLICATION_PROTOCOL_DEFINITION ( 'draft international standard', 'automotive_design', 1998, #38 ) ;
#267 = CYLINDRICAL_SURFACE ( 'NONE', #228, 0.1562500000000000278 ) ;
#268 = DIRECTION ( 'NONE',  ( -1.000000000000000000, 0.000000000000000000, 0.000000000000000000 ) ) ;
#269 =( LENGTH_UNIT ( ) NAMED_UNIT ( * ) SI_UNIT ( $, .METRE. ) );
#270 = STYLED_ITEM ( 'NONE', ( #114 ), #53 ) ;
#271 = UNCERTAINTY_MEASURE_WITH_UNIT (LENGTH_MEASURE( 1.000000000000000082E-05 ), #264, 'distance_accuracy_value', 'NONE');
#272 = SURFACE_STYLE_USAGE ( .BOTH. , #59 ) ;
#273 = CARTESIAN_POINT ( 'NONE',  ( 1.913510623667739463E-17, 0.000000000000000000, 0.1562500000000000000 ) ) ;
#274 = EDGE_CURVE ( 'NONE', #257, #190, #109, .T. ) ;
#275 = DIRECTION ( 'NONE',  ( -0.000000000000000000, -1.000000000000000000, -0.000000000000000000 ) ) ;
#276 =( GEOMETRIC_REPRESENTATION_CONTEXT ( 3 ) GLOBAL_UNCERTAINTY_ASSIGNED_CONTEXT ( ( #129 ) ) GLOBAL_UNIT_ASSIGNED_CONTEXT ( ( #150, #31, #265 ) ) REPRESENTATION_CONTEXT ( 'NONE', 'WORKASPACE' ) );
#277 = VECTOR ( 'NONE', #251, 39.37007874015748143 ) ;
#278 = DIRECTION ( 'NONE',  ( -1.000000000000000000, -3.498990854706726443E-17, 0.000000000000000000 ) ) ;
#279 = ADVANCED_FACE ( 'NONE', ( #65 ), #91, .T. ) ;
#280 =( NAMED_UNIT ( * ) SI_UNIT ( $, .STERADIAN. ) SOLID_ANGLE_UNIT ( ) );
#281 = VECTOR ( 'NONE', #298, 39.37007874015748143 ) ;
#282 = DIRECTION ( 'NONE',  ( 0.000000000000000000, 0.000000000000000000, -1.000000000000000000 ) ) ;
#283 = ORIENTED_EDGE ( 'NONE', *, *, #221, .F. ) ;
#284 = ORIENTED_EDGE ( 'NONE', *, *, #174, .T. ) ;
#285 = CARTESIAN_POINT ( 'NONE',  ( 0.000000000000000000, 0.000000000000000000, 0.000000000000000000 ) ) ;
#286 = ORIENTED_EDGE ( 'NONE', *, *, #178, .F. ) ;
#287 = CARTESIAN_POINT ( 'NONE',  ( -0.1562500000000001388, 3.000000000000000444, 0.000000000000000000 ) ) ;
#288 = ORIENTED_EDGE ( 'NONE', *, *, #274, .F. ) ;
#289 = EDGE_CURVE ( 'NONE', #291, #162, #9, .T. ) ;
#290 = DIRECTION ( 'NONE',  ( -0.000000000000000000, -1.000000000000000000, -0.000000000000000000 ) ) ;
#291 = VERTEX_POINT ( 'NONE', #116 ) ;
#292 = DIMENSIONAL_EXPONENTS ( 1.000000000000000000, 0.000000000000000000, 0.000000000000000000, 0.000000000000000000, 0.000000000000000000, 0.000000000000000000, 0.000000000000000000 ) ;
#293 =( NAMED_UNIT ( * ) PLANE_ANGLE_UNIT ( ) SI_UNIT ( $, .RADIAN. ) );
#294 = PLANE ( 'NONE',  #115 ) ;
#295 = DIRECTION ( 'NONE',  ( 3.498990854706726443E-17, -1.000000000000000000, 0.000000000000000000 ) ) ;
#296 = PRODUCT_RELATED_PRODUCT_CATEGORY ( 'part', '', ( #224 ) ) ;
#297 = CARTESIAN_POINT ( 'NONE',  ( 0.1562500000000000000, 1.250000000000000000, 1.913510623667739771E-17 ) ) ;
#298 = DIRECTION ( 'NONE',  ( -0.000000000000000000, -1.000000000000000000, -0.000000000000000000 ) ) ;
#299 = MECHANICAL_DESIGN_GEOMETRIC_PRESENTATION_REPRESENTATION (  '', ( #78 ), #200 ) ;
#300 = FILL_AREA_STYLE_COLOUR ( '', #219 ) ;
#301 = LENGTH_MEASURE_WITH_UNIT ( LENGTH_MEASURE( 0.02539999999999999897 ), #159 );
#302 = STYLED_ITEM ( 'NONE', ( #256 ), #245 ) ;
#303 = FACE_OUTER_BOUND ( 'NONE', #215, .T. ) ;
#304 = UNCERTAINTY_MEASURE_WITH_UNIT (LENGTH_MEASURE( 1.000000000000000082E-05 ), #158, 'distance_accuracy_value', 'NONE');
#305 =( CONVERSION_BASED_UNIT ( 'INCH', #134 ) LENGTH_UNIT ( ) NAMED_UNIT ( #30 ) );
#306 = ORIENTED_EDGE ( 'NONE', *, *, #250, .T. ) ;
#307 = EDGE_CURVE ( 'NONE', #135, #90, #177, .T. ) ;
#308 = ORIENTED_EDGE ( 'NONE', *, *, #126, .T. ) ;
#309 = DIRECTION ( 'NONE',  ( -1.000000000000000000, 0.000000000000000000, 0.000000000000000000 ) ) ;
ENDSEC;
END-ISO-10303-21;
