ISO-10303-21;
HEADER;
FILE_DESCRIPTION (( 'STEP AP214' ),
    '1' );
FILE_NAME ('Micro_BEM-125-04X.STEP',
    '2021-09-03T13:02:34',
    ( '' ),
    ( '' ),
    'SwSTEP 2.0',
    'SolidWorks 2020',
    '' );
FILE_SCHEMA (( 'AUTOMOTIVE_DESIGN' ));
ENDSEC;

DATA;
#1 = CARTESIAN_POINT ( 'NONE',  ( 0.0000000000000000000, 0.0000000000000000000, 0.0000000000000000000 ) ) ;
#2 = AXIS2_PLACEMENT_3D ( 'NONE', #183, #83, #304 ) ;
#3 = CARTESIAN_POINT ( 'NONE',  ( 0.06243750000000006239, 0.0000000000000000000, 0.5000000000000000000 ) ) ;
#4 = EDGE_CURVE ( 'NONE', #282, #141, #55, .T. ) ;
#5 = CARTESIAN_POINT ( 'NONE',  ( -0.06250000000000002776, 0.0000000000000000000, 1.500000000000000222 ) ) ;
#6 =( NAMED_UNIT ( * ) SI_UNIT ( $, .STERADIAN. ) SOLID_ANGLE_UNIT ( ) );
#7 = ORIENTED_EDGE ( 'NONE', *, *, #42, .T. ) ;
#8 = ORIENTED_EDGE ( 'NONE', *, *, #313, .T. ) ;
#9 = UNCERTAINTY_MEASURE_WITH_UNIT (LENGTH_MEASURE( 1.000000000000000082E-05 ), #130, 'distance_accuracy_value', 'NONE');
#10 = LINE ( 'NONE', #169, #80 ) ;
#11 = AXIS2_PLACEMENT_3D ( 'NONE', #249, #244, #173 ) ;
#12 = ORIENTED_EDGE ( 'NONE', *, *, #4, .F. ) ;
#13 = DIRECTION ( 'NONE',  ( 0.1736481776669312471, 0.0000000000000000000, 0.9848077530122077983 ) ) ;
#14 = ORIENTED_EDGE ( 'NONE', *, *, #207, .T. ) ;
#15 = CARTESIAN_POINT ( 'NONE',  ( 0.0000000000000000000, 0.0000000000000000000, 1.500000000000000222 ) ) ;
#16 = AXIS2_PLACEMENT_3D ( 'NONE', #34, #77, #162 ) ;
#17 = ORIENTED_EDGE ( 'NONE', *, *, #269, .T. ) ;
#18 = CARTESIAN_POINT ( 'NONE',  ( 0.0000000000000000000, 0.0000000000000000000, 1.500000000000000222 ) ) ;
#19 = VERTEX_POINT ( 'NONE', #272 ) ;
#20 = DIRECTION ( 'NONE',  ( 0.0000000000000000000, 0.0000000000000000000, 1.000000000000000000 ) ) ;
#21 = EDGE_LOOP ( 'NONE', ( #210, #227, #188, #292 ) ) ;
#22 = FACE_OUTER_BOUND ( 'NONE', #143, .T. ) ;
#23 = AXIS2_PLACEMENT_3D ( 'NONE', #81, #158, #308 ) ;
#24 = ADVANCED_FACE ( 'NONE', ( #119 ), #51, .T. ) ;
#25 = DIRECTION ( 'NONE',  ( 0.7071067811865462405, 8.659560562354916834E-17, -0.7071067811865486830 ) ) ;
#26 = PRODUCT_DEFINITION_SHAPE ( 'NONE', 'NONE',  #148 ) ;
#27 = AXIS2_PLACEMENT_3D ( 'NONE', #195, #295, #48 ) ;
#28 = DIMENSIONAL_EXPONENTS ( 1.000000000000000000, 0.0000000000000000000, 0.0000000000000000000, 0.0000000000000000000, 0.0000000000000000000, 0.0000000000000000000, 0.0000000000000000000 ) ;
#29 = AXIS2_PLACEMENT_3D ( 'NONE', #126, #226, #47 ) ;
#30 = DIRECTION ( 'NONE',  ( 1.000000000000000000, 0.0000000000000000000, 0.0000000000000000000 ) ) ;
#31 = FILL_AREA_STYLE ('',( #134 ) ) ;
#32 = ADVANCED_FACE ( 'NONE', ( #22 ), #69, .T. ) ;
#33 = CIRCLE ( 'NONE', #232, 0.04750000000000064587 ) ;
#34 = CARTESIAN_POINT ( 'NONE',  ( 6.127574818941430966E-17, 0.0000000000000000000, 0.5003544551137262264 ) ) ;
#35 = VERTEX_POINT ( 'NONE', #202 ) ;
#36 = CARTESIAN_POINT ( 'NONE',  ( 0.06243749999999999994, 7.646388452176287375E-18, -7.646388452176290456E-18 ) ) ;
#37 = ORIENTED_EDGE ( 'NONE', *, *, #230, .F. ) ;
#38 = VERTEX_POINT ( 'NONE', #224 ) ;
#39 = ORIENTED_EDGE ( 'NONE', *, *, #64, .F. ) ;
#40 = PRESENTATION_STYLE_ASSIGNMENT (( #63 ) ) ;
#41 = VERTEX_POINT ( 'NONE', #50 ) ;
#42 = EDGE_CURVE ( 'NONE', #242, #314, #127, .T. ) ;
#43 = DIRECTION ( 'NONE',  ( -1.224646799147353700E-16, -0.0000000000000000000, -1.000000000000000000 ) ) ;
#44 = STYLED_ITEM ( 'NONE', ( #305 ), #186 ) ;
#45 = ORIENTED_EDGE ( 'NONE', *, *, #307, .T. ) ;
#46 = CARTESIAN_POINT ( 'NONE',  ( -0.06243749999999994443, 7.650215473423623230E-18, 0.5000000000000000000 ) ) ;
#47 = DIRECTION ( 'NONE',  ( -1.000000000000000000, 0.0000000000000000000, 1.367291288120251888E-16 ) ) ;
#48 = DIRECTION ( 'NONE',  ( 1.000000000000000000, 0.0000000000000000000, 0.0000000000000000000 ) ) ;
#49 = CARTESIAN_POINT ( 'NONE',  ( -0.06243749999999994443, 7.646388452176287375E-18, 0.5000000000000000000 ) ) ;
#50 = CARTESIAN_POINT ( 'NONE',  ( 0.04750000000000064587, 6.735557395310483192E-18, 1.500000000000000222 ) ) ;
#51 = CONICAL_SURFACE ( 'NONE', #201, 0.04750000000000064587, 0.7853981633974466137 ) ;
#52 = CARTESIAN_POINT ( 'NONE',  ( 7.646388452176290456E-18, 0.0000000000000000000, 0.06243749999999999994 ) ) ;
#53 = ADVANCED_FACE ( 'NONE', ( #319 ), #321, .T. ) ;
#54 =( NAMED_UNIT ( * ) PLANE_ANGLE_UNIT ( ) SI_UNIT ( $, .RADIAN. ) );
#55 = CIRCLE ( 'NONE', #82, 0.06243749999999999994 ) ;
#56 = DIRECTION ( 'NONE',  ( 1.224646799147353700E-16, 0.0000000000000000000, 1.000000000000000000 ) ) ;
#57 = ORIENTED_EDGE ( 'NONE', *, *, #76, .F. ) ;
#58 = SPHERICAL_SURFACE ( 'NONE', #233, 0.06243749999999999994 ) ;
#59 = ORIENTED_EDGE ( 'NONE', *, *, #215, .F. ) ;
#60 = CYLINDRICAL_SURFACE ( 'NONE', #228, 0.06250000000000002776 ) ;
#61 = CIRCLE ( 'NONE', #132, 0.04750000000000064587 ) ;
#62 = ORIENTED_EDGE ( 'NONE', *, *, #90, .T. ) ;
#63 = SURFACE_STYLE_USAGE ( .BOTH. , #293 ) ;
#64 = EDGE_CURVE ( 'NONE', #35, #138, #149, .T. ) ;
#65 = VERTEX_POINT ( 'NONE', #303 ) ;
#66 = FACE_OUTER_BOUND ( 'NONE', #151, .T. ) ;
#67 = CARTESIAN_POINT ( 'NONE',  ( -0.06243749999999999994, 0.0000000000000000000, 7.646388452176290456E-18 ) ) ;
#68 = FACE_OUTER_BOUND ( 'NONE', #112, .T. ) ;
#69 = CONICAL_SURFACE ( 'NONE', #241, 0.06243749999999999994, 0.1745329251994337527 ) ;
#70 = ORIENTED_EDGE ( 'NONE', *, *, #4, .T. ) ;
#71 = LINE ( 'NONE', #49, #278 ) ;
#72 = CONICAL_SURFACE ( 'NONE', #27, 0.06243749999999999994, 0.1745329251994337527 ) ;
#73 =( NAMED_UNIT ( * ) PLANE_ANGLE_UNIT ( ) SI_UNIT ( $, .RADIAN. ) );
#74 = EDGE_CURVE ( 'NONE', #282, #38, #71, .T. ) ;
#75 = CARTESIAN_POINT ( 'NONE',  ( 7.646388452176290456E-18, 0.0000000000000000000, 0.06243749999999999994 ) ) ;
#76 = EDGE_CURVE ( 'NONE', #19, #242, #299, .T. ) ;
#77 = DIRECTION ( 'NONE',  ( -1.224646799147353700E-16, -0.0000000000000000000, -1.000000000000000000 ) ) ;
#78 = DIRECTION ( 'NONE',  ( -1.224646799147353700E-16, -0.0000000000000000000, -1.000000000000000000 ) ) ;
#79 = FACE_OUTER_BOUND ( 'NONE', #312, .T. ) ;
#80 = VECTOR ( 'NONE', #13, 39.37007874015748143 ) ;
#81 = CARTESIAN_POINT ( 'NONE',  ( 7.646388452176290456E-18, 0.0000000000000000000, 0.06243749999999999994 ) ) ;
#82 = AXIS2_PLACEMENT_3D ( 'NONE', #246, #325, #153 ) ;
#83 = DIRECTION ( 'NONE',  ( 0.0000000000000000000, 0.0000000000000000000, -1.000000000000000000 ) ) ;
#84 = ORIENTED_EDGE ( 'NONE', *, *, #307, .F. ) ;
#85 = DIRECTION ( 'NONE',  ( -1.000000000000000000, 0.0000000000000000000, 0.0000000000000000000 ) ) ;
#86 = EDGE_LOOP ( 'NONE', ( #70, #14, #7, #84 ) ) ;
#87 =( GEOMETRIC_REPRESENTATION_CONTEXT ( 3 ) GLOBAL_UNCERTAINTY_ASSIGNED_CONTEXT ( ( #283 ) ) GLOBAL_UNIT_ASSIGNED_CONTEXT ( ( #131, #54, #6 ) ) REPRESENTATION_CONTEXT ( 'NONE', 'WORKASPACE' ) );
#88 = LINE ( 'NONE', #67, #178 ) ;
#89 = AXIS2_PLACEMENT_3D ( 'NONE', #1, #78, #164 ) ;
#90 = EDGE_CURVE ( 'NONE', #38, #138, #139, .T. ) ;
#91 = ORIENTED_EDGE ( 'NONE', *, *, #74, .T. ) ;
#92 =( LENGTH_UNIT ( ) NAMED_UNIT ( * ) SI_UNIT ( $, .METRE. ) );
#93 = DIRECTION ( 'NONE',  ( 0.0000000000000000000, -1.000000000000000000, 0.0000000000000000000 ) ) ;
#94 = CARTESIAN_POINT ( 'NONE',  ( 0.0000000000000000000, 0.0000000000000000000, 1.500000000000000222 ) ) ;
#95 = LENGTH_MEASURE_WITH_UNIT ( LENGTH_MEASURE( 0.02539999999999999897 ), #288 );
#96 = DIRECTION ( 'NONE',  ( 0.0000000000000000000, 0.0000000000000000000, -1.000000000000000000 ) ) ;
#97 = EDGE_CURVE ( 'NONE', #41, #35, #199, .T. ) ;
#98 = AXIS2_PLACEMENT_3D ( 'NONE', #75, #93, #96 ) ;
#99 = DIRECTION ( 'NONE',  ( 0.0000000000000000000, 0.0000000000000000000, -1.000000000000000000 ) ) ;
#100 = ADVANCED_FACE ( 'NONE', ( #175 ), #128, .T. ) ;
#101 = CIRCLE ( 'NONE', #16, 0.06250000000000002776 ) ;
#102 = UNCERTAINTY_MEASURE_WITH_UNIT (LENGTH_MEASURE( 1.000000000000000082E-05 ), #216, 'distance_accuracy_value', 'NONE');
#103 = CARTESIAN_POINT ( 'NONE',  ( 0.0000000000000000000, 0.0000000000000000000, 0.0000000000000000000 ) ) ;
#104 = CARTESIAN_POINT ( 'NONE',  ( 0.0000000000000000000, 0.0000000000000000000, 1.500000000000000222 ) ) ;
#105 = CARTESIAN_POINT ( 'NONE',  ( 0.0000000000000000000, 0.0000000000000000000, 1.500000000000000222 ) ) ;
#106 = AXIS2_PLACEMENT_3D ( 'NONE', #229, #56, #205 ) ;
#107 = CYLINDRICAL_SURFACE ( 'NONE', #89, 0.06243749999999999994 ) ;
#108 = SURFACE_STYLE_FILL_AREA ( #31 ) ;
#109 = VERTEX_POINT ( 'NONE', #270 ) ;
#110 = CARTESIAN_POINT ( 'NONE',  ( 0.06250000000000008327, 7.654042494670966789E-18, 0.5003544551137262264 ) ) ;
#111 = ADVANCED_FACE ( 'NONE', ( #68 ), #72, .T. ) ;
#112 = EDGE_LOOP ( 'NONE', ( #12, #91, #62, #247 ) ) ;
#113 = PRODUCT_DEFINITION_FORMATION_WITH_SPECIFIED_SOURCE ( 'ANY', '', #123, .NOT_KNOWN. ) ;
#114 = ORIENTED_EDGE ( 'NONE', *, *, #269, .F. ) ;
#115 = AXIS2_PLACEMENT_3D ( 'NONE', #170, #300, #204 ) ;
#116 = DIRECTION ( 'NONE',  ( 0.0000000000000000000, 0.0000000000000000000, 1.000000000000000000 ) ) ;
#117 = ORIENTED_EDGE ( 'NONE', *, *, #256, .T. ) ;
#118 = PRESENTATION_LAYER_ASSIGNMENT (  '', '', ( #219 ) ) ;
#119 = FACE_OUTER_BOUND ( 'NONE', #259, .T. ) ;
#120 = LENGTH_MEASURE_WITH_UNIT ( LENGTH_MEASURE( 0.02539999999999999897 ), #92 );
#121 = EDGE_LOOP ( 'NONE', ( #57, #177, #213 ) ) ;
#122 =( NAMED_UNIT ( * ) SI_UNIT ( $, .STERADIAN. ) SOLID_ANGLE_UNIT ( ) );
#123 = PRODUCT ( 'Micro_BEM-125-04X', 'Micro_BEM-125-04X', '', ( #150 ) ) ;
#124 = ADVANCED_FACE ( 'NONE', ( #66 ), #58, .T. ) ;
#125 = DIRECTION ( 'NONE',  ( 1.000000000000000000, 0.0000000000000000000, 0.0000000000000000000 ) ) ;
#126 = CARTESIAN_POINT ( 'NONE',  ( 7.646388452176290456E-18, 0.0000000000000000000, 0.06243749999999999994 ) ) ;
#127 = CIRCLE ( 'NONE', #29, 0.06243749999999999994 ) ;
#128 = CYLINDRICAL_SURFACE ( 'NONE', #168, 0.06250000000000002776 ) ;
#129 = ADVANCED_FACE ( 'NONE', ( #231 ), #306, .T. ) ;
#130 =( CONVERSION_BASED_UNIT ( 'INCH', #120 ) LENGTH_UNIT ( ) NAMED_UNIT ( #180 ) );
#131 =( CONVERSION_BASED_UNIT ( 'INCH', #286 ) LENGTH_UNIT ( ) NAMED_UNIT ( #28 ) );
#132 = AXIS2_PLACEMENT_3D ( 'NONE', #15, #20, #166 ) ;
#133 = ORIENTED_EDGE ( 'NONE', *, *, #154, .F. ) ;
#134 = FILL_AREA_STYLE_COLOUR ( '', #237 ) ;
#135 = EDGE_LOOP ( 'NONE', ( #240, #114, #165, #218 ) ) ;
#136 = AXIS2_PLACEMENT_3D ( 'NONE', #260, #43, #85 ) ;
#137 = FILL_AREA_STYLE ('',( #318 ) ) ;
#138 = VERTEX_POINT ( 'NONE', #110 ) ;
#139 = CIRCLE ( 'NONE', #11, 0.06250000000000002776 ) ;
#140 = APPLICATION_PROTOCOL_DEFINITION ( 'draft international standard', 'automotive_design', 1998, #271 ) ;
#141 = VERTEX_POINT ( 'NONE', #3 ) ;
#142 = LINE ( 'NONE', #245, #254 ) ;
#143 = EDGE_LOOP ( 'NONE', ( #287, #185, #117, #285 ) ) ;
#144 = VECTOR ( 'NONE', #311, 39.37007874015748143 ) ;
#145 = DIRECTION ( 'NONE',  ( 1.224646799147353207E-16, 1.000000000000000000, -0.0000000000000000000 ) ) ;
#146 = ORIENTED_EDGE ( 'NONE', *, *, #76, .T. ) ;
#147 = CARTESIAN_POINT ( 'NONE',  ( 7.646388452176290456E-18, 0.0000000000000000000, 0.06243749999999999994 ) ) ;
#148 = PRODUCT_DEFINITION ( 'UNKNOWN', '', #113, #192 ) ;
#149 = LINE ( 'NONE', #315, #157 ) ;
#150 = PRODUCT_CONTEXT ( 'NONE', #271, 'mechanical' ) ;
#151 = EDGE_LOOP ( 'NONE', ( #163, #146, #37 ) ) ;
#152 = MECHANICAL_DESIGN_GEOMETRIC_PRESENTATION_REPRESENTATION (  '', ( #44 ), #87 ) ;
#153 = DIRECTION ( 'NONE',  ( -1.000000000000000000, 0.0000000000000000000, 0.0000000000000000000 ) ) ;
#154 = EDGE_CURVE ( 'NONE', #138, #38, #101, .T. ) ;
#155 =( NAMED_UNIT ( * ) SI_UNIT ( $, .STERADIAN. ) SOLID_ANGLE_UNIT ( ) );
#156 = FACE_OUTER_BOUND ( 'NONE', #86, .T. ) ;
#157 = VECTOR ( 'NONE', #297, 39.37007874015748143 ) ;
#158 = DIRECTION ( 'NONE',  ( 0.0000000000000000000, 1.000000000000000000, 0.0000000000000000000 ) ) ;
#159 = LINE ( 'NONE', #5, #184 ) ;
#160 = AXIS2_PLACEMENT_3D ( 'NONE', #147, #145, #266 ) ;
#161 = EDGE_CURVE ( 'NONE', #109, #38, #159, .T. ) ;
#162 = DIRECTION ( 'NONE',  ( 1.000000000000000000, 0.0000000000000000000, 0.0000000000000000000 ) ) ;
#163 = ORIENTED_EDGE ( 'NONE', *, *, #323, .F. ) ;
#164 = DIRECTION ( 'NONE',  ( -1.000000000000000000, 0.0000000000000000000, 1.224646799147353947E-16 ) ) ;
#165 = ORIENTED_EDGE ( 'NONE', *, *, #301, .T. ) ;
#166 = DIRECTION ( 'NONE',  ( 1.000000000000000000, 0.0000000000000000000, 0.0000000000000000000 ) ) ;
#167 = ORIENTED_EDGE ( 'NONE', *, *, #230, .T. ) ;
#168 = AXIS2_PLACEMENT_3D ( 'NONE', #243, #317, #181 ) ;
#169 = CARTESIAN_POINT ( 'NONE',  ( 0.06243750000000006239, 0.0000000000000000000, 0.5000000000000000000 ) ) ;
#170 = CARTESIAN_POINT ( 'NONE',  ( 0.0000000000000000000, 0.0000000000000000000, 0.0000000000000000000 ) ) ;
#171 = AXIS2_PLACEMENT_3D ( 'NONE', #103, #268, #174 ) ;
#172 = DIRECTION ( 'NONE',  ( -1.224646799147353700E-16, -0.0000000000000000000, -1.000000000000000000 ) ) ;
#173 = DIRECTION ( 'NONE',  ( 1.000000000000000000, 0.0000000000000000000, 0.0000000000000000000 ) ) ;
#174 = DIRECTION ( 'NONE',  ( 1.000000000000000000, 0.0000000000000000000, 0.0000000000000000000 ) ) ;
#175 = FACE_OUTER_BOUND ( 'NONE', #264, .T. ) ;
#176 = ADVANCED_FACE ( 'NONE', ( #156 ), #107, .T. ) ;
#177 = ORIENTED_EDGE ( 'NONE', *, *, #323, .T. ) ;
#178 = VECTOR ( 'NONE', #172, 39.37007874015748143 ) ;
#179 = APPLICATION_PROTOCOL_DEFINITION ( 'draft international standard', 'automotive_design', 1998, #291 ) ;
#180 = DIMENSIONAL_EXPONENTS ( 1.000000000000000000, 0.0000000000000000000, 0.0000000000000000000, 0.0000000000000000000, 0.0000000000000000000, 0.0000000000000000000, 0.0000000000000000000 ) ;
#181 = DIRECTION ( 'NONE',  ( -1.000000000000000000, 0.0000000000000000000, 0.0000000000000000000 ) ) ;
#182 = DIRECTION ( 'NONE',  ( 1.000000000000000000, 0.0000000000000000000, 0.0000000000000000000 ) ) ;
#183 = CARTESIAN_POINT ( 'NONE',  ( 0.0000000000000000000, 0.0000000000000000000, 1.485000000000000764 ) ) ;
#184 = VECTOR ( 'NONE', #187, 39.37007874015748143 ) ;
#185 = ORIENTED_EDGE ( 'NONE', *, *, #313, .F. ) ;
#186 = MANIFOLD_SOLID_BREP ( 'Fillet1', #274 ) ;
#187 = DIRECTION ( 'NONE',  ( -0.0000000000000000000, -0.0000000000000000000, -1.000000000000000000 ) ) ;
#188 = ORIENTED_EDGE ( 'NONE', *, *, #90, .F. ) ;
#189 = ORIENTED_EDGE ( 'NONE', *, *, #261, .T. ) ;
#190 = CARTESIAN_POINT ( 'NONE',  ( 0.0000000000000000000, 0.0000000000000000000, 1.500000000000000222 ) ) ;
#191 = ORIENTED_EDGE ( 'NONE', *, *, #301, .F. ) ;
#192 = PRODUCT_DEFINITION_CONTEXT ( 'detailed design', #291, 'design' ) ;
#193 = PRESENTATION_LAYER_ASSIGNMENT (  '', '', ( #44 ) ) ;
#194 = EDGE_LOOP ( 'NONE', ( #310, #8, #45, #167 ) ) ;
#195 = CARTESIAN_POINT ( 'NONE',  ( 6.123233995736768501E-17, 0.0000000000000000000, 0.5000000000000000000 ) ) ;
#196 = DIRECTION ( 'NONE',  ( -0.0000000000000000000, -0.0000000000000000000, -1.000000000000000000 ) ) ;
#197 = CARTESIAN_POINT ( 'NONE',  ( 6.123233995736768501E-17, 0.0000000000000000000, 0.5000000000000000000 ) ) ;
#198 = DIRECTION ( 'NONE',  ( -0.7071067811865462405, 0.0000000000000000000, -0.7071067811865486830 ) ) ;
#199 = LINE ( 'NONE', #298, #322 ) ;
#200 = ADVANCED_FACE ( 'NONE', ( #79 ), #234, .T. ) ;
#201 = AXIS2_PLACEMENT_3D ( 'NONE', #104, #99, #277 ) ;
#202 = CARTESIAN_POINT ( 'NONE',  ( 0.06250000000000002776, 7.654042494670959086E-18, 1.485000000000000764 ) ) ;
#203 = CIRCLE ( 'NONE', #2, 0.06250000000000002776 ) ;
#204 = DIRECTION ( 'NONE',  ( -1.000000000000000000, 0.0000000000000000000, 1.224646799147353947E-16 ) ) ;
#205 = DIRECTION ( 'NONE',  ( -1.000000000000000000, 0.0000000000000000000, 1.367291288120251888E-16 ) ) ;
#206 = DIMENSIONAL_EXPONENTS ( 1.000000000000000000, 0.0000000000000000000, 0.0000000000000000000, 0.0000000000000000000, 0.0000000000000000000, 0.0000000000000000000, 0.0000000000000000000 ) ;
#207 = EDGE_CURVE ( 'NONE', #141, #242, #214, .T. ) ;
#208 = DIRECTION ( 'NONE',  ( 0.0000000000000000000, 1.000000000000000000, 0.0000000000000000000 ) ) ;
#209 = DIRECTION ( 'NONE',  ( 1.000000000000000000, 0.0000000000000000000, -0.0000000000000000000 ) ) ;
#210 = ORIENTED_EDGE ( 'NONE', *, *, #215, .T. ) ;
#211 = FACE_OUTER_BOUND ( 'NONE', #21, .T. ) ;
#212 =( GEOMETRIC_REPRESENTATION_CONTEXT ( 3 ) GLOBAL_UNCERTAINTY_ASSIGNED_CONTEXT ( ( #102 ) ) GLOBAL_UNIT_ASSIGNED_CONTEXT ( ( #216, #220, #122 ) ) REPRESENTATION_CONTEXT ( 'NONE', 'WORKASPACE' ) );
#213 = ORIENTED_EDGE ( 'NONE', *, *, #42, .F. ) ;
#214 = LINE ( 'NONE', #36, #144 ) ;
#215 = EDGE_CURVE ( 'NONE', #109, #35, #203, .T. ) ;
#216 =( CONVERSION_BASED_UNIT ( 'INCH', #95 ) LENGTH_UNIT ( ) NAMED_UNIT ( #206 ) );
#217 = SURFACE_STYLE_FILL_AREA ( #137 ) ;
#218 = ORIENTED_EDGE ( 'NONE', *, *, #221, .F. ) ;
#219 = STYLED_ITEM ( 'NONE', ( #40 ), #275 ) ;
#220 =( NAMED_UNIT ( * ) PLANE_ANGLE_UNIT ( ) SI_UNIT ( $, .RADIAN. ) );
#221 = EDGE_CURVE ( 'NONE', #35, #109, #273, .T. ) ;
#222 = DIRECTION ( 'NONE',  ( 1.224646799147353700E-16, 0.0000000000000000000, 1.000000000000000000 ) ) ;
#223 = CARTESIAN_POINT ( 'NONE',  ( -0.06243749999999999301, 0.0000000000000000000, 0.06243750000000001382 ) ) ;
#224 = CARTESIAN_POINT ( 'NONE',  ( -0.06249999999999996531, 0.0000000000000000000, 0.5003544551137262264 ) ) ;
#225 = DIRECTION ( 'NONE',  ( -0.1736481776669310251, 2.126576849575781468E-17, 0.9848077530122080203 ) ) ;
#226 = DIRECTION ( 'NONE',  ( 1.224646799147353700E-16, 0.0000000000000000000, 1.000000000000000000 ) ) ;
#227 = ORIENTED_EDGE ( 'NONE', *, *, #64, .T. ) ;
#228 = AXIS2_PLACEMENT_3D ( 'NONE', #190, #196, #316 ) ;
#229 = CARTESIAN_POINT ( 'NONE',  ( 7.646388452176290456E-18, 0.0000000000000000000, 0.06243749999999999994 ) ) ;
#230 = EDGE_CURVE ( 'NONE', #314, #242, #324, .T. ) ;
#231 = FACE_OUTER_BOUND ( 'NONE', #121, .T. ) ;
#232 = AXIS2_PLACEMENT_3D ( 'NONE', #94, #116, #263 ) ;
#233 = AXIS2_PLACEMENT_3D ( 'NONE', #52, #208, #182 ) ;
#234 = PLANE ( 'NONE',  #281 ) ;
#235 = ORIENTED_EDGE ( 'NONE', *, *, #221, .T. ) ;
#236 =( LENGTH_UNIT ( ) NAMED_UNIT ( * ) SI_UNIT ( $, .METRE. ) );
#237 = COLOUR_RGB ( '',0.7921568627450980005, 0.8196078431372548767, 0.9333333333333333481 ) ;
#238 = ORIENTED_EDGE ( 'NONE', *, *, #161, .T. ) ;
#239 = FACE_OUTER_BOUND ( 'NONE', #135, .T. ) ;
#240 = ORIENTED_EDGE ( 'NONE', *, *, #97, .F. ) ;
#241 = AXIS2_PLACEMENT_3D ( 'NONE', #197, #222, #125 ) ;
#242 = VERTEX_POINT ( 'NONE', #255 ) ;
#243 = CARTESIAN_POINT ( 'NONE',  ( 0.0000000000000000000, 0.0000000000000000000, 1.500000000000000222 ) ) ;
#244 = DIRECTION ( 'NONE',  ( -1.224646799147353700E-16, -0.0000000000000000000, -1.000000000000000000 ) ) ;
#245 = CARTESIAN_POINT ( 'NONE',  ( -0.04750000000000064587, 0.0000000000000000000, 1.500000000000000222 ) ) ;
#246 = CARTESIAN_POINT ( 'NONE',  ( 6.123233995736768501E-17, 0.0000000000000000000, 0.5000000000000000000 ) ) ;
#247 = ORIENTED_EDGE ( 'NONE', *, *, #256, .F. ) ;
#248 = CONICAL_SURFACE ( 'NONE', #290, 0.04750000000000064587, 0.7853981633974466137 ) ;
#249 = CARTESIAN_POINT ( 'NONE',  ( 6.127574818941430966E-17, 0.0000000000000000000, 0.5003544551137262264 ) ) ;
#250 = PRODUCT_RELATED_PRODUCT_CATEGORY ( 'part', '', ( #123 ) ) ;
#251 = SHAPE_DEFINITION_REPRESENTATION ( #26, #275 ) ;
#252 = CARTESIAN_POINT ( 'NONE',  ( 0.0000000000000000000, 0.0000000000000000000, 1.485000000000000764 ) ) ;
#253 = ADVANCED_FACE ( 'NONE', ( #211 ), #60, .T. ) ;
#254 = VECTOR ( 'NONE', #198, 39.37007874015748854 ) ;
#255 = CARTESIAN_POINT ( 'NONE',  ( 0.06243750000000001382, 7.646388452176287375E-18, 0.06243749999999999301 ) ) ;
#256 = EDGE_CURVE ( 'NONE', #141, #138, #10, .T. ) ;
#257 = DIRECTION ( 'NONE',  ( 0.0000000000000000000, 0.0000000000000000000, 1.000000000000000000 ) ) ;
#258 = COLOUR_RGB ( '',0.7921568627450980005, 0.8196078431372548767, 0.9333333333333333481 ) ;
#259 = EDGE_LOOP ( 'NONE', ( #294, #267, #59, #191 ) ) ;
#260 = CARTESIAN_POINT ( 'NONE',  ( 6.123233995736768501E-17, 0.0000000000000000000, 0.5000000000000000000 ) ) ;
#261 = EDGE_CURVE ( 'NONE', #41, #65, #33, .T. ) ;
#262 = DIRECTION ( 'NONE',  ( -1.000000000000000000, 0.0000000000000000000, 0.0000000000000000000 ) ) ;
#263 = DIRECTION ( 'NONE',  ( 1.000000000000000000, 0.0000000000000000000, 0.0000000000000000000 ) ) ;
#264 = EDGE_LOOP ( 'NONE', ( #39, #235, #238, #133 ) ) ;
#265 = MECHANICAL_DESIGN_GEOMETRIC_PRESENTATION_REPRESENTATION (  '', ( #219 ), #309 ) ;
#266 = DIRECTION ( 'NONE',  ( -1.000000000000000000, 1.224646799147353454E-16, 0.0000000000000000000 ) ) ;
#267 = ORIENTED_EDGE ( 'NONE', *, *, #97, .T. ) ;
#268 = DIRECTION ( 'NONE',  ( 0.0000000000000000000, 0.0000000000000000000, 1.000000000000000000 ) ) ;
#269 = EDGE_CURVE ( 'NONE', #65, #41, #61, .T. ) ;
#270 = CARTESIAN_POINT ( 'NONE',  ( -0.06250000000000002776, 0.0000000000000000000, 1.485000000000000764 ) ) ;
#271 = APPLICATION_CONTEXT ( 'automotive_design' ) ;
#272 = CARTESIAN_POINT ( 'NONE',  ( 1.146958267826443414E-17, 0.0000000000000000000, 0.0000000000000000000 ) ) ;
#273 = CIRCLE ( 'NONE', #276, 0.06250000000000002776 ) ;
#274 = CLOSED_SHELL ( 'NONE', ( #129, #176, #111, #24, #253, #100, #200, #289, #32, #53, #124 ) ) ;
#275 = ADVANCED_BREP_SHAPE_REPRESENTATION ( 'Micro_BEM-125-04X', ( #186, #171 ), #212 ) ;
#276 = AXIS2_PLACEMENT_3D ( 'NONE', #252, #280, #30 ) ;
#277 = DIRECTION ( 'NONE',  ( -1.000000000000000000, 0.0000000000000000000, 0.0000000000000000000 ) ) ;
#278 = VECTOR ( 'NONE', #225, 39.37007874015748854 ) ;
#279 = SURFACE_SIDE_STYLE ('',( #108 ) ) ;
#280 = DIRECTION ( 'NONE',  ( 0.0000000000000000000, 0.0000000000000000000, -1.000000000000000000 ) ) ;
#281 = AXIS2_PLACEMENT_3D ( 'NONE', #105, #257, #209 ) ;
#282 = VERTEX_POINT ( 'NONE', #46 ) ;
#283 = UNCERTAINTY_MEASURE_WITH_UNIT (LENGTH_MEASURE( 1.000000000000000082E-05 ), #131, 'distance_accuracy_value', 'NONE');
#284 = SURFACE_STYLE_USAGE ( .BOTH. , #279 ) ;
#285 = ORIENTED_EDGE ( 'NONE', *, *, #154, .T. ) ;
#286 = LENGTH_MEASURE_WITH_UNIT ( LENGTH_MEASURE( 0.02539999999999999897 ), #236 );
#287 = ORIENTED_EDGE ( 'NONE', *, *, #74, .F. ) ;
#288 =( LENGTH_UNIT ( ) NAMED_UNIT ( * ) SI_UNIT ( $, .METRE. ) );
#289 = ADVANCED_FACE ( 'NONE', ( #239 ), #248, .T. ) ;
#290 = AXIS2_PLACEMENT_3D ( 'NONE', #18, #296, #262 ) ;
#291 = APPLICATION_CONTEXT ( 'automotive_design' ) ;
#292 = ORIENTED_EDGE ( 'NONE', *, *, #161, .F. ) ;
#293 = SURFACE_SIDE_STYLE ('',( #217 ) ) ;
#294 = ORIENTED_EDGE ( 'NONE', *, *, #261, .F. ) ;
#295 = DIRECTION ( 'NONE',  ( 1.224646799147353700E-16, 0.0000000000000000000, 1.000000000000000000 ) ) ;
#296 = DIRECTION ( 'NONE',  ( 0.0000000000000000000, 0.0000000000000000000, -1.000000000000000000 ) ) ;
#297 = DIRECTION ( 'NONE',  ( -0.0000000000000000000, -0.0000000000000000000, -1.000000000000000000 ) ) ;
#298 = CARTESIAN_POINT ( 'NONE',  ( 0.04750000000000064587, 5.817072295950006528E-18, 1.500000000000000222 ) ) ;
#299 = CIRCLE ( 'NONE', #98, 0.06243749999999999994 ) ;
#300 = DIRECTION ( 'NONE',  ( -1.224646799147353700E-16, -0.0000000000000000000, -1.000000000000000000 ) ) ;
#301 = EDGE_CURVE ( 'NONE', #65, #109, #142, .T. ) ;
#302 = CIRCLE ( 'NONE', #136, 0.06243749999999999994 ) ;
#303 = CARTESIAN_POINT ( 'NONE',  ( -0.04750000000000064587, 0.0000000000000000000, 1.500000000000000222 ) ) ;
#304 = DIRECTION ( 'NONE',  ( 1.000000000000000000, 0.0000000000000000000, 0.0000000000000000000 ) ) ;
#305 = PRESENTATION_STYLE_ASSIGNMENT (( #284 ) ) ;
#306 = SPHERICAL_SURFACE ( 'NONE', #23, 0.06243749999999999994 ) ;
#307 = EDGE_CURVE ( 'NONE', #282, #314, #88, .T. ) ;
#308 = DIRECTION ( 'NONE',  ( 1.000000000000000000, 0.0000000000000000000, 0.0000000000000000000 ) ) ;
#309 =( GEOMETRIC_REPRESENTATION_CONTEXT ( 3 ) GLOBAL_UNCERTAINTY_ASSIGNED_CONTEXT ( ( #9 ) ) GLOBAL_UNIT_ASSIGNED_CONTEXT ( ( #130, #73, #155 ) ) REPRESENTATION_CONTEXT ( 'NONE', 'WORKASPACE' ) );
#310 = ORIENTED_EDGE ( 'NONE', *, *, #207, .F. ) ;
#311 = DIRECTION ( 'NONE',  ( -1.224646799147353700E-16, -0.0000000000000000000, -1.000000000000000000 ) ) ;
#312 = EDGE_LOOP ( 'NONE', ( #17, #189 ) ) ;
#313 = EDGE_CURVE ( 'NONE', #141, #282, #302, .T. ) ;
#314 = VERTEX_POINT ( 'NONE', #223 ) ;
#315 = CARTESIAN_POINT ( 'NONE',  ( 0.06250000000000002776, 7.654042494670959086E-18, 1.500000000000000222 ) ) ;
#316 = DIRECTION ( 'NONE',  ( -1.000000000000000000, 0.0000000000000000000, 0.0000000000000000000 ) ) ;
#317 = DIRECTION ( 'NONE',  ( -0.0000000000000000000, -0.0000000000000000000, -1.000000000000000000 ) ) ;
#318 = FILL_AREA_STYLE_COLOUR ( '', #258 ) ;
#319 = FACE_OUTER_BOUND ( 'NONE', #194, .T. ) ;
#320 = CIRCLE ( 'NONE', #160, 0.06243749999999999994 ) ;
#321 = CYLINDRICAL_SURFACE ( 'NONE', #115, 0.06243749999999999994 ) ;
#322 = VECTOR ( 'NONE', #25, 39.37007874015748854 ) ;
#323 = EDGE_CURVE ( 'NONE', #19, #314, #320, .T. ) ;
#324 = CIRCLE ( 'NONE', #106, 0.06243749999999999994 ) ;
#325 = DIRECTION ( 'NONE',  ( -1.224646799147353700E-16, -0.0000000000000000000, -1.000000000000000000 ) ) ;
ENDSEC;
END-ISO-10303-21;
