ISO-10303-21;
HEADER;
FILE_DESCRIPTION (( 'STEP AP214' ),
    '1' );
FILE_NAME ('Micro_MMBM-008-10.STEP',
    '2021-09-03T16:24:28',
    ( '' ),
    ( '' ),
    'SwSTEP 2.0',
    'SolidWorks 2020',
    '' );
FILE_SCHEMA (( 'AUTOMOTIVE_DESIGN' ));
ENDSEC;

DATA;
#1 = LINE ( 'NONE', #87, #311 ) ;
#2 = ORIENTED_EDGE ( 'NONE', *, *, #275, .T. ) ;
#3 = AXIS2_PLACEMENT_3D ( 'NONE', #350, #347, #85 ) ;
#4 = SHAPE_DEFINITION_REPRESENTATION ( #119, #360 ) ;
#5 = ORIENTED_EDGE ( 'NONE', *, *, #75, .F. ) ;
#6 = ADVANCED_FACE ( 'NONE', ( #307 ), #46, .T. ) ;
#7 = ORIENTED_EDGE ( 'NONE', *, *, #18, .F. ) ;
#8 =( CONVERSION_BASED_UNIT ( 'INCH', #336 ) LENGTH_UNIT ( ) NAMED_UNIT ( #288 ) );
#9 = VERTEX_POINT ( 'NONE', #36 ) ;
#10 = CARTESIAN_POINT ( 'NONE',  ( 0.01535450000000004867, 1.880383927750809413E-18, 0.3937009999999999676 ) ) ;
#11 = PRESENTATION_LAYER_ASSIGNMENT (  '', '', ( #354 ) ) ;
#12 = DIRECTION ( 'NONE',  ( -0.0000000000000000000, -0.0000000000000000000, -1.000000000000000000 ) ) ;
#13 = ORIENTED_EDGE ( 'NONE', *, *, #211, .F. ) ;
#14 = ADVANCED_FACE ( 'NONE', ( #245 ), #89, .T. ) ;
#15 = ORIENTED_EDGE ( 'NONE', *, *, #150, .T. ) ;
#16 = DIRECTION ( 'NONE',  ( -0.0000000000000000000, -0.0000000000000000000, -1.000000000000000000 ) ) ;
#17 = AXIS2_PLACEMENT_3D ( 'NONE', #108, #280, #228 ) ;
#18 = EDGE_CURVE ( 'NONE', #39, #172, #337, .T. ) ;
#19 =( NAMED_UNIT ( * ) PLANE_ANGLE_UNIT ( ) SI_UNIT ( $, .RADIAN. ) );
#20 = VECTOR ( 'NONE', #196, 39.37007874015748854 ) ;
#21 = CARTESIAN_POINT ( 'NONE',  ( 0.0000000000000000000, 0.0000000000000000000, 0.0000000000000000000 ) ) ;
#22 = CARTESIAN_POINT ( 'NONE',  ( 0.0000000000000000000, 0.0000000000000000000, 1.968503999999999809 ) ) ;
#23 = AXIS2_PLACEMENT_3D ( 'NONE', #114, #90, #34 ) ;
#24 = CARTESIAN_POINT ( 'NONE',  ( 0.0000000000000000000, 0.0000000000000000000, 1.953504000000000129 ) ) ;
#25 = DIRECTION ( 'NONE',  ( -0.0000000000000000000, -0.0000000000000000000, -1.000000000000000000 ) ) ;
#26 = ORIENTED_EDGE ( 'NONE', *, *, #260, .T. ) ;
#27 = CARTESIAN_POINT ( 'NONE',  ( -0.07874000000000001831, 0.0000000000000000000, 1.968503999999999809 ) ) ;
#28 = VERTEX_POINT ( 'NONE', #104 ) ;
#29 = EDGE_CURVE ( 'NONE', #172, #31, #99, .T. ) ;
#30 = DIRECTION ( 'NONE',  ( -0.0000000000000000000, -0.0000000000000000000, -1.000000000000000000 ) ) ;
#31 = VERTEX_POINT ( 'NONE', #192 ) ;
#32 = LINE ( 'NONE', #27, #373 ) ;
#33 = ORIENTED_EDGE ( 'NONE', *, *, #313, .T. ) ;
#34 = DIRECTION ( 'NONE',  ( -1.000000000000000000, 0.0000000000000000000, 0.0000000000000000000 ) ) ;
#35 = EDGE_LOOP ( 'NONE', ( #188, #149, #91, #335 ) ) ;
#36 = CARTESIAN_POINT ( 'NONE',  ( -0.01535450000000004867, 0.0000000000000000000, 0.3937009999999999676 ) ) ;
#37 = DIRECTION ( 'NONE',  ( 1.000000000000000000, 0.0000000000000000000, 0.0000000000000000000 ) ) ;
#38 = DIRECTION ( 'NONE',  ( 1.000000000000000000, 0.0000000000000000000, 0.0000000000000000000 ) ) ;
#39 = VERTEX_POINT ( 'NONE', #305 ) ;
#40 =( NAMED_UNIT ( * ) SI_UNIT ( $, .STERADIAN. ) SOLID_ANGLE_UNIT ( ) );
#41 = MECHANICAL_DESIGN_GEOMETRIC_PRESENTATION_REPRESENTATION (  '', ( #354 ), #279 ) ;
#42 = DIRECTION ( 'NONE',  ( -1.000000000000000000, 0.0000000000000000000, 0.0000000000000000000 ) ) ;
#43 = AXIS2_PLACEMENT_3D ( 'NONE', #332, #70, #42 ) ;
#44 = PRODUCT_DEFINITION_CONTEXT ( 'detailed design', #292, 'design' ) ;
#45 = APPLICATION_PROTOCOL_DEFINITION ( 'draft international standard', 'automotive_design', 1998, #202 ) ;
#46 = CYLINDRICAL_SURFACE ( 'NONE', #58, 0.01574642520000000753 ) ;
#47 = CARTESIAN_POINT ( 'NONE',  ( 0.0000000000000000000, 0.0000000000000000000, 1.968503999999999809 ) ) ;
#48 = EDGE_CURVE ( 'NONE', #235, #39, #345, .T. ) ;
#49 = DIRECTION ( 'NONE',  ( -0.0000000000000000000, -0.0000000000000000000, -1.000000000000000000 ) ) ;
#50 = VECTOR ( 'NONE', #25, 39.37007874015748143 ) ;
#51 = STYLED_ITEM ( 'NONE', ( #183 ), #360 ) ;
#52 = DIRECTION ( 'NONE',  ( 0.0000000000000000000, 0.0000000000000000000, -1.000000000000000000 ) ) ;
#53 = CARTESIAN_POINT ( 'NONE',  ( -0.01574642520000000753, 0.0000000000000000000, 0.03149600000000000316 ) ) ;
#54 = LENGTH_MEASURE_WITH_UNIT ( LENGTH_MEASURE( 0.02539999999999999897 ), #161 );
#55 = AXIS2_PLACEMENT_3D ( 'NONE', #248, #156, #71 ) ;
#56 = CARTESIAN_POINT ( 'NONE',  ( 0.01574642520000000753, 1.928380921919323089E-18, 0.03149600000000000316 ) ) ;
#57 = ORIENTED_EDGE ( 'NONE', *, *, #285, .T. ) ;
#58 = AXIS2_PLACEMENT_3D ( 'NONE', #252, #123, #127 ) ;
#59 = PLANE ( 'NONE',  #147 ) ;
#60 = ORIENTED_EDGE ( 'NONE', *, *, #170, .F. ) ;
#61 = CARTESIAN_POINT ( 'NONE',  ( 0.0000000000000000000, 0.0000000000000000000, 0.3937009999999999121 ) ) ;
#62 = ORIENTED_EDGE ( 'NONE', *, *, #102, .F. ) ;
#63 = AXIS2_PLACEMENT_3D ( 'NONE', #317, #30, #95 ) ;
#64 = CARTESIAN_POINT ( 'NONE',  ( 0.0000000000000000000, 0.0000000000000000000, 0.0000000000000000000 ) ) ;
#65 = LINE ( 'NONE', #262, #140 ) ;
#66 = EDGE_CURVE ( 'NONE', #294, #210, #270, .T. ) ;
#67 = SURFACE_STYLE_USAGE ( .BOTH. , #333 ) ;
#68 = DIRECTION ( 'NONE',  ( -0.0000000000000000000, -0.0000000000000000000, -1.000000000000000000 ) ) ;
#69 = UNCERTAINTY_MEASURE_WITH_UNIT (LENGTH_MEASURE( 1.000000000000000082E-05 ), #8, 'distance_accuracy_value', 'NONE');
#70 = DIRECTION ( 'NONE',  ( -0.0000000000000000000, -0.0000000000000000000, -1.000000000000000000 ) ) ;
#71 = DIRECTION ( 'NONE',  ( -1.000000000000000000, 0.0000000000000000000, 0.0000000000000000000 ) ) ;
#72 = FACE_OUTER_BOUND ( 'NONE', #35, .T. ) ;
#73 = ADVANCED_FACE ( 'NONE', ( #276 ), #368, .T. ) ;
#74 = CARTESIAN_POINT ( 'NONE',  ( 0.0000000000000000000, 0.0000000000000000000, 0.0000000000000000000 ) ) ;
#75 = EDGE_CURVE ( 'NONE', #318, #31, #362, .T. ) ;
#76 = CARTESIAN_POINT ( 'NONE',  ( 0.0000000000000000000, 0.0000000000000000000, 0.03149600000000000316 ) ) ;
#77 = CARTESIAN_POINT ( 'NONE',  ( -0.01574642520000000753, 0.0000000000000000000, 0.03149600000000000316 ) ) ;
#78 = CARTESIAN_POINT ( 'NONE',  ( 0.0000000000000000000, 0.0000000000000000000, 1.968503999999999809 ) ) ;
#79 = ADVANCED_FACE ( 'NONE', ( #72 ), #258, .T. ) ;
#80 = DIRECTION ( 'NONE',  ( -0.0000000000000000000, -0.0000000000000000000, -1.000000000000000000 ) ) ;
#81 = EDGE_CURVE ( 'NONE', #154, #301, #295, .T. ) ;
#82 = CIRCLE ( 'NONE', #63, 0.01535450000000004867 ) ;
#83 = ADVANCED_FACE ( 'NONE', ( #130 ), #86, .T. ) ;
#84 = FACE_OUTER_BOUND ( 'NONE', #208, .T. ) ;
#85 = DIRECTION ( 'NONE',  ( -1.000000000000000000, 0.0000000000000000000, 0.0000000000000000000 ) ) ;
#86 = CONICAL_SURFACE ( 'NONE', #120, 0.06374000000000018540, 0.7853981633974528309 ) ;
#87 = CARTESIAN_POINT ( 'NONE',  ( 0.07874000000000001831, 9.642868896486260050E-18, 1.968503999999999809 ) ) ;
#88 = ORIENTED_EDGE ( 'NONE', *, *, #158, .F. ) ;
#89 = CONICAL_SURFACE ( 'NONE', #370, 0.01574642520000000753, 0.1745329251994333919 ) ;
#90 = DIRECTION ( 'NONE',  ( -0.0000000000000000000, -0.0000000000000000000, -1.000000000000000000 ) ) ;
#91 = ORIENTED_EDGE ( 'NONE', *, *, #18, .T. ) ;
#92 = CARTESIAN_POINT ( 'NONE',  ( 0.06374000000000018540, 8.724383797125754882E-18, 1.968503999999999809 ) ) ;
#93 = EDGE_LOOP ( 'NONE', ( #117, #244, #139, #152 ) ) ;
#94 = AXIS2_PLACEMENT_3D ( 'NONE', #320, #238, #116 ) ;
#95 = DIRECTION ( 'NONE',  ( -1.000000000000000000, 0.0000000000000000000, 0.0000000000000000000 ) ) ;
#96 = ORIENTED_EDGE ( 'NONE', *, *, #29, .F. ) ;
#97 = ORIENTED_EDGE ( 'NONE', *, *, #250, .T. ) ;
#98 = LENGTH_MEASURE_WITH_UNIT ( LENGTH_MEASURE( 0.02539999999999999897 ), #187 );
#99 = LINE ( 'NONE', #159, #122 ) ;
#100 = AXIS2_PLACEMENT_3D ( 'NONE', #328, #136, #174 ) ;
#101 = DIRECTION ( 'NONE',  ( -0.0000000000000000000, -0.0000000000000000000, -1.000000000000000000 ) ) ;
#102 = EDGE_CURVE ( 'NONE', #172, #268, #133, .T. ) ;
#103 =( LENGTH_UNIT ( ) NAMED_UNIT ( * ) SI_UNIT ( $, .METRE. ) );
#104 = CARTESIAN_POINT ( 'NONE',  ( 0.07874000000000001831, 9.642868896486260050E-18, 0.3937009999999999121 ) ) ;
#105 = FILL_AREA_STYLE_COLOUR ( '', #205 ) ;
#106 = ORIENTED_EDGE ( 'NONE', *, *, #102, .T. ) ;
#107 = DIRECTION ( 'NONE',  ( 1.000000000000000000, 0.0000000000000000000, 0.0000000000000000000 ) ) ;
#108 = CARTESIAN_POINT ( 'NONE',  ( 0.0000000000000000000, 0.0000000000000000000, 0.0000000000000000000 ) ) ;
#109 = AXIS2_PLACEMENT_3D ( 'NONE', #190, #80, #346 ) ;
#110 = SURFACE_SIDE_STYLE ('',( #165 ) ) ;
#111 = FILL_AREA_STYLE ('',( #371 ) ) ;
#112 = DIRECTION ( 'NONE',  ( -0.0000000000000000000, -0.0000000000000000000, -1.000000000000000000 ) ) ;
#113 = AXIS2_PLACEMENT_3D ( 'NONE', #216, #68, #330 ) ;
#114 = CARTESIAN_POINT ( 'NONE',  ( 0.0000000000000000000, 0.0000000000000000000, 0.03371871826141004808 ) ) ;
#115 = ORIENTED_EDGE ( 'NONE', *, *, #329, .T. ) ;
#116 = DIRECTION ( 'NONE',  ( -1.000000000000000000, 0.0000000000000000000, 0.0000000000000000000 ) ) ;
#117 = ORIENTED_EDGE ( 'NONE', *, *, #275, .F. ) ;
#118 = DIRECTION ( 'NONE',  ( -0.0000000000000000000, -0.0000000000000000000, -1.000000000000000000 ) ) ;
#119 = PRODUCT_DEFINITION_SHAPE ( 'NONE', 'NONE',  #284 ) ;
#120 = AXIS2_PLACEMENT_3D ( 'NONE', #22, #283, #259 ) ;
#121 = ORIENTED_EDGE ( 'NONE', *, *, #353, .F. ) ;
#122 = VECTOR ( 'NONE', #277, 39.37007874015748143 ) ;
#123 = DIRECTION ( 'NONE',  ( -0.0000000000000000000, -0.0000000000000000000, -1.000000000000000000 ) ) ;
#124 = CARTESIAN_POINT ( 'NONE',  ( 0.0000000000000000000, 0.0000000000000000000, 0.0000000000000000000 ) ) ;
#125 = CARTESIAN_POINT ( 'NONE',  ( 0.0000000000000000000, 0.0000000000000000000, 0.0000000000000000000 ) ) ;
#126 = ORIENTED_EDGE ( 'NONE', *, *, #66, .F. ) ;
#127 = DIRECTION ( 'NONE',  ( -1.000000000000000000, 0.0000000000000000000, 0.0000000000000000000 ) ) ;
#128 = ORIENTED_EDGE ( 'NONE', *, *, #48, .F. ) ;
#129 = CIRCLE ( 'NONE', #343, 0.06374000000000018540 ) ;
#130 = FACE_OUTER_BOUND ( 'NONE', #93, .T. ) ;
#131 = DIRECTION ( 'NONE',  ( -0.0000000000000000000, -0.0000000000000000000, -1.000000000000000000 ) ) ;
#132 = ADVANCED_FACE ( 'NONE', ( #84 ), #312, .T. ) ;
#133 = CIRCLE ( 'NONE', #342, 0.01574642520000000753 ) ;
#134 = DIMENSIONAL_EXPONENTS ( 1.000000000000000000, 0.0000000000000000000, 0.0000000000000000000, 0.0000000000000000000, 0.0000000000000000000, 0.0000000000000000000, 0.0000000000000000000 ) ;
#135 = DIRECTION ( 'NONE',  ( -0.0000000000000000000, -0.0000000000000000000, -1.000000000000000000 ) ) ;
#136 = DIRECTION ( 'NONE',  ( 0.0000000000000000000, 0.0000000000000000000, -1.000000000000000000 ) ) ;
#137 = EDGE_LOOP ( 'NONE', ( #26, #290, #321, #215 ) ) ;
#138 = PLANE ( 'NONE',  #94 ) ;
#139 = ORIENTED_EDGE ( 'NONE', *, *, #144, .T. ) ;
#140 = VECTOR ( 'NONE', #298, 39.37007874015748143 ) ;
#141 = CARTESIAN_POINT ( 'NONE',  ( -0.01535450000000002611, 0.0000000000000000000, 0.0000000000000000000 ) ) ;
#142 = DIRECTION ( 'NONE',  ( -0.0000000000000000000, -0.0000000000000000000, -1.000000000000000000 ) ) ;
#143 = EDGE_LOOP ( 'NONE', ( #126, #2, #273, #263 ) ) ;
#144 = EDGE_CURVE ( 'NONE', #210, #301, #374, .T. ) ;
#145 = LINE ( 'NONE', #236, #241 ) ;
#146 = ORIENTED_EDGE ( 'NONE', *, *, #173, .F. ) ;
#147 = AXIS2_PLACEMENT_3D ( 'NONE', #266, #299, #326 ) ;
#148 = AXIS2_PLACEMENT_3D ( 'NONE', #124, #251, #38 ) ;
#149 = ORIENTED_EDGE ( 'NONE', *, *, #48, .T. ) ;
#150 = EDGE_CURVE ( 'NONE', #210, #294, #129, .T. ) ;
#151 = APPLICATION_PROTOCOL_DEFINITION ( 'draft international standard', 'automotive_design', 1998, #292 ) ;
#152 = ORIENTED_EDGE ( 'NONE', *, *, #81, .F. ) ;
#153 = FILL_AREA_STYLE ('',( #105 ) ) ;
#154 = VERTEX_POINT ( 'NONE', #369 ) ;
#155 =( GEOMETRIC_REPRESENTATION_CONTEXT ( 3 ) GLOBAL_UNCERTAINTY_ASSIGNED_CONTEXT ( ( #69 ) ) GLOBAL_UNIT_ASSIGNED_CONTEXT ( ( #8, #191, #40 ) ) REPRESENTATION_CONTEXT ( 'NONE', 'WORKASPACE' ) );
#156 = DIRECTION ( 'NONE',  ( -0.0000000000000000000, -0.0000000000000000000, -1.000000000000000000 ) ) ;
#157 = DIRECTION ( 'NONE',  ( 0.0000000000000000000, 0.0000000000000000000, 1.000000000000000000 ) ) ;
#158 = EDGE_CURVE ( 'NONE', #268, #318, #261, .T. ) ;
#159 = CARTESIAN_POINT ( 'NONE',  ( -0.01574642520000000753, 0.0000000000000000000, 0.0000000000000000000 ) ) ;
#160 = ADVANCED_FACE ( 'NONE', ( #341 ), #344, .T. ) ;
#161 =( LENGTH_UNIT ( ) NAMED_UNIT ( * ) SI_UNIT ( $, .METRE. ) );
#162 = CIRCLE ( 'NONE', #324, 0.01574642520000000753 ) ;
#163 = DIRECTION ( 'NONE',  ( -0.7071067811865507924, 0.0000000000000000000, -0.7071067811865443531 ) ) ;
#164 = ADVANCED_FACE ( 'NONE', ( #372 ), #310, .F. ) ;
#165 = SURFACE_STYLE_FILL_AREA ( #111 ) ;
#166 = DIMENSIONAL_EXPONENTS ( 1.000000000000000000, 0.0000000000000000000, 0.0000000000000000000, 0.0000000000000000000, 0.0000000000000000000, 0.0000000000000000000, 0.0000000000000000000 ) ;
#167 = MANIFOLD_SOLID_BREP ( 'Cut-Revolve1', #357 ) ;
#168 = CARTESIAN_POINT ( 'NONE',  ( -0.06374000000000018540, 0.0000000000000000000, 1.968503999999999809 ) ) ;
#169 = CIRCLE ( 'NONE', #55, 0.01535450000000004867 ) ;
#170 = EDGE_CURVE ( 'NONE', #31, #318, #186, .T. ) ;
#171 = LINE ( 'NONE', #141, #50 ) ;
#172 = VERTEX_POINT ( 'NONE', #53 ) ;
#173 = EDGE_CURVE ( 'NONE', #28, #175, #331, .T. ) ;
#174 = DIRECTION ( 'NONE',  ( 1.000000000000000000, 0.0000000000000000000, 0.0000000000000000000 ) ) ;
#175 = VERTEX_POINT ( 'NONE', #348 ) ;
#176 = DIRECTION ( 'NONE',  ( -1.000000000000000000, 0.0000000000000000000, 0.0000000000000000000 ) ) ;
#177 = VECTOR ( 'NONE', #339, 39.37007874015748143 ) ;
#178 = EDGE_LOOP ( 'NONE', ( #88, #97, #224, #5 ) ) ;
#179 = COLOUR_RGB ( '',0.7921568627450980005, 0.8196078431372548767, 0.9333333333333333481 ) ;
#180 = PRODUCT_DEFINITION_FORMATION_WITH_SPECIFIED_SOURCE ( 'ANY', '', #207, .NOT_KNOWN. ) ;
#181 = CARTESIAN_POINT ( 'NONE',  ( 0.01535450000000000530, 1.904382424835063555E-18, 0.03371871826141004808 ) ) ;
#182 = CARTESIAN_POINT ( 'NONE',  ( -0.07874000000000001831, 0.0000000000000000000, 1.953504000000000129 ) ) ;
#183 = PRESENTATION_STYLE_ASSIGNMENT (( #67 ) ) ;
#184 = EDGE_LOOP ( 'NONE', ( #300, #249 ) ) ;
#185 = EDGE_CURVE ( 'NONE', #235, #268, #204, .T. ) ;
#186 = CIRCLE ( 'NONE', #232, 0.01574642520000000753 ) ;
#187 =( LENGTH_UNIT ( ) NAMED_UNIT ( * ) SI_UNIT ( $, .METRE. ) );
#188 = ORIENTED_EDGE ( 'NONE', *, *, #185, .F. ) ;
#189 =( NAMED_UNIT ( * ) SI_UNIT ( $, .STERADIAN. ) SOLID_ANGLE_UNIT ( ) );
#190 = CARTESIAN_POINT ( 'NONE',  ( 0.0000000000000000000, 0.0000000000000000000, 0.03149600000000000316 ) ) ;
#191 =( NAMED_UNIT ( * ) PLANE_ANGLE_UNIT ( ) SI_UNIT ( $, .RADIAN. ) );
#192 = CARTESIAN_POINT ( 'NONE',  ( -0.01574642520000000753, 0.0000000000000000000, 0.0000000000000000000 ) ) ;
#193 = UNCERTAINTY_MEASURE_WITH_UNIT (LENGTH_MEASURE( 1.000000000000000082E-05 ), #230, 'distance_accuracy_value', 'NONE');
#194 = CIRCLE ( 'NONE', #23, 0.01535450000000000530 ) ;
#195 =( CONVERSION_BASED_UNIT ( 'INCH', #98 ) LENGTH_UNIT ( ) NAMED_UNIT ( #134 ) );
#196 = DIRECTION ( 'NONE',  ( -0.1736481776669307475, 0.0000000000000000000, -0.9848077530122077983 ) ) ;
#197 = EDGE_CURVE ( 'NONE', #154, #28, #1, .T. ) ;
#198 = CIRCLE ( 'NONE', #100, 0.07874000000000001831 ) ;
#199 = PRESENTATION_LAYER_ASSIGNMENT (  '', '', ( #51 ) ) ;
#200 = CARTESIAN_POINT ( 'NONE',  ( 0.0000000000000000000, 0.0000000000000000000, 0.03149600000000000316 ) ) ;
#201 = CARTESIAN_POINT ( 'NONE',  ( 0.0000000000000000000, 0.0000000000000000000, 0.0000000000000000000 ) ) ;
#202 = APPLICATION_CONTEXT ( 'automotive_design' ) ;
#203 = DIRECTION ( 'NONE',  ( -1.000000000000000000, 0.0000000000000000000, 0.0000000000000000000 ) ) ;
#204 = LINE ( 'NONE', #56, #286 ) ;
#205 = COLOUR_RGB ( '',0.7921568627450980005, 0.8196078431372548767, 0.9333333333333333481 ) ;
#206 = CARTESIAN_POINT ( 'NONE',  ( -0.06374000000000018540, 0.0000000000000000000, 1.968503999999999809 ) ) ;
#207 = PRODUCT ( 'Micro_MMBM-008-10', 'Micro_MMBM-008-10', '', ( #269 ) ) ;
#208 = EDGE_LOOP ( 'NONE', ( #303, #237, #33, #146 ) ) ;
#209 = CARTESIAN_POINT ( 'NONE',  ( 0.01574642520000000753, 1.928380921919323089E-18, 0.03149600000000000316 ) ) ;
#210 = VERTEX_POINT ( 'NONE', #206 ) ;
#211 = EDGE_CURVE ( 'NONE', #9, #364, #82, .T. ) ;
#212 = CYLINDRICAL_SURFACE ( 'NONE', #306, 0.01535450000000002611 ) ;
#213 = ORIENTED_EDGE ( 'NONE', *, *, #173, .T. ) ;
#214 = FACE_OUTER_BOUND ( 'NONE', #242, .T. ) ;
#215 = ORIENTED_EDGE ( 'NONE', *, *, #313, .F. ) ;
#216 = CARTESIAN_POINT ( 'NONE',  ( 0.0000000000000000000, 0.0000000000000000000, 1.968503999999999809 ) ) ;
#217 = UNCERTAINTY_MEASURE_WITH_UNIT (LENGTH_MEASURE( 1.000000000000000082E-05 ), #195, 'distance_accuracy_value', 'NONE');
#218 = FACE_OUTER_BOUND ( 'NONE', #363, .T. ) ;
#219 = ORIENTED_EDGE ( 'NONE', *, *, #329, .F. ) ;
#220 = AXIS2_PLACEMENT_3D ( 'NONE', #61, #289, #240 ) ;
#221 = DIRECTION ( 'NONE',  ( -1.000000000000000000, 0.0000000000000000000, 0.0000000000000000000 ) ) ;
#222 = ORIENTED_EDGE ( 'NONE', *, *, #319, .F. ) ;
#223 = EDGE_CURVE ( 'NONE', #9, #39, #171, .T. ) ;
#224 = ORIENTED_EDGE ( 'NONE', *, *, #29, .T. ) ;
#225 = CONICAL_SURFACE ( 'NONE', #3, 0.06374000000000018540, 0.7853981633974528309 ) ;
#226 = MECHANICAL_DESIGN_GEOMETRIC_PRESENTATION_REPRESENTATION (  '', ( #51 ), #155 ) ;
#227 = CARTESIAN_POINT ( 'NONE',  ( 0.01574642520000000753, 1.928380921919323089E-18, 0.0000000000000000000 ) ) ;
#228 = DIRECTION ( 'NONE',  ( 1.000000000000000000, 0.0000000000000000000, -0.0000000000000000000 ) ) ;
#229 = VECTOR ( 'NONE', #163, 39.37007874015748143 ) ;
#230 =( CONVERSION_BASED_UNIT ( 'INCH', #54 ) LENGTH_UNIT ( ) NAMED_UNIT ( #166 ) );
#231 = FACE_OUTER_BOUND ( 'NONE', #143, .T. ) ;
#232 = AXIS2_PLACEMENT_3D ( 'NONE', #21, #131, #314 ) ;
#233 = FACE_OUTER_BOUND ( 'NONE', #323, .T. ) ;
#234 = ADVANCED_FACE ( 'NONE', ( #214 ), #59, .T. ) ;
#235 = VERTEX_POINT ( 'NONE', #181 ) ;
#236 = CARTESIAN_POINT ( 'NONE',  ( 0.01535450000000002611, 1.880383927750806717E-18, 0.0000000000000000000 ) ) ;
#237 = ORIENTED_EDGE ( 'NONE', *, *, #81, .T. ) ;
#238 = DIRECTION ( 'NONE',  ( -0.0000000000000000000, 0.0000000000000000000, -1.000000000000000000 ) ) ;
#239 = ORIENTED_EDGE ( 'NONE', *, *, #66, .T. ) ;
#240 = DIRECTION ( 'NONE',  ( -1.000000000000000000, 0.0000000000000000000, 0.0000000000000000000 ) ) ;
#241 = VECTOR ( 'NONE', #112, 39.37007874015748143 ) ;
#242 = EDGE_LOOP ( 'NONE', ( #15, #239 ) ) ;
#243 = DIRECTION ( 'NONE',  ( -1.000000000000000000, 0.0000000000000000000, 0.0000000000000000000 ) ) ;
#244 = ORIENTED_EDGE ( 'NONE', *, *, #150, .F. ) ;
#245 = FACE_OUTER_BOUND ( 'NONE', #359, .T. ) ;
#246 = ORIENTED_EDGE ( 'NONE', *, *, #353, .T. ) ;
#247 = AXIS2_PLACEMENT_3D ( 'NONE', #351, #267, #176 ) ;
#248 = CARTESIAN_POINT ( 'NONE',  ( 0.0000000000000000000, 0.0000000000000000000, 0.3937009999999999676 ) ) ;
#249 = ORIENTED_EDGE ( 'NONE', *, *, #75, .T. ) ;
#250 = EDGE_CURVE ( 'NONE', #268, #172, #162, .T. ) ;
#251 = DIRECTION ( 'NONE',  ( 0.0000000000000000000, 0.0000000000000000000, 1.000000000000000000 ) ) ;
#252 = CARTESIAN_POINT ( 'NONE',  ( 0.0000000000000000000, 0.0000000000000000000, 0.0000000000000000000 ) ) ;
#253 = CARTESIAN_POINT ( 'NONE',  ( 0.0000000000000000000, 0.0000000000000000000, 1.968503999999999809 ) ) ;
#254 = AXIS2_PLACEMENT_3D ( 'NONE', #24, #52, #107 ) ;
#255 = ADVANCED_FACE ( 'NONE', ( #375, #355 ), #138, .T. ) ;
#256 = PRESENTATION_STYLE_ASSIGNMENT (( #315 ) ) ;
#257 = DIRECTION ( 'NONE',  ( 1.000000000000000000, 0.0000000000000000000, 0.0000000000000000000 ) ) ;
#258 = CONICAL_SURFACE ( 'NONE', #109, 0.01574642520000000753, 0.1745329251994333919 ) ;
#259 = DIRECTION ( 'NONE',  ( -1.000000000000000000, 0.0000000000000000000, 0.0000000000000000000 ) ) ;
#260 = EDGE_CURVE ( 'NONE', #301, #154, #198, .T. ) ;
#261 = LINE ( 'NONE', #227, #177 ) ;
#262 = CARTESIAN_POINT ( 'NONE',  ( 0.06374000000000018540, 7.805898697765251255E-18, 1.968503999999999809 ) ) ;
#263 = ORIENTED_EDGE ( 'NONE', *, *, #144, .F. ) ;
#264 = AXIS2_PLACEMENT_3D ( 'NONE', #201, #16, #278 ) ;
#265 = DIRECTION ( 'NONE',  ( -0.0000000000000000000, -0.0000000000000000000, -1.000000000000000000 ) ) ;
#266 = CARTESIAN_POINT ( 'NONE',  ( 0.0000000000000000000, 0.0000000000000000000, 1.968503999999999809 ) ) ;
#267 = DIRECTION ( 'NONE',  ( -0.0000000000000000000, -0.0000000000000000000, -1.000000000000000000 ) ) ;
#268 = VERTEX_POINT ( 'NONE', #209 ) ;
#269 = PRODUCT_CONTEXT ( 'NONE', #202, 'mechanical' ) ;
#270 = CIRCLE ( 'NONE', #282, 0.06374000000000018540 ) ;
#271 = EDGE_LOOP ( 'NONE', ( #106, #297, #60, #96 ) ) ;
#272 = EDGE_LOOP ( 'NONE', ( #57, #213 ) ) ;
#273 = ORIENTED_EDGE ( 'NONE', *, *, #260, .F. ) ;
#274 = AXIS2_PLACEMENT_3D ( 'NONE', #125, #101, #221 ) ;
#275 = EDGE_CURVE ( 'NONE', #294, #154, #65, .T. ) ;
#276 = FACE_OUTER_BOUND ( 'NONE', #137, .T. ) ;
#277 = DIRECTION ( 'NONE',  ( -0.0000000000000000000, -0.0000000000000000000, -1.000000000000000000 ) ) ;
#278 = DIRECTION ( 'NONE',  ( -1.000000000000000000, 0.0000000000000000000, 0.0000000000000000000 ) ) ;
#279 =( GEOMETRIC_REPRESENTATION_CONTEXT ( 3 ) GLOBAL_UNCERTAINTY_ASSIGNED_CONTEXT ( ( #193 ) ) GLOBAL_UNIT_ASSIGNED_CONTEXT ( ( #230, #19, #281 ) ) REPRESENTATION_CONTEXT ( 'NONE', 'WORKASPACE' ) );
#280 = DIRECTION ( 'NONE',  ( 0.0000000000000000000, 0.0000000000000000000, 1.000000000000000000 ) ) ;
#281 =( NAMED_UNIT ( * ) SI_UNIT ( $, .STERADIAN. ) SOLID_ANGLE_UNIT ( ) );
#282 = AXIS2_PLACEMENT_3D ( 'NONE', #253, #157, #37 ) ;
#283 = DIRECTION ( 'NONE',  ( 0.0000000000000000000, 0.0000000000000000000, -1.000000000000000000 ) ) ;
#284 = PRODUCT_DEFINITION ( 'UNKNOWN', '', #180, #44 ) ;
#285 = EDGE_CURVE ( 'NONE', #175, #28, #338, .T. ) ;
#286 = VECTOR ( 'NONE', #296, 39.37007874015748854 ) ;
#287 = DIRECTION ( 'NONE',  ( -1.000000000000000000, 0.0000000000000000000, 0.0000000000000000000 ) ) ;
#288 = DIMENSIONAL_EXPONENTS ( 1.000000000000000000, 0.0000000000000000000, 0.0000000000000000000, 0.0000000000000000000, 0.0000000000000000000, 0.0000000000000000000, 0.0000000000000000000 ) ;
#289 = DIRECTION ( 'NONE',  ( -0.0000000000000000000, -0.0000000000000000000, -1.000000000000000000 ) ) ;
#290 = ORIENTED_EDGE ( 'NONE', *, *, #197, .T. ) ;
#291 = PRODUCT_RELATED_PRODUCT_CATEGORY ( 'part', '', ( #207 ) ) ;
#292 = APPLICATION_CONTEXT ( 'automotive_design' ) ;
#293 = DIRECTION ( 'NONE',  ( -1.000000000000000000, 0.0000000000000000000, 0.0000000000000000000 ) ) ;
#294 = VERTEX_POINT ( 'NONE', #92 ) ;
#295 = CIRCLE ( 'NONE', #254, 0.07874000000000001831 ) ;
#296 = DIRECTION ( 'NONE',  ( 0.1736481776669307475, 2.126576849575776537E-17, -0.9848077530122077983 ) ) ;
#297 = ORIENTED_EDGE ( 'NONE', *, *, #158, .T. ) ;
#298 = DIRECTION ( 'NONE',  ( 0.7071067811865507924, 8.659560562354973534E-17, -0.7071067811865443531 ) ) ;
#299 = DIRECTION ( 'NONE',  ( 0.0000000000000000000, 0.0000000000000000000, 1.000000000000000000 ) ) ;
#300 = ORIENTED_EDGE ( 'NONE', *, *, #170, .T. ) ;
#301 = VERTEX_POINT ( 'NONE', #182 ) ;
#302 =( NAMED_UNIT ( * ) PLANE_ANGLE_UNIT ( ) SI_UNIT ( $, .RADIAN. ) );
#303 = ORIENTED_EDGE ( 'NONE', *, *, #197, .F. ) ;
#304 = SURFACE_STYLE_FILL_AREA ( #153 ) ;
#305 = CARTESIAN_POINT ( 'NONE',  ( -0.01535450000000000530, 0.0000000000000000000, 0.03371871826141004808 ) ) ;
#306 = AXIS2_PLACEMENT_3D ( 'NONE', #64, #376, #293 ) ;
#307 = FACE_OUTER_BOUND ( 'NONE', #271, .T. ) ;
#308 = DIRECTION ( 'NONE',  ( 0.0000000000000000000, 0.0000000000000000000, 1.000000000000000000 ) ) ;
#309 = ADVANCED_FACE ( 'NONE', ( #233 ), #212, .T. ) ;
#310 = PLANE ( 'NONE',  #17 ) ;
#311 = VECTOR ( 'NONE', #118, 39.37007874015748143 ) ;
#312 = CYLINDRICAL_SURFACE ( 'NONE', #377, 0.07874000000000001831 ) ;
#313 = EDGE_CURVE ( 'NONE', #301, #175, #32, .T. ) ;
#314 = DIRECTION ( 'NONE',  ( -1.000000000000000000, 0.0000000000000000000, 0.0000000000000000000 ) ) ;
#315 = SURFACE_STYLE_USAGE ( .BOTH. , #110 ) ;
#316 = AXIS2_PLACEMENT_3D ( 'NONE', #74, #358, #243 ) ;
#317 = CARTESIAN_POINT ( 'NONE',  ( 0.0000000000000000000, 0.0000000000000000000, 0.3937009999999999676 ) ) ;
#318 = VERTEX_POINT ( 'NONE', #378 ) ;
#319 = EDGE_CURVE ( 'NONE', #39, #235, #194, .T. ) ;
#320 = CARTESIAN_POINT ( 'NONE',  ( 0.01535450000000004867, 0.0000000000000000000, 0.3937009999999999676 ) ) ;
#321 = ORIENTED_EDGE ( 'NONE', *, *, #285, .F. ) ;
#322 = DIRECTION ( 'NONE',  ( -1.000000000000000000, 0.0000000000000000000, 0.0000000000000000000 ) ) ;
#323 = EDGE_LOOP ( 'NONE', ( #219, #246, #349, #128 ) ) ;
#324 = AXIS2_PLACEMENT_3D ( 'NONE', #379, #265, #322 ) ;
#325 =( GEOMETRIC_REPRESENTATION_CONTEXT ( 3 ) GLOBAL_UNCERTAINTY_ASSIGNED_CONTEXT ( ( #217 ) ) GLOBAL_UNIT_ASSIGNED_CONTEXT ( ( #195, #302, #189 ) ) REPRESENTATION_CONTEXT ( 'NONE', 'WORKASPACE' ) );
#326 = DIRECTION ( 'NONE',  ( 1.000000000000000000, 0.0000000000000000000, -0.0000000000000000000 ) ) ;
#327 = ORIENTED_EDGE ( 'NONE', *, *, #185, .T. ) ;
#328 = CARTESIAN_POINT ( 'NONE',  ( 0.0000000000000000000, 0.0000000000000000000, 1.953504000000000129 ) ) ;
#329 = EDGE_CURVE ( 'NONE', #364, #235, #145, .T. ) ;
#330 = DIRECTION ( 'NONE',  ( -1.000000000000000000, 0.0000000000000000000, 0.0000000000000000000 ) ) ;
#331 = CIRCLE ( 'NONE', #220, 0.07874000000000001831 ) ;
#332 = CARTESIAN_POINT ( 'NONE',  ( 0.0000000000000000000, 0.0000000000000000000, 0.03371871826141004808 ) ) ;
#333 = SURFACE_SIDE_STYLE ('',( #304 ) ) ;
#334 = ORIENTED_EDGE ( 'NONE', *, *, #319, .T. ) ;
#335 = ORIENTED_EDGE ( 'NONE', *, *, #250, .F. ) ;
#336 = LENGTH_MEASURE_WITH_UNIT ( LENGTH_MEASURE( 0.02539999999999999897 ), #103 );
#337 = LINE ( 'NONE', #77, #20 ) ;
#338 = CIRCLE ( 'NONE', #247, 0.07874000000000001831 ) ;
#339 = DIRECTION ( 'NONE',  ( -0.0000000000000000000, -0.0000000000000000000, -1.000000000000000000 ) ) ;
#340 = ADVANCED_FACE ( 'NONE', ( #231 ), #225, .T. ) ;
#341 = FACE_OUTER_BOUND ( 'NONE', #178, .T. ) ;
#342 = AXIS2_PLACEMENT_3D ( 'NONE', #200, #135, #203 ) ;
#343 = AXIS2_PLACEMENT_3D ( 'NONE', #78, #308, #257 ) ;
#344 = CYLINDRICAL_SURFACE ( 'NONE', #264, 0.01574642520000000753 ) ;
#345 = CIRCLE ( 'NONE', #43, 0.01535450000000000530 ) ;
#346 = DIRECTION ( 'NONE',  ( -1.000000000000000000, 0.0000000000000000000, 0.0000000000000000000 ) ) ;
#347 = DIRECTION ( 'NONE',  ( 0.0000000000000000000, 0.0000000000000000000, -1.000000000000000000 ) ) ;
#348 = CARTESIAN_POINT ( 'NONE',  ( -0.07874000000000001831, 0.0000000000000000000, 0.3937009999999999121 ) ) ;
#349 = ORIENTED_EDGE ( 'NONE', *, *, #223, .T. ) ;
#350 = CARTESIAN_POINT ( 'NONE',  ( 0.0000000000000000000, 0.0000000000000000000, 1.968503999999999809 ) ) ;
#351 = CARTESIAN_POINT ( 'NONE',  ( 0.0000000000000000000, 0.0000000000000000000, 0.3937009999999999121 ) ) ;
#352 = ORIENTED_EDGE ( 'NONE', *, *, #211, .T. ) ;
#353 = EDGE_CURVE ( 'NONE', #364, #9, #169, .T. ) ;
#354 = STYLED_ITEM ( 'NONE', ( #256 ), #167 ) ;
#355 = FACE_OUTER_BOUND ( 'NONE', #272, .T. ) ;
#356 = ORIENTED_EDGE ( 'NONE', *, *, #223, .F. ) ;
#357 = CLOSED_SHELL ( 'NONE', ( #6, #367, #14, #340, #73, #132, #234, #83, #255, #79, #309, #160, #164 ) ) ;
#358 = DIRECTION ( 'NONE',  ( -0.0000000000000000000, -0.0000000000000000000, -1.000000000000000000 ) ) ;
#359 = EDGE_LOOP ( 'NONE', ( #334, #327, #62, #7 ) ) ;
#360 = ADVANCED_BREP_SHAPE_REPRESENTATION ( 'Micro_MMBM-008-10', ( #167, #148 ), #325 ) ;
#361 = DIRECTION ( 'NONE',  ( -1.000000000000000000, 0.0000000000000000000, 0.0000000000000000000 ) ) ;
#362 = CIRCLE ( 'NONE', #274, 0.01574642520000000753 ) ;
#363 = EDGE_LOOP ( 'NONE', ( #352, #115, #222, #356 ) ) ;
#364 = VERTEX_POINT ( 'NONE', #10 ) ;
#365 = CYLINDRICAL_SURFACE ( 'NONE', #316, 0.01535450000000002611 ) ;
#366 = EDGE_LOOP ( 'NONE', ( #13, #121 ) ) ;
#367 = ADVANCED_FACE ( 'NONE', ( #218 ), #365, .T. ) ;
#368 = CYLINDRICAL_SURFACE ( 'NONE', #113, 0.07874000000000001831 ) ;
#369 = CARTESIAN_POINT ( 'NONE',  ( 0.07874000000000001831, 9.642868896486260050E-18, 1.953504000000000129 ) ) ;
#370 = AXIS2_PLACEMENT_3D ( 'NONE', #76, #12, #361 ) ;
#371 = FILL_AREA_STYLE_COLOUR ( '', #179 ) ;
#372 = FACE_OUTER_BOUND ( 'NONE', #184, .T. ) ;
#373 = VECTOR ( 'NONE', #142, 39.37007874015748143 ) ;
#374 = LINE ( 'NONE', #168, #229 ) ;
#375 = FACE_BOUND ( 'NONE', #366, .T. ) ;
#376 = DIRECTION ( 'NONE',  ( -0.0000000000000000000, -0.0000000000000000000, -1.000000000000000000 ) ) ;
#377 = AXIS2_PLACEMENT_3D ( 'NONE', #47, #49, #287 ) ;
#378 = CARTESIAN_POINT ( 'NONE',  ( 0.01574642520000000753, 1.928380921919323089E-18, 0.0000000000000000000 ) ) ;
#379 = CARTESIAN_POINT ( 'NONE',  ( 0.0000000000000000000, 0.0000000000000000000, 0.03149600000000000316 ) ) ;
ENDSEC;
END-ISO-10303-21;
