ISO-10303-21;
HEADER;
FILE_DESCRIPTION (( 'STEP AP214' ),
    '1' );
FILE_NAME ('Micro_GEM-156-2.STEP',
    '2021-09-01T19:47:21',
    ( '' ),
    ( '' ),
    'SwSTEP 2.0',
    'SolidWorks 2020',
    '' );
FILE_SCHEMA (( 'AUTOMOTIVE_DESIGN' ));
ENDSEC;

DATA;
#1 = ORIENTED_EDGE ( 'NONE', *, *, #92, .F. ) ;
#2 = DIRECTION ( 'NONE',  ( -1.000000000000000000, 0.0000000000000000000, 1.224646799147353207E-16 ) ) ;
#3 = CARTESIAN_POINT ( 'NONE',  ( 0.0000000000000000000, 0.0000000000000000000, 2.000000000000000000 ) ) ;
#4 = AXIS2_PLACEMENT_3D ( 'NONE', #178, #216, #35 ) ;
#5 = MECHANICAL_DESIGN_GEOMETRIC_PRESENTATION_REPRESENTATION (  '', ( #259 ), #69 ) ;
#6 = ORIENTED_EDGE ( 'NONE', *, *, #98, .T. ) ;
#7 = ORIENTED_EDGE ( 'NONE', *, *, #183, .F. ) ;
#8 = LINE ( 'NONE', #239, #95 ) ;
#9 = VERTEX_POINT ( 'NONE', #292 ) ;
#10 = CIRCLE ( 'NONE', #217, 0.07802190000000000514 ) ;
#11 = DIRECTION ( 'NONE',  ( -1.000000000000000000, 0.0000000000000000000, 0.0000000000000000000 ) ) ;
#12 = APPLICATION_CONTEXT ( 'automotive_design' ) ;
#13 = LINE ( 'NONE', #228, #215 ) ;
#14 = CYLINDRICAL_SURFACE ( 'NONE', #75, 0.09375000000000001388 ) ;
#15 = COLOUR_RGB ( '',0.7921568627450980005, 0.8196078431372548767, 0.9333333333333333481 ) ;
#16 = CARTESIAN_POINT ( 'NONE',  ( 6.894761479199598081E-17, 0.0000000000000000000, 0.5629999999999999449 ) ) ;
#17 = DIRECTION ( 'NONE',  ( 1.000000000000000000, 0.0000000000000000000, 0.0000000000000000000 ) ) ;
#18 = CARTESIAN_POINT ( 'NONE',  ( 0.0000000000000000000, 0.0000000000000000000, 2.000000000000000000 ) ) ;
#19 = CIRCLE ( 'NONE', #111, 0.07802190000000000514 ) ;
#20 = DIRECTION ( 'NONE',  ( 1.000000000000000000, 0.0000000000000000000, 0.0000000000000000000 ) ) ;
#21 = EDGE_CURVE ( 'NONE', #9, #244, #33, .T. ) ;
#22 = CARTESIAN_POINT ( 'NONE',  ( 0.0000000000000000000, 0.0000000000000000000, 2.000000000000000000 ) ) ;
#23 = EDGE_LOOP ( 'NONE', ( #7, #28, #212, #105 ) ) ;
#24 = DIRECTION ( 'NONE',  ( -1.000000000000000000, 0.0000000000000000000, 1.224646799147353207E-16 ) ) ;
#25 = AXIS2_PLACEMENT_3D ( 'NONE', #65, #273, #261 ) ;
#26 = EDGE_LOOP ( 'NONE', ( #1, #44, #238, #161 ) ) ;
#27 = CARTESIAN_POINT ( 'NONE',  ( 0.09375000000000009714, 1.148106374200644787E-17, 0.6521984875871288390 ) ) ;
#28 = ORIENTED_EDGE ( 'NONE', *, *, #92, .T. ) ;
#29 = DIRECTION ( 'NONE',  ( 1.000000000000000000, 0.0000000000000000000, 0.0000000000000000000 ) ) ;
#30 = DIMENSIONAL_EXPONENTS ( 1.000000000000000000, 0.0000000000000000000, 0.0000000000000000000, 0.0000000000000000000, 0.0000000000000000000, 0.0000000000000000000, 0.0000000000000000000 ) ;
#31 = ORIENTED_EDGE ( 'NONE', *, *, #195, .F. ) ;
#32 = DIRECTION ( 'NONE',  ( 1.000000000000000000, 0.0000000000000000000, 0.0000000000000000000 ) ) ;
#33 = CIRCLE ( 'NONE', #4, 0.09375000000000001388 ) ;
#34 = AXIS2_PLACEMENT_3D ( 'NONE', #62, #256, #299 ) ;
#35 = DIRECTION ( 'NONE',  ( 1.000000000000000000, 0.0000000000000000000, 0.0000000000000000000 ) ) ;
#36 =( NAMED_UNIT ( * ) PLANE_ANGLE_UNIT ( ) SI_UNIT ( $, .RADIAN. ) );
#37 = AXIS2_PLACEMENT_3D ( 'NONE', #22, #209, #279 ) ;
#38 = DIRECTION ( 'NONE',  ( -1.224646799147353207E-16, -0.0000000000000000000, -1.000000000000000000 ) ) ;
#39 = SURFACE_SIDE_STYLE ('',( #293 ) ) ;
#40 = CYLINDRICAL_SURFACE ( 'NONE', #180, 0.07802190000000000514 ) ;
#41 = LINE ( 'NONE', #150, #186 ) ;
#42 = AXIS2_PLACEMENT_3D ( 'NONE', #160, #139, #24 ) ;
#43 = CARTESIAN_POINT ( 'NONE',  ( 0.0000000000000000000, 0.0000000000000000000, 2.000000000000000000 ) ) ;
#44 = ORIENTED_EDGE ( 'NONE', *, *, #125, .F. ) ;
#45 = DIRECTION ( 'NONE',  ( -1.224646799147353207E-16, -0.0000000000000000000, -1.000000000000000000 ) ) ;
#46 = EDGE_CURVE ( 'NONE', #244, #9, #258, .T. ) ;
#47 = CYLINDRICAL_SURFACE ( 'NONE', #42, 0.07802190000000000514 ) ;
#48 = DIRECTION ( 'NONE',  ( -1.224646799147353207E-16, -0.0000000000000000000, -1.000000000000000000 ) ) ;
#49 = DIRECTION ( 'NONE',  ( -0.0000000000000000000, -0.0000000000000000000, -1.000000000000000000 ) ) ;
#50 = DIRECTION ( 'NONE',  ( -1.000000000000000000, 0.0000000000000000000, 1.224646799147353207E-16 ) ) ;
#51 = CONICAL_SURFACE ( 'NONE', #291, 0.07874999999999980627, 0.7853981633974466137 ) ;
#52 = EDGE_LOOP ( 'NONE', ( #159, #281, #165, #112 ) ) ;
#53 = EDGE_LOOP ( 'NONE', ( #210, #142, #214, #31 ) ) ;
#54 = EDGE_CURVE ( 'NONE', #286, #244, #213, .T. ) ;
#55 = EDGE_CURVE ( 'NONE', #208, #73, #8, .T. ) ;
#56 =( NAMED_UNIT ( * ) SI_UNIT ( $, .STERADIAN. ) SOLID_ANGLE_UNIT ( ) );
#57 = PRODUCT_DEFINITION_FORMATION_WITH_SPECIFIED_SOURCE ( 'ANY', '', #275, .NOT_KNOWN. ) ;
#58 = UNCERTAINTY_MEASURE_WITH_UNIT (LENGTH_MEASURE( 1.000000000000000082E-05 ), #229, 'distance_accuracy_value', 'NONE');
#59 = FILL_AREA_STYLE_COLOUR ( '', #295 ) ;
#60 = FACE_OUTER_BOUND ( 'NONE', #108, .T. ) ;
#61 = AXIS2_PLACEMENT_3D ( 'NONE', #266, #116, #29 ) ;
#62 = CARTESIAN_POINT ( 'NONE',  ( 6.894761479199598081E-17, 0.0000000000000000000, 0.5629999999999999449 ) ) ;
#63 = ADVANCED_FACE ( 'NONE', ( #289 ), #172, .T. ) ;
#64 = FACE_OUTER_BOUND ( 'NONE', #52, .T. ) ;
#65 = CARTESIAN_POINT ( 'NONE',  ( 0.0000000000000000000, 0.0000000000000000000, 0.0000000000000000000 ) ) ;
#66 = STYLED_ITEM ( 'NONE', ( #103 ), #137 ) ;
#67 = FACE_OUTER_BOUND ( 'NONE', #23, .T. ) ;
#68 = PRODUCT_DEFINITION_SHAPE ( 'NONE', 'NONE',  #134 ) ;
#69 =( GEOMETRIC_REPRESENTATION_CONTEXT ( 3 ) GLOBAL_UNCERTAINTY_ASSIGNED_CONTEXT ( ( #77 ) ) GLOBAL_UNIT_ASSIGNED_CONTEXT ( ( #221, #36, #121 ) ) REPRESENTATION_CONTEXT ( 'NONE', 'WORKASPACE' ) );
#70 = VERTEX_POINT ( 'NONE', #146 ) ;
#71 = FILL_AREA_STYLE ('',( #287 ) ) ;
#72 = ADVANCED_FACE ( 'NONE', ( #169 ), #122, .T. ) ;
#73 = VERTEX_POINT ( 'NONE', #93 ) ;
#74 =( LENGTH_UNIT ( ) NAMED_UNIT ( * ) SI_UNIT ( $, .METRE. ) );
#75 = AXIS2_PLACEMENT_3D ( 'NONE', #250, #79, #101 ) ;
#76 = DIRECTION ( 'NONE',  ( 0.7071067811865463515, 8.659560562354916834E-17, -0.7071067811865486830 ) ) ;
#77 = UNCERTAINTY_MEASURE_WITH_UNIT (LENGTH_MEASURE( 1.000000000000000082E-05 ), #221, 'distance_accuracy_value', 'NONE');
#78 =( LENGTH_UNIT ( ) NAMED_UNIT ( * ) SI_UNIT ( $, .METRE. ) );
#79 = DIRECTION ( 'NONE',  ( -0.0000000000000000000, -0.0000000000000000000, -1.000000000000000000 ) ) ;
#80 = VECTOR ( 'NONE', #120, 39.37007874015748143 ) ;
#81 =( NAMED_UNIT ( * ) PLANE_ANGLE_UNIT ( ) SI_UNIT ( $, .RADIAN. ) );
#82 = AXIS2_PLACEMENT_3D ( 'NONE', #154, #48, #109 ) ;
#83 = CARTESIAN_POINT ( 'NONE',  ( 1.170141077868652023E-33, 0.0000000000000000000, 9.554927009839488851E-18 ) ) ;
#84 = VERTEX_POINT ( 'NONE', #245 ) ;
#85 = CARTESIAN_POINT ( 'NONE',  ( 0.07802190000000000514, 9.554927009839488851E-18, -9.554927009839488851E-18 ) ) ;
#86 = PRESENTATION_LAYER_ASSIGNMENT (  '', '', ( #66 ) ) ;
#87 = CONICAL_SURFACE ( 'NONE', #37, 0.07874999999999980627, 0.7853981633974466137 ) ;
#88 = ORIENTED_EDGE ( 'NONE', *, *, #195, .T. ) ;
#89 = LENGTH_MEASURE_WITH_UNIT ( LENGTH_MEASURE( 0.02539999999999999897 ), #136 );
#90 = EDGE_LOOP ( 'NONE', ( #278, #265, #157, #135 ) ) ;
#91 =( NAMED_UNIT ( * ) SI_UNIT ( $, .STERADIAN. ) SOLID_ANGLE_UNIT ( ) );
#92 = EDGE_CURVE ( 'NONE', #208, #9, #151, .T. ) ;
#93 = CARTESIAN_POINT ( 'NONE',  ( -0.07802190000000000514, 0.0000000000000000000, 1.910985401967897770E-17 ) ) ;
#94 = APPLICATION_PROTOCOL_DEFINITION ( 'draft international standard', 'automotive_design', 1998, #237 ) ;
#95 = VECTOR ( 'NONE', #222, 39.37007874015748143 ) ;
#96 = AXIS2_PLACEMENT_3D ( 'NONE', #43, #97, #196 ) ;
#97 = DIRECTION ( 'NONE',  ( 0.0000000000000000000, 0.0000000000000000000, 1.000000000000000000 ) ) ;
#98 = EDGE_CURVE ( 'NONE', #240, #132, #13, .T. ) ;
#99 = CARTESIAN_POINT ( 'NONE',  ( 0.0000000000000000000, 0.0000000000000000000, 0.0000000000000000000 ) ) ;
#100 = EDGE_LOOP ( 'NONE', ( #187, #145, #167, #184 ) ) ;
#101 = DIRECTION ( 'NONE',  ( -1.000000000000000000, 0.0000000000000000000, 0.0000000000000000000 ) ) ;
#102 = EDGE_CURVE ( 'NONE', #132, #70, #117, .T. ) ;
#103 = PRESENTATION_STYLE_ASSIGNMENT (( #130 ) ) ;
#104 = DIRECTION ( 'NONE',  ( 1.000000000000000000, 0.0000000000000000000, 0.0000000000000000000 ) ) ;
#105 = ORIENTED_EDGE ( 'NONE', *, *, #54, .F. ) ;
#106 = CARTESIAN_POINT ( 'NONE',  ( 0.07874999999999980627, 1.056257864264590573E-17, 2.000000000000000000 ) ) ;
#107 = CARTESIAN_POINT ( 'NONE',  ( 0.07802190000000000514, 9.554927009839488851E-18, 0.0000000000000000000 ) ) ;
#108 = EDGE_LOOP ( 'NONE', ( #202, #262 ) ) ;
#109 = DIRECTION ( 'NONE',  ( -1.000000000000000000, 0.0000000000000000000, 0.0000000000000000000 ) ) ;
#110 = VECTOR ( 'NONE', #227, 39.37007874015747433 ) ;
#111 = AXIS2_PLACEMENT_3D ( 'NONE', #155, #206, #188 ) ;
#112 = ORIENTED_EDGE ( 'NONE', *, *, #102, .F. ) ;
#113 = LINE ( 'NONE', #205, #288 ) ;
#114 = CARTESIAN_POINT ( 'NONE',  ( 7.987127902323220081E-17, 0.0000000000000000000, 0.6521984875871288390 ) ) ;
#115 = EDGE_LOOP ( 'NONE', ( #177, #88 ) ) ;
#116 = DIRECTION ( 'NONE',  ( 0.0000000000000000000, 0.0000000000000000000, 1.000000000000000000 ) ) ;
#117 = CIRCLE ( 'NONE', #199, 0.09375000000000001388 ) ;
#118 = PRESENTATION_LAYER_ASSIGNMENT (  '', '', ( #259 ) ) ;
#119 = PRESENTATION_STYLE_ASSIGNMENT (( #219 ) ) ;
#120 = DIRECTION ( 'NONE',  ( 0.1736481776669313304, 0.0000000000000000000, 0.9848077530122077983 ) ) ;
#121 =( NAMED_UNIT ( * ) SI_UNIT ( $, .STERADIAN. ) SOLID_ANGLE_UNIT ( ) );
#122 = CONICAL_SURFACE ( 'NONE', #153, 0.07802190000000000514, 0.1745329251994338360 ) ;
#123 = VECTOR ( 'NONE', #185, 39.37007874015748143 ) ;
#124 = DIRECTION ( 'NONE',  ( -0.0000000000000000000, -0.0000000000000000000, -1.000000000000000000 ) ) ;
#125 = EDGE_CURVE ( 'NONE', #286, #208, #267, .T. ) ;
#126 = LENGTH_MEASURE_WITH_UNIT ( LENGTH_MEASURE( 0.02539999999999999897 ), #78 );
#127 = ORIENTED_EDGE ( 'NONE', *, *, #152, .F. ) ;
#128 = CONICAL_SURFACE ( 'NONE', #34, 0.07802190000000000514, 0.1745329251994338360 ) ;
#129 = EDGE_CURVE ( 'NONE', #132, #244, #41, .T. ) ;
#130 = SURFACE_STYLE_USAGE ( .BOTH. , #39 ) ;
#131 = FACE_OUTER_BOUND ( 'NONE', #53, .T. ) ;
#132 = VERTEX_POINT ( 'NONE', #198 ) ;
#133 = CARTESIAN_POINT ( 'NONE',  ( -0.07802189999999993575, 1.051799537592296220E-17, 0.5629999999999999449 ) ) ;
#134 = PRODUCT_DEFINITION ( 'UNKNOWN', '', #57, #249 ) ;
#135 = ORIENTED_EDGE ( 'NONE', *, *, #220, .F. ) ;
#136 =( LENGTH_UNIT ( ) NAMED_UNIT ( * ) SI_UNIT ( $, .METRE. ) );
#137 = MANIFOLD_SOLID_BREP ( 'Cut-Revolve1', #280 ) ;
#138 = ORIENTED_EDGE ( 'NONE', *, *, #183, .T. ) ;
#139 = DIRECTION ( 'NONE',  ( -1.224646799147353207E-16, -0.0000000000000000000, -1.000000000000000000 ) ) ;
#140 = CIRCLE ( 'NONE', #296, 0.07874999999999980627 ) ;
#141 = CARTESIAN_POINT ( 'NONE',  ( 0.07802190000000007453, 0.0000000000000000000, 0.5629999999999999449 ) ) ;
#142 = ORIENTED_EDGE ( 'NONE', *, *, #125, .T. ) ;
#143 = EDGE_LOOP ( 'NONE', ( #138, #194, #276, #260 ) ) ;
#144 = DIRECTION ( 'NONE',  ( 1.224646799147353207E-16, 0.0000000000000000000, 1.000000000000000000 ) ) ;
#145 = ORIENTED_EDGE ( 'NONE', *, *, #102, .T. ) ;
#146 = CARTESIAN_POINT ( 'NONE',  ( -0.09375000000000001388, 0.0000000000000000000, 1.984999999999999654 ) ) ;
#147 = DIRECTION ( 'NONE',  ( -0.0000000000000000000, -0.0000000000000000000, -1.000000000000000000 ) ) ;
#148 = CARTESIAN_POINT ( 'NONE',  ( 0.0000000000000000000, 0.0000000000000000000, 1.984999999999999654 ) ) ;
#149 = ADVANCED_FACE ( 'NONE', ( #225 ), #14, .T. ) ;
#150 = CARTESIAN_POINT ( 'NONE',  ( 0.09375000000000001388, 1.148106374200643863E-17, 2.000000000000000000 ) ) ;
#151 = LINE ( 'NONE', #175, #110 ) ;
#152 = EDGE_CURVE ( 'NONE', #70, #132, #223, .T. ) ;
#153 = AXIS2_PLACEMENT_3D ( 'NONE', #243, #144, #32 ) ;
#154 = CARTESIAN_POINT ( 'NONE',  ( 6.894761479199598081E-17, 0.0000000000000000000, 0.5629999999999999449 ) ) ;
#155 = CARTESIAN_POINT ( 'NONE',  ( 1.170141077868652023E-33, 0.0000000000000000000, 9.554927009839488851E-18 ) ) ;
#156 = ADVANCED_FACE ( 'NONE', ( #60 ), #247, .T. ) ;
#157 = ORIENTED_EDGE ( 'NONE', *, *, #21, .F. ) ;
#158 = CARTESIAN_POINT ( 'NONE',  ( 0.0000000000000000000, 0.0000000000000000000, 2.000000000000000000 ) ) ;
#159 = ORIENTED_EDGE ( 'NONE', *, *, #98, .F. ) ;
#160 = CARTESIAN_POINT ( 'NONE',  ( 0.0000000000000000000, 0.0000000000000000000, 0.0000000000000000000 ) ) ;
#161 = ORIENTED_EDGE ( 'NONE', *, *, #46, .T. ) ;
#162 = CARTESIAN_POINT ( 'NONE',  ( -0.09375000000000001388, 0.0000000000000000000, 2.000000000000000000 ) ) ;
#163 = DIMENSIONAL_EXPONENTS ( 1.000000000000000000, 0.0000000000000000000, 0.0000000000000000000, 0.0000000000000000000, 0.0000000000000000000, 0.0000000000000000000, 0.0000000000000000000 ) ;
#164 = ADVANCED_FACE ( 'NONE', ( #200 ), #40, .T. ) ;
#165 = ORIENTED_EDGE ( 'NONE', *, *, #251, .T. ) ;
#166 = ADVANCED_BREP_SHAPE_REPRESENTATION ( 'Micro_GEM-156-2', ( #137, #61 ), #268 ) ;
#167 = ORIENTED_EDGE ( 'NONE', *, *, #220, .T. ) ;
#168 = LENGTH_MEASURE_WITH_UNIT ( LENGTH_MEASURE( 0.02539999999999999897 ), #74 );
#169 = FACE_OUTER_BOUND ( 'NONE', #26, .T. ) ;
#170 = PRODUCT_CONTEXT ( 'NONE', #237, 'mechanical' ) ;
#171 = ADVANCED_FACE ( 'NONE', ( #131 ), #47, .T. ) ;
#172 = CYLINDRICAL_SURFACE ( 'NONE', #234, 0.09375000000000001388 ) ;
#173 = DIRECTION ( 'NONE',  ( -1.224646799147353207E-16, -0.0000000000000000000, -1.000000000000000000 ) ) ;
#174 = EDGE_CURVE ( 'NONE', #240, #84, #140, .T. ) ;
#175 = CARTESIAN_POINT ( 'NONE',  ( -0.07802189999999993575, 9.554927009839488851E-18, 0.5629999999999999449 ) ) ;
#176 = CIRCLE ( 'NONE', #226, 0.07874999999999980627 ) ;
#177 = ORIENTED_EDGE ( 'NONE', *, *, #204, .T. ) ;
#178 = CARTESIAN_POINT ( 'NONE',  ( 7.987127902323220081E-17, 0.0000000000000000000, 0.6521984875871288390 ) ) ;
#179 = DIRECTION ( 'NONE',  ( -1.224646799147353207E-16, -0.0000000000000000000, -1.000000000000000000 ) ) ;
#180 = AXIS2_PLACEMENT_3D ( 'NONE', #99, #179, #2 ) ;
#181 = FACE_OUTER_BOUND ( 'NONE', #191, .T. ) ;
#182 = PLANE ( 'NONE',  #25 ) ;
#183 = EDGE_CURVE ( 'NONE', #208, #286, #254, .T. ) ;
#184 = ORIENTED_EDGE ( 'NONE', *, *, #46, .F. ) ;
#185 = DIRECTION ( 'NONE',  ( -1.224646799147353207E-16, -0.0000000000000000000, -1.000000000000000000 ) ) ;
#186 = VECTOR ( 'NONE', #124, 39.37007874015748143 ) ;
#187 = ORIENTED_EDGE ( 'NONE', *, *, #129, .F. ) ;
#188 = DIRECTION ( 'NONE',  ( -1.000000000000000000, 0.0000000000000000000, 1.224646799147353207E-16 ) ) ;
#189 =( NAMED_UNIT ( * ) PLANE_ANGLE_UNIT ( ) SI_UNIT ( $, .RADIAN. ) );
#190 = ORIENTED_EDGE ( 'NONE', *, *, #251, .F. ) ;
#191 = EDGE_LOOP ( 'NONE', ( #192, #6, #127, #190 ) ) ;
#192 = ORIENTED_EDGE ( 'NONE', *, *, #174, .F. ) ;
#193 = AXIS2_PLACEMENT_3D ( 'NONE', #16, #38, #201 ) ;
#194 = ORIENTED_EDGE ( 'NONE', *, *, #255, .T. ) ;
#195 = EDGE_CURVE ( 'NONE', #284, #73, #19, .T. ) ;
#196 = DIRECTION ( 'NONE',  ( 1.000000000000000000, 0.0000000000000000000, -0.0000000000000000000 ) ) ;
#197 = UNCERTAINTY_MEASURE_WITH_UNIT (LENGTH_MEASURE( 1.000000000000000082E-05 ), #290, 'distance_accuracy_value', 'NONE');
#198 = CARTESIAN_POINT ( 'NONE',  ( 0.09375000000000001388, 1.148106374200643863E-17, 1.984999999999999654 ) ) ;
#199 = AXIS2_PLACEMENT_3D ( 'NONE', #224, #252, #17 ) ;
#200 = FACE_OUTER_BOUND ( 'NONE', #143, .T. ) ;
#201 = DIRECTION ( 'NONE',  ( -1.000000000000000000, 0.0000000000000000000, 0.0000000000000000000 ) ) ;
#202 = ORIENTED_EDGE ( 'NONE', *, *, #218, .T. ) ;
#203 = MECHANICAL_DESIGN_GEOMETRIC_PRESENTATION_REPRESENTATION (  '', ( #66 ), #207 ) ;
#204 = EDGE_CURVE ( 'NONE', #73, #284, #10, .T. ) ;
#205 = CARTESIAN_POINT ( 'NONE',  ( -0.07874999999999980627, 0.0000000000000000000, 2.000000000000000000 ) ) ;
#206 = DIRECTION ( 'NONE',  ( -1.224646799147353207E-16, -0.0000000000000000000, -1.000000000000000000 ) ) ;
#207 =( GEOMETRIC_REPRESENTATION_CONTEXT ( 3 ) GLOBAL_UNCERTAINTY_ASSIGNED_CONTEXT ( ( #197 ) ) GLOBAL_UNIT_ASSIGNED_CONTEXT ( ( #290, #81, #56 ) ) REPRESENTATION_CONTEXT ( 'NONE', 'WORKASPACE' ) );
#208 = VERTEX_POINT ( 'NONE', #133 ) ;
#209 = DIRECTION ( 'NONE',  ( 0.0000000000000000000, 0.0000000000000000000, -1.000000000000000000 ) ) ;
#210 = ORIENTED_EDGE ( 'NONE', *, *, #255, .F. ) ;
#211 = DIRECTION ( 'NONE',  ( 0.0000000000000000000, 0.0000000000000000000, -1.000000000000000000 ) ) ;
#212 = ORIENTED_EDGE ( 'NONE', *, *, #21, .T. ) ;
#213 = LINE ( 'NONE', #141, #80 ) ;
#214 = ORIENTED_EDGE ( 'NONE', *, *, #55, .T. ) ;
#215 = VECTOR ( 'NONE', #76, 39.37007874015748143 ) ;
#216 = DIRECTION ( 'NONE',  ( -1.224646799147353207E-16, -0.0000000000000000000, -1.000000000000000000 ) ) ;
#217 = AXIS2_PLACEMENT_3D ( 'NONE', #83, #45, #50 ) ;
#218 = EDGE_CURVE ( 'NONE', #84, #240, #176, .T. ) ;
#219 = SURFACE_STYLE_USAGE ( .BOTH. , #282 ) ;
#220 = EDGE_CURVE ( 'NONE', #70, #9, #232, .T. ) ;
#221 =( CONVERSION_BASED_UNIT ( 'INCH', #168 ) LENGTH_UNIT ( ) NAMED_UNIT ( #231 ) );
#222 = DIRECTION ( 'NONE',  ( -1.224646799147353207E-16, -0.0000000000000000000, -1.000000000000000000 ) ) ;
#223 = CIRCLE ( 'NONE', #235, 0.09375000000000001388 ) ;
#224 = CARTESIAN_POINT ( 'NONE',  ( 0.0000000000000000000, 0.0000000000000000000, 1.984999999999999654 ) ) ;
#225 = FACE_OUTER_BOUND ( 'NONE', #90, .T. ) ;
#226 = AXIS2_PLACEMENT_3D ( 'NONE', #158, #230, #20 ) ;
#227 = DIRECTION ( 'NONE',  ( -0.1736481776669311639, 2.126576849575782392E-17, 0.9848077530122080203 ) ) ;
#228 = CARTESIAN_POINT ( 'NONE',  ( 0.07874999999999980627, 9.644093543285380530E-18, 2.000000000000000000 ) ) ;
#229 =( CONVERSION_BASED_UNIT ( 'INCH', #89 ) LENGTH_UNIT ( ) NAMED_UNIT ( #30 ) );
#230 = DIRECTION ( 'NONE',  ( 0.0000000000000000000, 0.0000000000000000000, 1.000000000000000000 ) ) ;
#231 = DIMENSIONAL_EXPONENTS ( 1.000000000000000000, 0.0000000000000000000, 0.0000000000000000000, 0.0000000000000000000, 0.0000000000000000000, 0.0000000000000000000, 0.0000000000000000000 ) ;
#232 = LINE ( 'NONE', #162, #248 ) ;
#233 = DIRECTION ( 'NONE',  ( -1.000000000000000000, 0.0000000000000000000, 0.0000000000000000000 ) ) ;
#234 = AXIS2_PLACEMENT_3D ( 'NONE', #3, #147, #11 ) ;
#235 = AXIS2_PLACEMENT_3D ( 'NONE', #148, #269, #271 ) ;
#236 = DIRECTION ( 'NONE',  ( 0.0000000000000000000, 0.0000000000000000000, 1.000000000000000000 ) ) ;
#237 = APPLICATION_CONTEXT ( 'automotive_design' ) ;
#238 = ORIENTED_EDGE ( 'NONE', *, *, #54, .T. ) ;
#239 = CARTESIAN_POINT ( 'NONE',  ( -0.07802190000000000514, 0.0000000000000000000, 9.554927009839488851E-18 ) ) ;
#240 = VERTEX_POINT ( 'NONE', #106 ) ;
#241 = SURFACE_STYLE_FILL_AREA ( #71 ) ;
#242 = ADVANCED_FACE ( 'NONE', ( #64 ), #51, .T. ) ;
#243 = CARTESIAN_POINT ( 'NONE',  ( 6.894761479199598081E-17, 0.0000000000000000000, 0.5629999999999999449 ) ) ;
#244 = VERTEX_POINT ( 'NONE', #27 ) ;
#245 = CARTESIAN_POINT ( 'NONE',  ( -0.07874999999999980627, 0.0000000000000000000, 2.000000000000000000 ) ) ;
#246 = SHAPE_DEFINITION_REPRESENTATION ( #68, #166 ) ;
#247 = PLANE ( 'NONE',  #96 ) ;
#248 = VECTOR ( 'NONE', #49, 39.37007874015748143 ) ;
#249 = PRODUCT_DEFINITION_CONTEXT ( 'detailed design', #12, 'design' ) ;
#250 = CARTESIAN_POINT ( 'NONE',  ( 0.0000000000000000000, 0.0000000000000000000, 2.000000000000000000 ) ) ;
#251 = EDGE_CURVE ( 'NONE', #84, #70, #113, .T. ) ;
#252 = DIRECTION ( 'NONE',  ( 0.0000000000000000000, 0.0000000000000000000, -1.000000000000000000 ) ) ;
#253 = AXIS2_PLACEMENT_3D ( 'NONE', #114, #173, #283 ) ;
#254 = CIRCLE ( 'NONE', #82, 0.07802190000000000514 ) ;
#255 = EDGE_CURVE ( 'NONE', #286, #284, #263, .T. ) ;
#256 = DIRECTION ( 'NONE',  ( 1.224646799147353207E-16, 0.0000000000000000000, 1.000000000000000000 ) ) ;
#257 = CARTESIAN_POINT ( 'NONE',  ( 0.0000000000000000000, 0.0000000000000000000, 2.000000000000000000 ) ) ;
#258 = CIRCLE ( 'NONE', #253, 0.09375000000000001388 ) ;
#259 = STYLED_ITEM ( 'NONE', ( #119 ), #166 ) ;
#260 = ORIENTED_EDGE ( 'NONE', *, *, #55, .F. ) ;
#261 = DIRECTION ( 'NONE',  ( 1.000000000000000000, 0.0000000000000000000, -0.0000000000000000000 ) ) ;
#262 = ORIENTED_EDGE ( 'NONE', *, *, #174, .T. ) ;
#263 = LINE ( 'NONE', #85, #123 ) ;
#264 = ADVANCED_FACE ( 'NONE', ( #274 ), #182, .F. ) ;
#265 = ORIENTED_EDGE ( 'NONE', *, *, #129, .T. ) ;
#266 = CARTESIAN_POINT ( 'NONE',  ( 0.0000000000000000000, 0.0000000000000000000, 0.0000000000000000000 ) ) ;
#267 = CIRCLE ( 'NONE', #193, 0.07802190000000000514 ) ;
#268 =( GEOMETRIC_REPRESENTATION_CONTEXT ( 3 ) GLOBAL_UNCERTAINTY_ASSIGNED_CONTEXT ( ( #58 ) ) GLOBAL_UNIT_ASSIGNED_CONTEXT ( ( #229, #189, #91 ) ) REPRESENTATION_CONTEXT ( 'NONE', 'WORKASPACE' ) );
#269 = DIRECTION ( 'NONE',  ( 0.0000000000000000000, 0.0000000000000000000, -1.000000000000000000 ) ) ;
#270 = ADVANCED_FACE ( 'NONE', ( #181 ), #87, .T. ) ;
#271 = DIRECTION ( 'NONE',  ( 1.000000000000000000, 0.0000000000000000000, 0.0000000000000000000 ) ) ;
#272 = CARTESIAN_POINT ( 'NONE',  ( 0.07802190000000007453, 0.0000000000000000000, 0.5629999999999999449 ) ) ;
#273 = DIRECTION ( 'NONE',  ( 0.0000000000000000000, 0.0000000000000000000, 1.000000000000000000 ) ) ;
#274 = FACE_OUTER_BOUND ( 'NONE', #115, .T. ) ;
#275 = PRODUCT ( 'Micro_GEM-156-2', 'Micro_GEM-156-2', '', ( #170 ) ) ;
#276 = ORIENTED_EDGE ( 'NONE', *, *, #204, .F. ) ;
#277 = PRODUCT_RELATED_PRODUCT_CATEGORY ( 'part', '', ( #275 ) ) ;
#278 = ORIENTED_EDGE ( 'NONE', *, *, #152, .T. ) ;
#279 = DIRECTION ( 'NONE',  ( -1.000000000000000000, 0.0000000000000000000, 0.0000000000000000000 ) ) ;
#280 = CLOSED_SHELL ( 'NONE', ( #164, #298, #270, #149, #63, #156, #242, #72, #171, #264 ) ) ;
#281 = ORIENTED_EDGE ( 'NONE', *, *, #218, .F. ) ;
#282 = SURFACE_SIDE_STYLE ('',( #241 ) ) ;
#283 = DIRECTION ( 'NONE',  ( 1.000000000000000000, 0.0000000000000000000, 0.0000000000000000000 ) ) ;
#284 = VERTEX_POINT ( 'NONE', #107 ) ;
#285 = APPLICATION_PROTOCOL_DEFINITION ( 'draft international standard', 'automotive_design', 1998, #12 ) ;
#286 = VERTEX_POINT ( 'NONE', #272 ) ;
#287 = FILL_AREA_STYLE_COLOUR ( '', #15 ) ;
#288 = VECTOR ( 'NONE', #297, 39.37007874015748143 ) ;
#289 = FACE_OUTER_BOUND ( 'NONE', #100, .T. ) ;
#290 =( CONVERSION_BASED_UNIT ( 'INCH', #126 ) LENGTH_UNIT ( ) NAMED_UNIT ( #163 ) );
#291 = AXIS2_PLACEMENT_3D ( 'NONE', #257, #211, #233 ) ;
#292 = CARTESIAN_POINT ( 'NONE',  ( -0.09374999999999991673, 0.0000000000000000000, 0.6521984875871288390 ) ) ;
#293 = SURFACE_STYLE_FILL_AREA ( #294 ) ;
#294 = FILL_AREA_STYLE ('',( #59 ) ) ;
#295 = COLOUR_RGB ( '',0.7921568627450980005, 0.8196078431372548767, 0.9333333333333333481 ) ;
#296 = AXIS2_PLACEMENT_3D ( 'NONE', #18, #236, #104 ) ;
#297 = DIRECTION ( 'NONE',  ( -0.7071067811865463515, 0.0000000000000000000, -0.7071067811865486830 ) ) ;
#298 = ADVANCED_FACE ( 'NONE', ( #67 ), #128, .T. ) ;
#299 = DIRECTION ( 'NONE',  ( 1.000000000000000000, 0.0000000000000000000, 0.0000000000000000000 ) ) ;
ENDSEC;
END-ISO-10303-21;
