ISO-10303-21;
HEADER;
FILE_DESCRIPTION (( 'STEP AP214' ),
    '1' );
FILE_NAME ('Micro_BMR-028-2X.STEP',
    '2021-09-03T14:01:49',
    ( '' ),
    ( '' ),
    'SwSTEP 2.0',
    'SolidWorks 2020',
    '' );
FILE_SCHEMA (( 'AUTOMOTIVE_DESIGN' ));
ENDSEC;

DATA;
#1 = AXIS2_PLACEMENT_3D ( 'NONE', #92, #317, #188 ) ;
#2 = FACE_OUTER_BOUND ( 'NONE', #182, .T. ) ;
#3 = ORIENTED_EDGE ( 'NONE', *, *, #14, .T. ) ;
#4 = FACE_OUTER_BOUND ( 'NONE', #155, .T. ) ;
#5 = DIRECTION ( 'NONE',  ( -1.000000000000000000, 0.0000000000000000000, 0.0000000000000000000 ) ) ;
#6 = CIRCLE ( 'NONE', #19, 0.01398600000000000017 ) ;
#7 = PRODUCT_DEFINITION_CONTEXT ( 'detailed design', #233, 'design' ) ;
#8 = FILL_AREA_STYLE ('',( #279 ) ) ;
#9 = ORIENTED_EDGE ( 'NONE', *, *, #278, .T. ) ;
#10 = ORIENTED_EDGE ( 'NONE', *, *, #154, .T. ) ;
#11 = DIRECTION ( 'NONE',  ( -1.000000000000000000, 0.0000000000000000000, 0.0000000000000000000 ) ) ;
#12 = CARTESIAN_POINT ( 'NONE',  ( 0.04750000000000064587, 6.735557395310483192E-18, 1.500000000000000222 ) ) ;
#13 = AXIS2_PLACEMENT_3D ( 'NONE', #41, #186, #18 ) ;
#14 = EDGE_CURVE ( 'NONE', #31, #124, #231, .T. ) ;
#15 = LINE ( 'NONE', #40, #184 ) ;
#16 = CARTESIAN_POINT ( 'NONE',  ( 1.028703311283777035E-17, 0.0000000000000000000, 0.08400000000000001910 ) ) ;
#17 = APPLICATION_PROTOCOL_DEFINITION ( 'draft international standard', 'automotive_design', 1998, #200 ) ;
#18 = DIRECTION ( 'NONE',  ( -1.000000000000000000, 0.0000000000000000000, 1.224646799147353454E-16 ) ) ;
#19 = AXIS2_PLACEMENT_3D ( 'NONE', #284, #157, #11 ) ;
#20 = AXIS2_PLACEMENT_3D ( 'NONE', #220, #22, #268 ) ;
#21 = DIRECTION ( 'NONE',  ( -1.000000000000000000, 0.0000000000000000000, 0.0000000000000000000 ) ) ;
#22 = DIRECTION ( 'NONE',  ( -1.224646799147353454E-16, -0.0000000000000000000, -1.000000000000000000 ) ) ;
#23 = CARTESIAN_POINT ( 'NONE',  ( 0.0000000000000000000, 0.0000000000000000000, 1.500000000000000222 ) ) ;
#24 = ORIENTED_EDGE ( 'NONE', *, *, #156, .T. ) ;
#25 = DIRECTION ( 'NONE',  ( -0.7071067811865462405, 0.0000000000000000000, -0.7071067811865486830 ) ) ;
#26 = ORIENTED_EDGE ( 'NONE', *, *, #278, .F. ) ;
#27 = ORIENTED_EDGE ( 'NONE', *, *, #113, .T. ) ;
#28 = CLOSED_SHELL ( 'NONE', ( #212, #201, #300, #55, #324, #185, #89, #315, #177, #251, #238 ) ) ;
#29 = STYLED_ITEM ( 'NONE', ( #34 ), #37 ) ;
#30 = AXIS2_PLACEMENT_3D ( 'NONE', #54, #176, #192 ) ;
#31 = VERTEX_POINT ( 'NONE', #202 ) ;
#32 = ORIENTED_EDGE ( 'NONE', *, *, #135, .F. ) ;
#33 = SURFACE_SIDE_STYLE ('',( #259 ) ) ;
#34 = PRESENTATION_STYLE_ASSIGNMENT (( #82 ) ) ;
#35 = EDGE_CURVE ( 'NONE', #124, #31, #6, .T. ) ;
#36 = CARTESIAN_POINT ( 'NONE',  ( -0.01398599999999998802, 1.712791013287488164E-18, 0.08400000000000001910 ) ) ;
#37 = MANIFOLD_SOLID_BREP ( 'Fillet1', #28 ) ;
#38 = FACE_OUTER_BOUND ( 'NONE', #313, .T. ) ;
#39 = CIRCLE ( 'NONE', #74, 0.06250000000000002776 ) ;
#40 = CARTESIAN_POINT ( 'NONE',  ( 0.01398600000000001058, 0.0000000000000000000, 0.08400000000000001910 ) ) ;
#41 = CARTESIAN_POINT ( 'NONE',  ( 0.0000000000000000000, 0.0000000000000000000, 0.0000000000000000000 ) ) ;
#42 = CARTESIAN_POINT ( 'NONE',  ( -0.01398599999999999496, 0.0000000000000000000, 0.01398600000000000190 ) ) ;
#43 = VECTOR ( 'NONE', #213, 39.37007874015747433 ) ;
#44 = VECTOR ( 'NONE', #45, 39.37007874015748854 ) ;
#45 = DIRECTION ( 'NONE',  ( 0.7071067811865462405, 8.659560562354916834E-17, -0.7071067811865486830 ) ) ;
#46 = EDGE_LOOP ( 'NONE', ( #159, #223, #250 ) ) ;
#47 = DIRECTION ( 'NONE',  ( 0.0000000000000000000, 1.000000000000000000, 0.0000000000000000000 ) ) ;
#48 = ORIENTED_EDGE ( 'NONE', *, *, #166, .F. ) ;
#49 = DIRECTION ( 'NONE',  ( 1.000000000000000000, 0.0000000000000000000, 0.0000000000000000000 ) ) ;
#50 = ORIENTED_EDGE ( 'NONE', *, *, #113, .F. ) ;
#51 = VECTOR ( 'NONE', #289, 39.37007874015748143 ) ;
#52 = EDGE_CURVE ( 'NONE', #302, #62, #73, .T. ) ;
#53 = AXIS2_PLACEMENT_3D ( 'NONE', #103, #193, #21 ) ;
#54 = CARTESIAN_POINT ( 'NONE',  ( 0.0000000000000000000, 0.0000000000000000000, 0.0000000000000000000 ) ) ;
#55 = ADVANCED_FACE ( 'NONE', ( #215 ), #246, .T. ) ;
#56 =( NAMED_UNIT ( * ) SI_UNIT ( $, .STERADIAN. ) SOLID_ANGLE_UNIT ( ) );
#57 = CYLINDRICAL_SURFACE ( 'NONE', #53, 0.06250000000000002776 ) ;
#58 = ORIENTED_EDGE ( 'NONE', *, *, #156, .F. ) ;
#59 =( LENGTH_UNIT ( ) NAMED_UNIT ( * ) SI_UNIT ( $, .METRE. ) );
#60 = VERTEX_POINT ( 'NONE', #68 ) ;
#61 =( LENGTH_UNIT ( ) NAMED_UNIT ( * ) SI_UNIT ( $, .METRE. ) );
#62 = VERTEX_POINT ( 'NONE', #12 ) ;
#63 = VERTEX_POINT ( 'NONE', #42 ) ;
#64 = COLOUR_RGB ( '',0.7921568627450980005, 0.8196078431372548767, 0.9333333333333333481 ) ;
#65 = CARTESIAN_POINT ( 'NONE',  ( 0.06250000000000002776, 7.654042494670959086E-18, 1.485000000000000764 ) ) ;
#66 = DIRECTION ( 'NONE',  ( -0.0000000000000000000, -0.0000000000000000000, -1.000000000000000000 ) ) ;
#67 = PRESENTATION_LAYER_ASSIGNMENT (  '', '', ( #29 ) ) ;
#68 = CARTESIAN_POINT ( 'NONE',  ( -0.06250000000000002776, 0.0000000000000000000, 1.485000000000000764 ) ) ;
#69 = AXIS2_PLACEMENT_3D ( 'NONE', #146, #170, #97 ) ;
#70 = LINE ( 'NONE', #112, #51 ) ;
#71 = CARTESIAN_POINT ( 'NONE',  ( -0.06250000000000002776, 0.0000000000000000000, 1.500000000000000222 ) ) ;
#72 = CARTESIAN_POINT ( 'NONE',  ( 1.712791013287488357E-18, 0.0000000000000000000, 0.01398600000000000017 ) ) ;
#73 = CIRCLE ( 'NONE', #123, 0.04750000000000064587 ) ;
#74 = AXIS2_PLACEMENT_3D ( 'NONE', #253, #271, #77 ) ;
#75 =( NAMED_UNIT ( * ) PLANE_ANGLE_UNIT ( ) SI_UNIT ( $, .RADIAN. ) );
#76 = EDGE_LOOP ( 'NONE', ( #257, #27, #151, #285 ) ) ;
#77 = DIRECTION ( 'NONE',  ( 1.000000000000000000, 0.0000000000000000000, 0.0000000000000000000 ) ) ;
#78 = COLOUR_RGB ( '',0.7921568627450980005, 0.8196078431372548767, 0.9333333333333333481 ) ;
#79 = CARTESIAN_POINT ( 'NONE',  ( 0.0000000000000000000, 0.0000000000000000000, 1.485000000000000764 ) ) ;
#80 = UNCERTAINTY_MEASURE_WITH_UNIT (LENGTH_MEASURE( 1.000000000000000082E-05 ), #100, 'distance_accuracy_value', 'NONE');
#81 = EDGE_LOOP ( 'NONE', ( #50, #258, #108, #153 ) ) ;
#82 = SURFACE_STYLE_USAGE ( .BOTH. , #33 ) ;
#83 = DIRECTION ( 'NONE',  ( -1.224646799147353454E-16, -0.0000000000000000000, -1.000000000000000000 ) ) ;
#84 = EDGE_CURVE ( 'NONE', #63, #144, #216, .T. ) ;
#85 = DIMENSIONAL_EXPONENTS ( 1.000000000000000000, 0.0000000000000000000, 0.0000000000000000000, 0.0000000000000000000, 0.0000000000000000000, 0.0000000000000000000, 0.0000000000000000000 ) ;
#86 = ORIENTED_EDGE ( 'NONE', *, *, #306, .T. ) ;
#87 = MECHANICAL_DESIGN_GEOMETRIC_PRESENTATION_REPRESENTATION (  '', ( #252 ), #181 ) ;
#88 = DIRECTION ( 'NONE',  ( 1.224646799147353454E-16, 0.0000000000000000000, 1.000000000000000000 ) ) ;
#89 = ADVANCED_FACE ( 'NONE', ( #118 ), #94, .T. ) ;
#90 = DIRECTION ( 'NONE',  ( 0.0000000000000000000, 0.0000000000000000000, -1.000000000000000000 ) ) ;
#91 = PRODUCT ( 'Micro_BMR-028-2X', 'Micro_BMR-028-2X', '', ( #218 ) ) ;
#92 = CARTESIAN_POINT ( 'NONE',  ( 0.0000000000000000000, 0.0000000000000000000, 1.500000000000000222 ) ) ;
#93 = DIRECTION ( 'NONE',  ( 0.0000000000000000000, 0.0000000000000000000, 1.000000000000000000 ) ) ;
#94 = PLANE ( 'NONE',  #255 ) ;
#95 =( GEOMETRIC_REPRESENTATION_CONTEXT ( 3 ) GLOBAL_UNCERTAINTY_ASSIGNED_CONTEXT ( ( #80 ) ) GLOBAL_UNIT_ASSIGNED_CONTEXT ( ( #100, #75, #56 ) ) REPRESENTATION_CONTEXT ( 'NONE', 'WORKASPACE' ) );
#96 =( LENGTH_UNIT ( ) NAMED_UNIT ( * ) SI_UNIT ( $, .METRE. ) );
#97 = DIRECTION ( 'NONE',  ( 1.000000000000000000, 0.0000000000000000000, 0.0000000000000000000 ) ) ;
#98 = AXIS2_PLACEMENT_3D ( 'NONE', #16, #162, #264 ) ;
#99 = CIRCLE ( 'NONE', #148, 0.01398600000000000017 ) ;
#100 =( CONVERSION_BASED_UNIT ( 'INCH', #270 ) LENGTH_UNIT ( ) NAMED_UNIT ( #125 ) );
#101 = ORIENTED_EDGE ( 'NONE', *, *, #282, .T. ) ;
#102 = DIRECTION ( 'NONE',  ( 1.000000000000000000, 0.0000000000000000000, 0.0000000000000000000 ) ) ;
#103 = CARTESIAN_POINT ( 'NONE',  ( 0.0000000000000000000, 0.0000000000000000000, 1.500000000000000222 ) ) ;
#104 = AXIS2_PLACEMENT_3D ( 'NONE', #161, #93, #116 ) ;
#105 = EDGE_CURVE ( 'NONE', #31, #134, #15, .T. ) ;
#106 = VERTEX_POINT ( 'NONE', #65 ) ;
#107 = SURFACE_STYLE_FILL_AREA ( #8 ) ;
#108 = ORIENTED_EDGE ( 'NONE', *, *, #105, .T. ) ;
#109 = CIRCLE ( 'NONE', #189, 0.04750000000000064587 ) ;
#110 = ORIENTED_EDGE ( 'NONE', *, *, #158, .T. ) ;
#111 =( NAMED_UNIT ( * ) PLANE_ANGLE_UNIT ( ) SI_UNIT ( $, .RADIAN. ) );
#112 = CARTESIAN_POINT ( 'NONE',  ( -0.01398599999999999670, 0.0000000000000000000, 1.712791013287488164E-18 ) ) ;
#113 = EDGE_CURVE ( 'NONE', #124, #274, #242, .T. ) ;
#114 = AXIS2_PLACEMENT_3D ( 'NONE', #206, #83, #314 ) ;
#115 = LINE ( 'NONE', #117, #226 ) ;
#116 = DIRECTION ( 'NONE',  ( 1.000000000000000000, 0.0000000000000000000, 0.0000000000000000000 ) ) ;
#117 = CARTESIAN_POINT ( 'NONE',  ( 0.06250000000000002776, 7.654042494670959086E-18, 1.500000000000000222 ) ) ;
#118 = FACE_OUTER_BOUND ( 'NONE', #133, .T. ) ;
#119 = APPLICATION_PROTOCOL_DEFINITION ( 'draft international standard', 'automotive_design', 1998, #233 ) ;
#120 = DIRECTION ( 'NONE',  ( 0.1736481776669313581, 0.0000000000000000000, 0.9848077530122077983 ) ) ;
#121 = CARTESIAN_POINT ( 'NONE',  ( 2.569186519931232342E-18, 0.0000000000000000000, 0.0000000000000000000 ) ) ;
#122 = FACE_OUTER_BOUND ( 'NONE', #307, .T. ) ;
#123 = AXIS2_PLACEMENT_3D ( 'NONE', #178, #294, #321 ) ;
#124 = VERTEX_POINT ( 'NONE', #187 ) ;
#125 = DIMENSIONAL_EXPONENTS ( 1.000000000000000000, 0.0000000000000000000, 0.0000000000000000000, 0.0000000000000000000, 0.0000000000000000000, 0.0000000000000000000, 0.0000000000000000000 ) ;
#126 = ORIENTED_EDGE ( 'NONE', *, *, #35, .T. ) ;
#127 = CARTESIAN_POINT ( 'NONE',  ( 0.04750000000000064587, 5.817072295950006528E-18, 1.500000000000000222 ) ) ;
#128 = EDGE_LOOP ( 'NONE', ( #32, #280, #147 ) ) ;
#129 = AXIS2_PLACEMENT_3D ( 'NONE', #72, #47, #49 ) ;
#130 = ORIENTED_EDGE ( 'NONE', *, *, #154, .F. ) ;
#131 = FILL_AREA_STYLE_COLOUR ( '', #64 ) ;
#132 = AXIS2_PLACEMENT_3D ( 'NONE', #165, #325, #102 ) ;
#133 = EDGE_LOOP ( 'NONE', ( #277, #10 ) ) ;
#134 = VERTEX_POINT ( 'NONE', #142 ) ;
#135 = EDGE_CURVE ( 'NONE', #272, #144, #281, .T. ) ;
#136 = DIRECTION ( 'NONE',  ( 0.0000000000000000000, 0.0000000000000000000, 1.000000000000000000 ) ) ;
#137 = CIRCLE ( 'NONE', #180, 0.01398599999999999670 ) ;
#138 = CARTESIAN_POINT ( 'NONE',  ( 0.0000000000000000000, 0.0000000000000000000, 1.500000000000000222 ) ) ;
#139 = FACE_OUTER_BOUND ( 'NONE', #81, .T. ) ;
#140 = DIRECTION ( 'NONE',  ( -1.000000000000000000, 0.0000000000000000000, 1.525994741205638611E-16 ) ) ;
#141 = AXIS2_PLACEMENT_3D ( 'NONE', #267, #288, #140 ) ;
#142 = CARTESIAN_POINT ( 'NONE',  ( 0.06250000000000006939, 7.654042494670963708E-18, 0.3591365661969322387 ) ) ;
#143 = CARTESIAN_POINT ( 'NONE',  ( 1.028703311283777035E-17, 0.0000000000000000000, 0.08400000000000001910 ) ) ;
#144 = VERTEX_POINT ( 'NONE', #320 ) ;
#145 = ORIENTED_EDGE ( 'NONE', *, *, #275, .T. ) ;
#146 = CARTESIAN_POINT ( 'NONE',  ( 4.398154462498446902E-17, 0.0000000000000000000, 0.3591365661969322387 ) ) ;
#147 = ORIENTED_EDGE ( 'NONE', *, *, #194, .F. ) ;
#148 = AXIS2_PLACEMENT_3D ( 'NONE', #191, #305, #301 ) ;
#149 = CARTESIAN_POINT ( 'NONE',  ( 0.01398599999999999670, 1.712791013287487971E-18, -1.712791013287488164E-18 ) ) ;
#150 = LINE ( 'NONE', #222, #299 ) ;
#151 = ORIENTED_EDGE ( 'NONE', *, *, #240, .T. ) ;
#152 = AXIS2_PLACEMENT_3D ( 'NONE', #138, #90, #318 ) ;
#153 = ORIENTED_EDGE ( 'NONE', *, *, #261, .T. ) ;
#154 = EDGE_CURVE ( 'NONE', #62, #302, #109, .T. ) ;
#155 = EDGE_LOOP ( 'NONE', ( #309, #3, #24, #196 ) ) ;
#156 = EDGE_CURVE ( 'NONE', #124, #63, #70, .T. ) ;
#157 = DIRECTION ( 'NONE',  ( -1.224646799147353454E-16, -0.0000000000000000000, -1.000000000000000000 ) ) ;
#158 = EDGE_CURVE ( 'NONE', #60, #274, #290, .T. ) ;
#159 = ORIENTED_EDGE ( 'NONE', *, *, #229, .F. ) ;
#160 = DIRECTION ( 'NONE',  ( 0.0000000000000000000, 0.0000000000000000000, -1.000000000000000000 ) ) ;
#161 = CARTESIAN_POINT ( 'NONE',  ( 0.0000000000000000000, 0.0000000000000000000, 0.0000000000000000000 ) ) ;
#162 = DIRECTION ( 'NONE',  ( 1.224646799147353454E-16, 0.0000000000000000000, 1.000000000000000000 ) ) ;
#163 = DIRECTION ( 'NONE',  ( 1.000000000000000000, 0.0000000000000000000, -0.0000000000000000000 ) ) ;
#164 = FACE_OUTER_BOUND ( 'NONE', #171, .T. ) ;
#165 = CARTESIAN_POINT ( 'NONE',  ( 1.712791013287488357E-18, 0.0000000000000000000, 0.01398600000000000017 ) ) ;
#166 = EDGE_CURVE ( 'NONE', #106, #134, #115, .T. ) ;
#167 = FACE_OUTER_BOUND ( 'NONE', #46, .T. ) ;
#168 = CYLINDRICAL_SURFACE ( 'NONE', #30, 0.01398599999999999670 ) ;
#169 = DIMENSIONAL_EXPONENTS ( 1.000000000000000000, 0.0000000000000000000, 0.0000000000000000000, 0.0000000000000000000, 0.0000000000000000000, 0.0000000000000000000, 0.0000000000000000000 ) ;
#170 = DIRECTION ( 'NONE',  ( -1.224646799147353454E-16, -0.0000000000000000000, -1.000000000000000000 ) ) ;
#171 = EDGE_LOOP ( 'NONE', ( #126, #86, #304, #58 ) ) ;
#172 = FACE_OUTER_BOUND ( 'NONE', #76, .T. ) ;
#173 = CONICAL_SURFACE ( 'NONE', #98, 0.01398600000000000017, 0.1745329251994338637 ) ;
#174 = ORIENTED_EDGE ( 'NONE', *, *, #319, .F. ) ;
#175 = PRESENTATION_LAYER_ASSIGNMENT (  '', '', ( #252 ) ) ;
#176 = DIRECTION ( 'NONE',  ( -1.224646799147353454E-16, -0.0000000000000000000, -1.000000000000000000 ) ) ;
#177 = ADVANCED_FACE ( 'NONE', ( #139 ), #173, .T. ) ;
#178 = CARTESIAN_POINT ( 'NONE',  ( 0.0000000000000000000, 0.0000000000000000000, 1.500000000000000222 ) ) ;
#179 = UNCERTAINTY_MEASURE_WITH_UNIT (LENGTH_MEASURE( 1.000000000000000082E-05 ), #210, 'distance_accuracy_value', 'NONE');
#180 = AXIS2_PLACEMENT_3D ( 'NONE', #190, #88, #219 ) ;
#181 =( GEOMETRIC_REPRESENTATION_CONTEXT ( 3 ) GLOBAL_UNCERTAINTY_ASSIGNED_CONTEXT ( ( #179 ) ) GLOBAL_UNIT_ASSIGNED_CONTEXT ( ( #210, #262, #293 ) ) REPRESENTATION_CONTEXT ( 'NONE', 'WORKASPACE' ) );
#182 = EDGE_LOOP ( 'NONE', ( #9, #232, #197, #228 ) ) ;
#183 = FILL_AREA_STYLE ('',( #131 ) ) ;
#184 = VECTOR ( 'NONE', #120, 39.37007874015748143 ) ;
#185 = ADVANCED_FACE ( 'NONE', ( #38 ), #243, .T. ) ;
#186 = DIRECTION ( 'NONE',  ( -1.224646799147353454E-16, -0.0000000000000000000, -1.000000000000000000 ) ) ;
#187 = CARTESIAN_POINT ( 'NONE',  ( -0.01398599999999998802, 4.683416753979223914E-18, 0.08400000000000001910 ) ) ;
#188 = DIRECTION ( 'NONE',  ( -1.000000000000000000, 0.0000000000000000000, 0.0000000000000000000 ) ) ;
#189 = AXIS2_PLACEMENT_3D ( 'NONE', #211, #136, #263 ) ;
#190 = CARTESIAN_POINT ( 'NONE',  ( 1.712791013287488357E-18, 0.0000000000000000000, 0.01398600000000000017 ) ) ;
#191 = CARTESIAN_POINT ( 'NONE',  ( 1.712791013287488357E-18, 0.0000000000000000000, 0.01398600000000000017 ) ) ;
#192 = DIRECTION ( 'NONE',  ( -1.000000000000000000, 0.0000000000000000000, 1.224646799147353454E-16 ) ) ;
#193 = DIRECTION ( 'NONE',  ( -0.0000000000000000000, -0.0000000000000000000, -1.000000000000000000 ) ) ;
#194 = EDGE_CURVE ( 'NONE', #144, #63, #137, .T. ) ;
#195 = DIRECTION ( 'NONE',  ( 1.000000000000000000, 0.0000000000000000000, 0.0000000000000000000 ) ) ;
#196 = ORIENTED_EDGE ( 'NONE', *, *, #84, .T. ) ;
#197 = ORIENTED_EDGE ( 'NONE', *, *, #240, .F. ) ;
#198 = PRODUCT_DEFINITION ( 'UNKNOWN', '', #292, #7 ) ;
#199 = ORIENTED_EDGE ( 'NONE', *, *, #275, .F. ) ;
#200 = APPLICATION_CONTEXT ( 'automotive_design' ) ;
#201 = ADVANCED_FACE ( 'NONE', ( #164 ), #266, .T. ) ;
#202 = CARTESIAN_POINT ( 'NONE',  ( 0.01398600000000001058, 0.0000000000000000000, 0.08400000000000001910 ) ) ;
#203 = MECHANICAL_DESIGN_GEOMETRIC_PRESENTATION_REPRESENTATION (  '', ( #29 ), #208 ) ;
#204 = AXIS2_PLACEMENT_3D ( 'NONE', #79, #224, #248 ) ;
#205 = EDGE_LOOP ( 'NONE', ( #130, #145, #26, #174 ) ) ;
#206 = CARTESIAN_POINT ( 'NONE',  ( 1.028703311283777035E-17, 0.0000000000000000000, 0.08400000000000001910 ) ) ;
#207 = DIRECTION ( 'NONE',  ( -0.0000000000000000000, -0.0000000000000000000, -1.000000000000000000 ) ) ;
#208 =( GEOMETRIC_REPRESENTATION_CONTEXT ( 3 ) GLOBAL_UNCERTAINTY_ASSIGNED_CONTEXT ( ( #308 ) ) GLOBAL_UNIT_ASSIGNED_CONTEXT ( ( #312, #111, #286 ) ) REPRESENTATION_CONTEXT ( 'NONE', 'WORKASPACE' ) );
#209 = AXIS2_PLACEMENT_3D ( 'NONE', #23, #225, #5 ) ;
#210 =( CONVERSION_BASED_UNIT ( 'INCH', #214 ) LENGTH_UNIT ( ) NAMED_UNIT ( #169 ) );
#211 = CARTESIAN_POINT ( 'NONE',  ( 0.0000000000000000000, 0.0000000000000000000, 1.500000000000000222 ) ) ;
#212 = ADVANCED_FACE ( 'NONE', ( #323 ), #296, .T. ) ;
#213 = DIRECTION ( 'NONE',  ( -0.1736481776669311639, 2.126576849575783008E-17, 0.9848077530122080203 ) ) ;
#214 = LENGTH_MEASURE_WITH_UNIT ( LENGTH_MEASURE( 0.02539999999999999897 ), #59 );
#215 = FACE_OUTER_BOUND ( 'NONE', #205, .T. ) ;
#216 = CIRCLE ( 'NONE', #141, 0.01398599999999999670 ) ;
#217 = CIRCLE ( 'NONE', #20, 0.06250000000000002776 ) ;
#218 = PRODUCT_CONTEXT ( 'NONE', #200, 'mechanical' ) ;
#219 = DIRECTION ( 'NONE',  ( -1.000000000000000000, 0.0000000000000000000, 1.525994741205638611E-16 ) ) ;
#220 = CARTESIAN_POINT ( 'NONE',  ( 4.398154462498446902E-17, 0.0000000000000000000, 0.3591365661969322387 ) ) ;
#221 = DIRECTION ( 'NONE',  ( 1.224646799147353454E-16, 0.0000000000000000000, 1.000000000000000000 ) ) ;
#222 = CARTESIAN_POINT ( 'NONE',  ( -0.04750000000000064587, 0.0000000000000000000, 1.500000000000000222 ) ) ;
#223 = ORIENTED_EDGE ( 'NONE', *, *, #135, .T. ) ;
#224 = DIRECTION ( 'NONE',  ( 0.0000000000000000000, 0.0000000000000000000, -1.000000000000000000 ) ) ;
#225 = DIRECTION ( 'NONE',  ( 0.0000000000000000000, 0.0000000000000000000, -1.000000000000000000 ) ) ;
#226 = VECTOR ( 'NONE', #66, 39.37007874015748143 ) ;
#227 = CONICAL_SURFACE ( 'NONE', #209, 0.04750000000000064587, 0.7853981633974466137 ) ;
#228 = ORIENTED_EDGE ( 'NONE', *, *, #158, .F. ) ;
#229 = EDGE_CURVE ( 'NONE', #272, #63, #99, .T. ) ;
#230 = ORIENTED_EDGE ( 'NONE', *, *, #282, .F. ) ;
#231 = CIRCLE ( 'NONE', #114, 0.01398600000000000017 ) ;
#232 = ORIENTED_EDGE ( 'NONE', *, *, #166, .T. ) ;
#233 = APPLICATION_CONTEXT ( 'automotive_design' ) ;
#234 = VECTOR ( 'NONE', #207, 39.37007874015748143 ) ;
#235 = CIRCLE ( 'NONE', #69, 0.06250000000000002776 ) ;
#236 = LENGTH_MEASURE_WITH_UNIT ( LENGTH_MEASURE( 0.02539999999999999897 ), #61 );
#237 = ORIENTED_EDGE ( 'NONE', *, *, #261, .F. ) ;
#238 = ADVANCED_FACE ( 'NONE', ( #167 ), #249, .T. ) ;
#239 = DIRECTION ( 'NONE',  ( 0.0000000000000000000, 0.0000000000000000000, 1.000000000000000000 ) ) ;
#240 = EDGE_CURVE ( 'NONE', #274, #134, #217, .T. ) ;
#241 = VECTOR ( 'NONE', #254, 39.37007874015748143 ) ;
#242 = LINE ( 'NONE', #36, #43 ) ;
#243 = CYLINDRICAL_SURFACE ( 'NONE', #1, 0.06250000000000002776 ) ;
#244 = PRODUCT_DEFINITION_SHAPE ( 'NONE', 'NONE',  #198 ) ;
#245 = CARTESIAN_POINT ( 'NONE',  ( 1.712791013287488357E-18, 0.0000000000000000000, 0.01398600000000000017 ) ) ;
#246 = CONICAL_SURFACE ( 'NONE', #152, 0.04750000000000064587, 0.7853981633974466137 ) ;
#247 = DIRECTION ( 'NONE',  ( 0.0000000000000000000, -1.000000000000000000, 0.0000000000000000000 ) ) ;
#248 = DIRECTION ( 'NONE',  ( 1.000000000000000000, 0.0000000000000000000, 0.0000000000000000000 ) ) ;
#249 = SPHERICAL_SURFACE ( 'NONE', #129, 0.01398600000000000017 ) ;
#250 = ORIENTED_EDGE ( 'NONE', *, *, #84, .F. ) ;
#251 = ADVANCED_FACE ( 'NONE', ( #4 ), #168, .T. ) ;
#252 = STYLED_ITEM ( 'NONE', ( #283 ), #295 ) ;
#253 = CARTESIAN_POINT ( 'NONE',  ( 0.0000000000000000000, 0.0000000000000000000, 1.485000000000000764 ) ) ;
#254 = DIRECTION ( 'NONE',  ( -1.224646799147353454E-16, -0.0000000000000000000, -1.000000000000000000 ) ) ;
#255 = AXIS2_PLACEMENT_3D ( 'NONE', #265, #239, #163 ) ;
#256 = CONICAL_SURFACE ( 'NONE', #287, 0.01398600000000000017, 0.1745329251994338637 ) ;
#257 = ORIENTED_EDGE ( 'NONE', *, *, #35, .F. ) ;
#258 = ORIENTED_EDGE ( 'NONE', *, *, #14, .F. ) ;
#259 = SURFACE_STYLE_FILL_AREA ( #183 ) ;
#260 = ORIENTED_EDGE ( 'NONE', *, *, #52, .F. ) ;
#261 = EDGE_CURVE ( 'NONE', #134, #274, #235, .T. ) ;
#262 =( NAMED_UNIT ( * ) PLANE_ANGLE_UNIT ( ) SI_UNIT ( $, .RADIAN. ) );
#263 = DIRECTION ( 'NONE',  ( 1.000000000000000000, 0.0000000000000000000, 0.0000000000000000000 ) ) ;
#264 = DIRECTION ( 'NONE',  ( 1.000000000000000000, 0.0000000000000000000, 0.0000000000000000000 ) ) ;
#265 = CARTESIAN_POINT ( 'NONE',  ( 0.0000000000000000000, 0.0000000000000000000, 1.500000000000000222 ) ) ;
#266 = CYLINDRICAL_SURFACE ( 'NONE', #13, 0.01398599999999999670 ) ;
#267 = CARTESIAN_POINT ( 'NONE',  ( 1.712791013287488357E-18, 0.0000000000000000000, 0.01398600000000000017 ) ) ;
#268 = DIRECTION ( 'NONE',  ( 1.000000000000000000, 0.0000000000000000000, 0.0000000000000000000 ) ) ;
#269 = ORIENTED_EDGE ( 'NONE', *, *, #319, .T. ) ;
#270 = LENGTH_MEASURE_WITH_UNIT ( LENGTH_MEASURE( 0.02539999999999999897 ), #96 );
#271 = DIRECTION ( 'NONE',  ( 0.0000000000000000000, 0.0000000000000000000, -1.000000000000000000 ) ) ;
#272 = VERTEX_POINT ( 'NONE', #121 ) ;
#273 = LINE ( 'NONE', #127, #44 ) ;
#274 = VERTEX_POINT ( 'NONE', #297 ) ;
#275 = EDGE_CURVE ( 'NONE', #62, #106, #273, .T. ) ;
#276 = LINE ( 'NONE', #149, #241 ) ;
#277 = ORIENTED_EDGE ( 'NONE', *, *, #52, .T. ) ;
#278 = EDGE_CURVE ( 'NONE', #60, #106, #310, .T. ) ;
#279 = FILL_AREA_STYLE_COLOUR ( '', #78 ) ;
#280 = ORIENTED_EDGE ( 'NONE', *, *, #229, .T. ) ;
#281 = CIRCLE ( 'NONE', #298, 0.01398600000000000017 ) ;
#282 = EDGE_CURVE ( 'NONE', #106, #60, #39, .T. ) ;
#283 = PRESENTATION_STYLE_ASSIGNMENT (( #311 ) ) ;
#284 = CARTESIAN_POINT ( 'NONE',  ( 1.028703311283777035E-17, 0.0000000000000000000, 0.08400000000000001910 ) ) ;
#285 = ORIENTED_EDGE ( 'NONE', *, *, #105, .F. ) ;
#286 =( NAMED_UNIT ( * ) SI_UNIT ( $, .STERADIAN. ) SOLID_ANGLE_UNIT ( ) );
#287 = AXIS2_PLACEMENT_3D ( 'NONE', #143, #221, #195 ) ;
#288 = DIRECTION ( 'NONE',  ( 1.224646799147353454E-16, 0.0000000000000000000, 1.000000000000000000 ) ) ;
#289 = DIRECTION ( 'NONE',  ( -1.224646799147353454E-16, -0.0000000000000000000, -1.000000000000000000 ) ) ;
#290 = LINE ( 'NONE', #71, #234 ) ;
#291 = PRODUCT_RELATED_PRODUCT_CATEGORY ( 'part', '', ( #91 ) ) ;
#292 = PRODUCT_DEFINITION_FORMATION_WITH_SPECIFIED_SOURCE ( 'ANY', '', #91, .NOT_KNOWN. ) ;
#293 =( NAMED_UNIT ( * ) SI_UNIT ( $, .STERADIAN. ) SOLID_ANGLE_UNIT ( ) );
#294 = DIRECTION ( 'NONE',  ( 0.0000000000000000000, 0.0000000000000000000, 1.000000000000000000 ) ) ;
#295 = ADVANCED_BREP_SHAPE_REPRESENTATION ( 'Micro_BMR-028-2X', ( #37, #104 ), #95 ) ;
#296 = SPHERICAL_SURFACE ( 'NONE', #132, 0.01398600000000000017 ) ;
#297 = CARTESIAN_POINT ( 'NONE',  ( -0.06249999999999997918, 0.0000000000000000000, 0.3591365661969322387 ) ) ;
#298 = AXIS2_PLACEMENT_3D ( 'NONE', #245, #247, #160 ) ;
#299 = VECTOR ( 'NONE', #25, 39.37007874015748854 ) ;
#300 = ADVANCED_FACE ( 'NONE', ( #172 ), #256, .T. ) ;
#301 = DIRECTION ( 'NONE',  ( -1.000000000000000000, 1.224646799147353207E-16, 0.0000000000000000000 ) ) ;
#302 = VERTEX_POINT ( 'NONE', #303 ) ;
#303 = CARTESIAN_POINT ( 'NONE',  ( -0.04750000000000064587, 0.0000000000000000000, 1.500000000000000222 ) ) ;
#304 = ORIENTED_EDGE ( 'NONE', *, *, #194, .T. ) ;
#305 = DIRECTION ( 'NONE',  ( 1.224646799147353207E-16, 1.000000000000000000, -0.0000000000000000000 ) ) ;
#306 = EDGE_CURVE ( 'NONE', #31, #144, #276, .T. ) ;
#307 = EDGE_LOOP ( 'NONE', ( #199, #260, #269, #230 ) ) ;
#308 = UNCERTAINTY_MEASURE_WITH_UNIT (LENGTH_MEASURE( 1.000000000000000082E-05 ), #312, 'distance_accuracy_value', 'NONE');
#309 = ORIENTED_EDGE ( 'NONE', *, *, #306, .F. ) ;
#310 = CIRCLE ( 'NONE', #204, 0.06250000000000002776 ) ;
#311 = SURFACE_STYLE_USAGE ( .BOTH. , #316 ) ;
#312 =( CONVERSION_BASED_UNIT ( 'INCH', #236 ) LENGTH_UNIT ( ) NAMED_UNIT ( #85 ) );
#313 = EDGE_LOOP ( 'NONE', ( #48, #101, #110, #237 ) ) ;
#314 = DIRECTION ( 'NONE',  ( -1.000000000000000000, 0.0000000000000000000, 0.0000000000000000000 ) ) ;
#315 = ADVANCED_FACE ( 'NONE', ( #122 ), #227, .T. ) ;
#316 = SURFACE_SIDE_STYLE ('',( #107 ) ) ;
#317 = DIRECTION ( 'NONE',  ( -0.0000000000000000000, -0.0000000000000000000, -1.000000000000000000 ) ) ;
#318 = DIRECTION ( 'NONE',  ( -1.000000000000000000, 0.0000000000000000000, 0.0000000000000000000 ) ) ;
#319 = EDGE_CURVE ( 'NONE', #302, #60, #150, .T. ) ;
#320 = CARTESIAN_POINT ( 'NONE',  ( 0.01398600000000000017, 1.712791013287487971E-18, 0.01398599999999999670 ) ) ;
#321 = DIRECTION ( 'NONE',  ( 1.000000000000000000, 0.0000000000000000000, 0.0000000000000000000 ) ) ;
#322 = SHAPE_DEFINITION_REPRESENTATION ( #244, #295 ) ;
#323 = FACE_OUTER_BOUND ( 'NONE', #128, .T. ) ;
#324 = ADVANCED_FACE ( 'NONE', ( #2 ), #57, .T. ) ;
#325 = DIRECTION ( 'NONE',  ( 0.0000000000000000000, 1.000000000000000000, 0.0000000000000000000 ) ) ;
ENDSEC;
END-ISO-10303-21;
