ISO-10303-21;
HEADER;
FILE_DESCRIPTION (( 'STEP AP214' ),
    '1' );
FILE_NAME ('86081.STEP',
    '2023-07-01T00:04:35',
    ( '' ),
    ( '' ),
    'SwSTEP 2.0',
    'SolidWorks 2023',
    '' );
FILE_SCHEMA (( 'AUTOMOTIVE_DESIGN' ));
ENDSEC;

DATA;
#1 = PRESENTATION_STYLE_ASSIGNMENT (( #167 ) ) ;
#2 = ORIENTED_EDGE ( 'NONE', *, *, #285, .T. ) ;
#3 = CIRCLE ( 'NONE', #343, 0.1562500000000000000 ) ;
#4 = FACE_OUTER_BOUND ( 'NONE', #23, .T. ) ;
#5 = ORIENTED_EDGE ( 'NONE', *, *, #28, .F. ) ;
#6 = DIRECTION ( 'NONE',  ( -0.000000000000000000, -1.000000000000000000, -0.000000000000000000 ) ) ;
#7 = CARTESIAN_POINT ( 'NONE',  ( -0.1562499999999995004, 3.000000000000000444, 0.000000000000000000 ) ) ;
#8 = FILL_AREA_STYLE ('',( #11 ) ) ;
#9 = DIRECTION ( 'NONE',  ( -1.238084311840241070E-16, 1.000000000000000000, -0.000000000000000000 ) ) ;
#10 = DIRECTION ( 'NONE',  ( 0.000000000000000000, 0.000000000000000000, -1.000000000000000000 ) ) ;
#11 = FILL_AREA_STYLE_COLOUR ( '', #78 ) ;
#12 = CIRCLE ( 'NONE', #61, 0.1562500000000000000 ) ;
#13 = AXIS2_PLACEMENT_3D ( 'NONE', #59, #373, #251 ) ;
#14 = CYLINDRICAL_SURFACE ( 'NONE', #118, 0.1562499999999996392 ) ;
#15 = FACE_OUTER_BOUND ( 'NONE', #313, .T. ) ;
#16 = CARTESIAN_POINT ( 'NONE',  ( -1.913510623667739463E-17, 0.1562500000000000000, 0.000000000000000000 ) ) ;
#17 = SURFACE_STYLE_FILL_AREA ( #8 ) ;
#18 = DIRECTION ( 'NONE',  ( -1.238084311840241070E-16, 1.000000000000000000, -0.000000000000000000 ) ) ;
#19 = CARTESIAN_POINT ( 'NONE',  ( 0.000000000000000000, 0.000000000000000000, 0.000000000000000000 ) ) ;
#20 =( GEOMETRIC_REPRESENTATION_CONTEXT ( 3 ) GLOBAL_UNCERTAINTY_ASSIGNED_CONTEXT ( ( #57 ) ) GLOBAL_UNIT_ASSIGNED_CONTEXT ( ( #259, #221, #253 ) ) REPRESENTATION_CONTEXT ( 'NONE', 'WORKASPACE' ) );
#21 = VECTOR ( 'NONE', #110, 39.37007874015748143 ) ;
#22 = AXIS2_PLACEMENT_3D ( 'NONE', #358, #76, #242 ) ;
#23 = EDGE_LOOP ( 'NONE', ( #252, #115, #85, #94, #310 ) ) ;
#24 = ADVANCED_FACE ( 'NONE', ( #254 ), #119, .T. ) ;
#25 = PRESENTATION_STYLE_ASSIGNMENT (( #296 ) ) ;
#26 = CARTESIAN_POINT ( 'NONE',  ( -0.1562499999999995837, 3.000000000000000444, 0.000000000000000000 ) ) ;
#27 = AXIS2_PLACEMENT_3D ( 'NONE', #106, #69, #357 ) ;
#28 = EDGE_CURVE ( 'NONE', #38, #348, #79, .T. ) ;
#29 = VECTOR ( 'NONE', #236, 39.37007874015748143 ) ;
#30 = ORIENTED_EDGE ( 'NONE', *, *, #176, .T. ) ;
#31 = CARTESIAN_POINT ( 'NONE',  ( -0.1562499999999991951, 1.250000000000000000, 0.000000000000000000 ) ) ;
#32 = ORIENTED_EDGE ( 'NONE', *, *, #28, .T. ) ;
#33 = AXIS2_PLACEMENT_3D ( 'NONE', #165, #292, #74 ) ;
#34 = SPHERICAL_SURFACE ( 'NONE', #13, 0.1562500000000000000 ) ;
#35 = EDGE_CURVE ( 'NONE', #284, #241, #77, .T. ) ;
#36 = SURFACE_STYLE_FILL_AREA ( #68 ) ;
#37 = UNCERTAINTY_MEASURE_WITH_UNIT (LENGTH_MEASURE( 1.000000000000000082E-05 ), #306, 'distance_accuracy_value', 'NONE');
#38 = VERTEX_POINT ( 'NONE', #211 ) ;
#39 =( NAMED_UNIT ( * ) SI_UNIT ( $, .STERADIAN. ) SOLID_ANGLE_UNIT ( ) );
#40 = ORIENTED_EDGE ( 'NONE', *, *, #126, .T. ) ;
#41 = FILL_AREA_STYLE ('',( #42 ) ) ;
#42 = FILL_AREA_STYLE_COLOUR ( '', #361 ) ;
#43 = CARTESIAN_POINT ( 'NONE',  ( 0.000000000000000000, 1.250000000000000000, 0.000000000000000000 ) ) ;
#44 =( NAMED_UNIT ( * ) PLANE_ANGLE_UNIT ( ) SI_UNIT ( $, .RADIAN. ) );
#45 = FILL_AREA_STYLE ('',( #204 ) ) ;
#46 = EDGE_CURVE ( 'NONE', #202, #274, #48, .T. ) ;
#47 = DIRECTION ( 'NONE',  ( -1.000000000000000000, -1.238084311840241070E-16, 0.000000000000000000 ) ) ;
#48 = CIRCLE ( 'NONE', #243, 0.1562500000000000000 ) ;
#49 =( GEOMETRIC_REPRESENTATION_CONTEXT ( 3 ) GLOBAL_UNCERTAINTY_ASSIGNED_CONTEXT ( ( #281 ) ) GLOBAL_UNIT_ASSIGNED_CONTEXT ( ( #324, #154, #123 ) ) REPRESENTATION_CONTEXT ( 'NONE', 'WORKASPACE' ) );
#50 = LINE ( 'NONE', #206, #29 ) ;
#51 = CARTESIAN_POINT ( 'NONE',  ( 3.391294344867775017E-16, 1.250000000000000000, 0.000000000000000000 ) ) ;
#52 = STYLED_ITEM ( 'NONE', ( #1 ), #182 ) ;
#53 = EDGE_CURVE ( 'NONE', #274, #226, #12, .T. ) ;
#54 =( NAMED_UNIT ( * ) SI_UNIT ( $, .STERADIAN. ) SOLID_ANGLE_UNIT ( ) );
#55 = COLOUR_RGB ( '',1.000000000000000000, 0.000000000000000000, 0.000000000000000000 ) ;
#56 = SURFACE_STYLE_FILL_AREA ( #228 ) ;
#57 = UNCERTAINTY_MEASURE_WITH_UNIT (LENGTH_MEASURE( 1.000000000000000082E-05 ), #259, 'distance_accuracy_value', 'NONE');
#58 = ORIENTED_EDGE ( 'NONE', *, *, #35, .T. ) ;
#59 = CARTESIAN_POINT ( 'NONE',  ( -1.913510623667739463E-17, 0.1562500000000000000, 0.000000000000000000 ) ) ;
#60 = DIMENSIONAL_EXPONENTS ( 1.000000000000000000, 0.000000000000000000, 0.000000000000000000, 0.000000000000000000, 0.000000000000000000, 0.000000000000000000, 0.000000000000000000 ) ;
#61 = AXIS2_PLACEMENT_3D ( 'NONE', #298, #295, #238 ) ;
#62 = EDGE_LOOP ( 'NONE', ( #255, #315, #249, #2 ) ) ;
#63 = MECHANICAL_DESIGN_GEOMETRIC_PRESENTATION_REPRESENTATION (  '', ( #52 ), #20 ) ;
#64 = APPLICATION_PROTOCOL_DEFINITION ( 'draft international standard', 'automotive_design', 1998, #288 ) ;
#65 = ORIENTED_EDGE ( 'NONE', *, *, #279, .F. ) ;
#66 = PRESENTATION_STYLE_ASSIGNMENT (( #289 ) ) ;
#67 = DIRECTION ( 'NONE',  ( -0.000000000000000000, -1.000000000000000000, -0.000000000000000000 ) ) ;
#68 = FILL_AREA_STYLE ('',( #101 ) ) ;
#69 = DIRECTION ( 'NONE',  ( -0.000000000000000000, -1.000000000000000000, -0.000000000000000000 ) ) ;
#70 = CIRCLE ( 'NONE', #168, 0.1562499999999997224 ) ;
#71 = ADVANCED_FACE ( 'NONE', ( #326 ), #14, .T. ) ;
#72 = FACE_OUTER_BOUND ( 'NONE', #111, .T. ) ;
#73 = DIRECTION ( 'NONE',  ( 0.000000000000000000, 0.000000000000000000, -1.000000000000000000 ) ) ;
#74 = DIRECTION ( 'NONE',  ( -1.000000000000000000, 0.000000000000000000, 0.000000000000000000 ) ) ;
#75 = AXIS2_PLACEMENT_3D ( 'NONE', #51, #356, #186 ) ;
#76 = DIRECTION ( 'NONE',  ( -1.238084311840241070E-16, 1.000000000000000000, -0.000000000000000000 ) ) ;
#77 = CIRCLE ( 'NONE', #217, 0.1562499999999998612 ) ;
#78 = COLOUR_RGB ( '',0.7921568627450980005, 0.8196078431372548767, 0.9333333333333333481 ) ;
#79 = CIRCLE ( 'NONE', #27, 0.1562500000000000000 ) ;
#80 = UNCERTAINTY_MEASURE_WITH_UNIT (LENGTH_MEASURE( 1.000000000000000082E-05 ), #196, 'distance_accuracy_value', 'NONE');
#81 = EDGE_LOOP ( 'NONE', ( #113, #65 ) ) ;
#82 =( LENGTH_UNIT ( ) NAMED_UNIT ( * ) SI_UNIT ( $, .METRE. ) );
#83 = STYLED_ITEM ( 'NONE', ( #66 ), #24 ) ;
#84 = EDGE_CURVE ( 'NONE', #140, #350, #205, .T. ) ;
#85 = ORIENTED_EDGE ( 'NONE', *, *, #216, .T. ) ;
#86 = SURFACE_STYLE_FILL_AREA ( #41 ) ;
#87 = DIMENSIONAL_EXPONENTS ( 1.000000000000000000, 0.000000000000000000, 0.000000000000000000, 0.000000000000000000, 0.000000000000000000, 0.000000000000000000, 0.000000000000000000 ) ;
#88 = UNCERTAINTY_MEASURE_WITH_UNIT (LENGTH_MEASURE( 1.000000000000000082E-05 ), #316, 'distance_accuracy_value', 'NONE');
#89 = ORIENTED_EDGE ( 'NONE', *, *, #147, .T. ) ;
#90 = FILL_AREA_STYLE_COLOUR ( '', #265 ) ;
#91 = ADVANCED_FACE ( 'NONE', ( #210 ), #268, .T. ) ;
#92 = LENGTH_MEASURE_WITH_UNIT ( LENGTH_MEASURE( 0.02539999999999999897 ), #220 );
#93 = APPLICATION_CONTEXT ( 'automotive_design' ) ;
#94 = ORIENTED_EDGE ( 'NONE', *, *, #176, .F. ) ;
#95 = PLANE ( 'NONE',  #257 ) ;
#96 = SURFACE_STYLE_USAGE ( .BOTH. , #146 ) ;
#97 = PRESENTATION_LAYER_ASSIGNMENT (  '', '', ( #52 ) ) ;
#98 =( GEOMETRIC_REPRESENTATION_CONTEXT ( 3 ) GLOBAL_UNCERTAINTY_ASSIGNED_CONTEXT ( ( #37 ) ) GLOBAL_UNIT_ASSIGNED_CONTEXT ( ( #306, #190, #276 ) ) REPRESENTATION_CONTEXT ( 'NONE', 'WORKASPACE' ) );
#99 = SURFACE_STYLE_USAGE ( .BOTH. , #148 ) ;
#100 =( NAMED_UNIT ( * ) SI_UNIT ( $, .STERADIAN. ) SOLID_ANGLE_UNIT ( ) );
#101 = FILL_AREA_STYLE_COLOUR ( '', #308 ) ;
#102 = ADVANCED_FACE ( 'NONE', ( #230 ), #355, .T. ) ;
#103 = DIRECTION ( 'NONE',  ( 0.000000000000000000, 0.000000000000000000, -1.000000000000000000 ) ) ;
#104 = DIRECTION ( 'NONE',  ( -1.000000000000000000, 0.000000000000000000, 0.000000000000000000 ) ) ;
#105 = SURFACE_STYLE_FILL_AREA ( #45 ) ;
#106 = CARTESIAN_POINT ( 'NONE',  ( 0.000000000000000000, 0.1562500000000000278, 0.000000000000000000 ) ) ;
#107 = AXIS2_PLACEMENT_3D ( 'NONE', #270, #157, #207 ) ;
#108 =( CONVERSION_BASED_UNIT ( 'INCH', #331 ) LENGTH_UNIT ( ) NAMED_UNIT ( #87 ) );
#109 =( NAMED_UNIT ( * ) PLANE_ANGLE_UNIT ( ) SI_UNIT ( $, .RADIAN. ) );
#110 = DIRECTION ( 'NONE',  ( -0.000000000000000000, -1.000000000000000000, -0.000000000000000000 ) ) ;
#111 = EDGE_LOOP ( 'NONE', ( #116, #89, #286, #134 ) ) ;
#112 = PRESENTATION_LAYER_ASSIGNMENT (  '', '', ( #219 ) ) ;
#113 = ORIENTED_EDGE ( 'NONE', *, *, #35, .F. ) ;
#114 = SURFACE_SIDE_STYLE ('',( #86 ) ) ;
#115 = ORIENTED_EDGE ( 'NONE', *, *, #279, .T. ) ;
#116 = ORIENTED_EDGE ( 'NONE', *, *, #138, .T. ) ;
#117 = LENGTH_MEASURE_WITH_UNIT ( LENGTH_MEASURE( 0.02539999999999999897 ), #227 );
#118 = AXIS2_PLACEMENT_3D ( 'NONE', #180, #127, #104 ) ;
#119 = PLANE ( 'NONE',  #365 ) ;
#120 = CIRCLE ( 'NONE', #332, 0.1562499999999998612 ) ;
#121 = CIRCLE ( 'NONE', #22, 0.1562499999999997224 ) ;
#122 = CYLINDRICAL_SURFACE ( 'NONE', #187, 0.1562499999999999445 ) ;
#123 =( NAMED_UNIT ( * ) SI_UNIT ( $, .STERADIAN. ) SOLID_ANGLE_UNIT ( ) );
#124 = DIRECTION ( 'NONE',  ( -0.000000000000000000, -1.000000000000000000, -0.000000000000000000 ) ) ;
#125 = DIRECTION ( 'NONE',  ( 1.238084311840241070E-16, -1.000000000000000000, 0.000000000000000000 ) ) ;
#126 = EDGE_CURVE ( 'NONE', #258, #350, #70, .T. ) ;
#127 = DIRECTION ( 'NONE',  ( -1.238084311840241070E-16, 1.000000000000000000, -0.000000000000000000 ) ) ;
#128 = PRODUCT_DEFINITION_SHAPE ( 'NONE', 'NONE',  #341 ) ;
#129 = DIRECTION ( 'NONE',  ( 0.000000000000000000, 0.000000000000000000, 1.000000000000000000 ) ) ;
#130 =( LENGTH_UNIT ( ) NAMED_UNIT ( * ) SI_UNIT ( $, .METRE. ) );
#131 = CARTESIAN_POINT ( 'NONE',  ( 3.391294344867775017E-16, 1.250000000000000000, 0.000000000000000000 ) ) ;
#132 = STYLED_ITEM ( 'NONE', ( #150 ), #200 ) ;
#133 = AXIS2_PLACEMENT_3D ( 'NONE', #16, #129, #233 ) ;
#134 = ORIENTED_EDGE ( 'NONE', *, *, #84, .F. ) ;
#135 =( LENGTH_UNIT ( ) NAMED_UNIT ( * ) SI_UNIT ( $, .METRE. ) );
#136 = STYLED_ITEM ( 'NONE', ( #235 ), #91 ) ;
#137 = ORIENTED_EDGE ( 'NONE', *, *, #330, .T. ) ;
#138 = EDGE_CURVE ( 'NONE', #140, #194, #336, .T. ) ;
#139 = ORIENTED_EDGE ( 'NONE', *, *, #138, .F. ) ;
#140 = VERTEX_POINT ( 'NONE', #31 ) ;
#141 = ADVANCED_FACE ( 'NONE', ( #278 ), #34, .T. ) ;
#142 = EDGE_LOOP ( 'NONE', ( #58, #137, #339, #5, #364 ) ) ;
#143 = ORIENTED_EDGE ( 'NONE', *, *, #147, .F. ) ;
#144 =( NAMED_UNIT ( * ) SI_UNIT ( $, .STERADIAN. ) SOLID_ANGLE_UNIT ( ) );
#145 = DIMENSIONAL_EXPONENTS ( 1.000000000000000000, 0.000000000000000000, 0.000000000000000000, 0.000000000000000000, 0.000000000000000000, 0.000000000000000000, 0.000000000000000000 ) ;
#146 = SURFACE_SIDE_STYLE ('',( #175 ) ) ;
#147 = EDGE_CURVE ( 'NONE', #194, #258, #248, .T. ) ;
#148 = SURFACE_SIDE_STYLE ('',( #17 ) ) ;
#149 =( NAMED_UNIT ( * ) SI_UNIT ( $, .STERADIAN. ) SOLID_ANGLE_UNIT ( ) );
#150 = PRESENTATION_STYLE_ASSIGNMENT (( #99 ) ) ;
#151 = CARTESIAN_POINT ( 'NONE',  ( 0.000000000000000000, 1.250000000000000000, 0.000000000000000000 ) ) ;
#152 =( GEOMETRIC_REPRESENTATION_CONTEXT ( 3 ) GLOBAL_UNCERTAINTY_ASSIGNED_CONTEXT ( ( #80 ) ) GLOBAL_UNIT_ASSIGNED_CONTEXT ( ( #196, #224, #144 ) ) REPRESENTATION_CONTEXT ( 'NONE', 'WORKASPACE' ) );
#153 = MECHANICAL_DESIGN_GEOMETRIC_PRESENTATION_REPRESENTATION (  '', ( #132 ), #49 ) ;
#154 =( NAMED_UNIT ( * ) PLANE_ANGLE_UNIT ( ) SI_UNIT ( $, .RADIAN. ) );
#155 =( CONVERSION_BASED_UNIT ( 'INCH', #264 ) LENGTH_UNIT ( ) NAMED_UNIT ( #145 ) );
#156 = CARTESIAN_POINT ( 'NONE',  ( 1.224646799147352714E-16, 3.000000000000000444, 0.000000000000000000 ) ) ;
#157 = DIRECTION ( 'NONE',  ( -0.000000000000000000, -1.000000000000000000, -0.000000000000000000 ) ) ;
#158 = DIRECTION ( 'NONE',  ( -0.000000000000000000, -1.000000000000000000, -0.000000000000000000 ) ) ;
#159 = CIRCLE ( 'NONE', #370, 0.1562500000000000000 ) ;
#160 = PRESENTATION_LAYER_ASSIGNMENT (  '', '', ( #366 ) ) ;
#161 =( CONVERSION_BASED_UNIT ( 'INCH', #305 ) LENGTH_UNIT ( ) NAMED_UNIT ( #317 ) );
#162 = ORIENTED_EDGE ( 'NONE', *, *, #273, .T. ) ;
#163 = MECHANICAL_DESIGN_GEOMETRIC_PRESENTATION_REPRESENTATION (  '', ( #250 ), #184 ) ;
#164 = UNCERTAINTY_MEASURE_WITH_UNIT (LENGTH_MEASURE( 1.000000000000000082E-05 ), #108, 'distance_accuracy_value', 'NONE');
#165 = CARTESIAN_POINT ( 'NONE',  ( -1.913510623667739463E-17, 0.1562500000000000000, 0.000000000000000000 ) ) ;
#166 = EDGE_LOOP ( 'NONE', ( #246, #40 ) ) ;
#167 = SURFACE_STYLE_USAGE ( .BOTH. , #114 ) ;
#168 = AXIS2_PLACEMENT_3D ( 'NONE', #263, #18, #325 ) ;
#169 = SURFACE_SIDE_STYLE ('',( #56 ) ) ;
#170 = ORIENTED_EDGE ( 'NONE', *, *, #126, .F. ) ;
#171 = DIMENSIONAL_EXPONENTS ( 1.000000000000000000, 0.000000000000000000, 0.000000000000000000, 0.000000000000000000, 0.000000000000000000, 0.000000000000000000, 0.000000000000000000 ) ;
#172 = SHAPE_DEFINITION_REPRESENTATION ( #128, #303 ) ;
#173 = CARTESIAN_POINT ( 'NONE',  ( 0.000000000000000000, 0.000000000000000000, 0.000000000000000000 ) ) ;
#174 = AXIS2_PLACEMENT_3D ( 'NONE', #269, #294, #47 ) ;
#175 = SURFACE_STYLE_FILL_AREA ( #353 ) ;
#176 = EDGE_CURVE ( 'NONE', #274, #38, #159, .T. ) ;
#177 =( GEOMETRIC_REPRESENTATION_CONTEXT ( 3 ) GLOBAL_UNCERTAINTY_ASSIGNED_CONTEXT ( ( #363 ) ) GLOBAL_UNIT_ASSIGNED_CONTEXT ( ( #161, #109, #54 ) ) REPRESENTATION_CONTEXT ( 'NONE', 'WORKASPACE' ) );
#178 = CARTESIAN_POINT ( 'NONE',  ( 0.1562499999999998612, 1.250000000000000000, 1.913510623667735457E-17 ) ) ;
#179 = PLANE ( 'NONE',  #174 ) ;
#180 = CARTESIAN_POINT ( 'NONE',  ( 1.224646799147352714E-16, 3.000000000000000444, 0.000000000000000000 ) ) ;
#181 = SURFACE_SIDE_STYLE ('',( #105 ) ) ;
#182 = ADVANCED_FACE ( 'NONE', ( #4 ), #122, .T. ) ;
#183 = DIRECTION ( 'NONE',  ( 0.000000000000000000, -0.000000000000000000, 1.000000000000000000 ) ) ;
#184 =( GEOMETRIC_REPRESENTATION_CONTEXT ( 3 ) GLOBAL_UNCERTAINTY_ASSIGNED_CONTEXT ( ( #88 ) ) GLOBAL_UNIT_ASSIGNED_CONTEXT ( ( #316, #312, #39 ) ) REPRESENTATION_CONTEXT ( 'NONE', 'WORKASPACE' ) );
#185 = CARTESIAN_POINT ( 'NONE',  ( 1.913510623667739463E-17, 0.1562500000000000278, 0.1562500000000000000 ) ) ;
#186 = DIRECTION ( 'NONE',  ( -1.000000000000000000, 0.000000000000000000, 0.000000000000000000 ) ) ;
#187 = AXIS2_PLACEMENT_3D ( 'NONE', #173, #6, #193 ) ;
#188 = SURFACE_STYLE_FILL_AREA ( #335 ) ;
#189 = PRODUCT_DEFINITION_CONTEXT ( 'detailed design', #288, 'design' ) ;
#190 =( NAMED_UNIT ( * ) PLANE_ANGLE_UNIT ( ) SI_UNIT ( $, .RADIAN. ) );
#191 = DIRECTION ( 'NONE',  ( -1.000000000000000000, 0.000000000000000000, 0.000000000000000000 ) ) ;
#192 = EDGE_CURVE ( 'NONE', #348, #226, #354, .T. ) ;
#193 = DIRECTION ( 'NONE',  ( 0.000000000000000000, 0.000000000000000000, -1.000000000000000000 ) ) ;
#194 = VERTEX_POINT ( 'NONE', #178 ) ;
#195 = CARTESIAN_POINT ( 'NONE',  ( 0.000000000000000000, 0.1562500000000000278, 0.000000000000000000 ) ) ;
#196 =( CONVERSION_BASED_UNIT ( 'INCH', #346 ) LENGTH_UNIT ( ) NAMED_UNIT ( #60 ) );
#197 = DIRECTION ( 'NONE',  ( 1.000000000000000000, 0.000000000000000000, 0.000000000000000000 ) ) ;
#198 = SURFACE_STYLE_USAGE ( .BOTH. , #304 ) ;
#199 =( GEOMETRIC_REPRESENTATION_CONTEXT ( 3 ) GLOBAL_UNCERTAINTY_ASSIGNED_CONTEXT ( ( #337 ) ) GLOBAL_UNIT_ASSIGNED_CONTEXT ( ( #155, #293, #149 ) ) REPRESENTATION_CONTEXT ( 'NONE', 'WORKASPACE' ) );
#200 = MANIFOLD_SOLID_BREP ( 'Revolve - Cutting Edge', #232 ) ;
#201 = ORIENTED_EDGE ( 'NONE', *, *, #84, .T. ) ;
#202 = VERTEX_POINT ( 'NONE', #185 ) ;
#203 = DIRECTION ( 'NONE',  ( 0.000000000000000000, 0.000000000000000000, -1.000000000000000000 ) ) ;
#204 = FILL_AREA_STYLE_COLOUR ( '', #322 ) ;
#205 = LINE ( 'NONE', #7, #275 ) ;
#206 = CARTESIAN_POINT ( 'NONE',  ( 0.000000000000000000, 0.000000000000000000, -0.1562499999999999445 ) ) ;
#207 = DIRECTION ( 'NONE',  ( 0.000000000000000000, 0.000000000000000000, -1.000000000000000000 ) ) ;
#208 = ADVANCED_FACE ( 'NONE', ( #72 ), #329, .T. ) ;
#209 = CARTESIAN_POINT ( 'NONE',  ( 0.000000000000000000, 1.250000000000000000, -0.1562499999999998612 ) ) ;
#210 = FACE_OUTER_BOUND ( 'NONE', #282, .T. ) ;
#211 = CARTESIAN_POINT ( 'NONE',  ( 0.000000000000000000, 0.1562500000000000278, -0.1562500000000000000 ) ) ;
#212 = MECHANICAL_DESIGN_GEOMETRIC_PRESENTATION_REPRESENTATION (  '', ( #136 ), #199 ) ;
#213 = PRODUCT_DEFINITION_FORMATION_WITH_SPECIFIED_SOURCE ( 'ANY', '', #334, .NOT_KNOWN. ) ;
#214 =( LENGTH_UNIT ( ) NAMED_UNIT ( * ) SI_UNIT ( $, .METRE. ) );
#215 = DIRECTION ( 'NONE',  ( 0.000000000000000000, 0.000000000000000000, 1.000000000000000000 ) ) ;
#216 = EDGE_CURVE ( 'NONE', #284, #38, #50, .T. ) ;
#217 = AXIS2_PLACEMENT_3D ( 'NONE', #151, #124, #10 ) ;
#218 = VECTOR ( 'NONE', #345, 39.37007874015748143 ) ;
#219 = STYLED_ITEM ( 'NONE', ( #237 ), #102 ) ;
#220 =( LENGTH_UNIT ( ) NAMED_UNIT ( * ) SI_UNIT ( $, .METRE. ) );
#221 =( NAMED_UNIT ( * ) PLANE_ANGLE_UNIT ( ) SI_UNIT ( $, .RADIAN. ) );
#222 =( LENGTH_UNIT ( ) NAMED_UNIT ( * ) SI_UNIT ( $, .METRE. ) );
#223 = CARTESIAN_POINT ( 'NONE',  ( 0.1562499999999997780, 3.000000000000000444, 1.913510623667734841E-17 ) ) ;
#224 =( NAMED_UNIT ( * ) PLANE_ANGLE_UNIT ( ) SI_UNIT ( $, .RADIAN. ) );
#225 = CIRCLE ( 'NONE', #75, 0.1562499999999995282 ) ;
#226 = VERTEX_POINT ( 'NONE', #234 ) ;
#227 =( LENGTH_UNIT ( ) NAMED_UNIT ( * ) SI_UNIT ( $, .METRE. ) );
#228 = FILL_AREA_STYLE ('',( #90 ) ) ;
#229 = CARTESIAN_POINT ( 'NONE',  ( -0.1562500000000000000, 0.1562500000000000278, 1.913510623667738847E-17 ) ) ;
#230 = FACE_OUTER_BOUND ( 'NONE', #142, .T. ) ;
#231 = CARTESIAN_POINT ( 'NONE',  ( 0.1562499999999998612, 3.000000000000000444, 1.913510623667735457E-17 ) ) ;
#232 = CLOSED_SHELL ( 'NONE', ( #141, #102, #24, #182, #91 ) ) ;
#233 = DIRECTION ( 'NONE',  ( 1.000000000000000000, 0.000000000000000000, 0.000000000000000000 ) ) ;
#234 = CARTESIAN_POINT ( 'NONE',  ( -9.567553118338697316E-18, 0.000000000000000000, 0.000000000000000000 ) ) ;
#235 = PRESENTATION_STYLE_ASSIGNMENT (( #96 ) ) ;
#236 = DIRECTION ( 'NONE',  ( -0.000000000000000000, -1.000000000000000000, -0.000000000000000000 ) ) ;
#237 = PRESENTATION_STYLE_ASSIGNMENT (( #260 ) ) ;
#238 = DIRECTION ( 'NONE',  ( 1.000000000000000000, 0.000000000000000000, -1.224646799147353207E-16 ) ) ;
#239 = LENGTH_MEASURE_WITH_UNIT ( LENGTH_MEASURE( 0.02539999999999999897 ), #130 );
#240 = PRESENTATION_LAYER_ASSIGNMENT (  '', '', ( #132 ) ) ;
#241 = VERTEX_POINT ( 'NONE', #267 ) ;
#242 = DIRECTION ( 'NONE',  ( -1.000000000000000000, 0.000000000000000000, 0.000000000000000000 ) ) ;
#243 = AXIS2_PLACEMENT_3D ( 'NONE', #261, #333, #203 ) ;
#244 = PRESENTATION_LAYER_ASSIGNMENT (  '', '', ( #250 ) ) ;
#245 = CARTESIAN_POINT ( 'NONE',  ( 1.913510623667738539E-17, 0.000000000000000000, 0.1562499999999999445 ) ) ;
#246 = ORIENTED_EDGE ( 'NONE', *, *, #347, .T. ) ;
#247 = PRODUCT_CONTEXT ( 'NONE', #93, 'mechanical' ) ;
#248 = LINE ( 'NONE', #223, #218 ) ;
#249 = ORIENTED_EDGE ( 'NONE', *, *, #192, .F. ) ;
#250 = STYLED_ITEM ( 'NONE', ( #280 ), #141 ) ;
#251 = DIRECTION ( 'NONE',  ( 1.000000000000000000, 0.000000000000000000, 0.000000000000000000 ) ) ;
#252 = ORIENTED_EDGE ( 'NONE', *, *, #330, .F. ) ;
#253 =( NAMED_UNIT ( * ) SI_UNIT ( $, .STERADIAN. ) SOLID_ANGLE_UNIT ( ) );
#254 = FACE_OUTER_BOUND ( 'NONE', #81, .T. ) ;
#255 = ORIENTED_EDGE ( 'NONE', *, *, #46, .T. ) ;
#256 = ADVANCED_FACE ( 'NONE', ( #15 ), #179, .F. ) ;
#257 = AXIS2_PLACEMENT_3D ( 'NONE', #320, #125, #262 ) ;
#258 = VERTEX_POINT ( 'NONE', #231 ) ;
#259 =( CONVERSION_BASED_UNIT ( 'INCH', #117 ) LENGTH_UNIT ( ) NAMED_UNIT ( #287 ) );
#260 = SURFACE_STYLE_USAGE ( .BOTH. , #314 ) ;
#261 = CARTESIAN_POINT ( 'NONE',  ( 0.000000000000000000, 0.1562500000000000278, 0.000000000000000000 ) ) ;
#262 = DIRECTION ( 'NONE',  ( 1.000000000000000000, 1.238084311840241070E-16, 0.000000000000000000 ) ) ;
#263 = CARTESIAN_POINT ( 'NONE',  ( 1.224646799147352714E-16, 3.000000000000000444, 0.000000000000000000 ) ) ;
#264 = LENGTH_MEASURE_WITH_UNIT ( LENGTH_MEASURE( 0.02539999999999999897 ), #323 );
#265 = COLOUR_RGB ( '',1.000000000000000000, 0.000000000000000000, 0.000000000000000000 ) ;
#266 = CLOSED_SHELL ( 'NONE', ( #208, #256, #71, #309 ) ) ;
#267 = CARTESIAN_POINT ( 'NONE',  ( 1.913510623667738231E-17, 1.250000000000000000, 0.1562499999999998612 ) ) ;
#268 = SPHERICAL_SURFACE ( 'NONE', #133, 0.1562500000000000000 ) ;
#269 = CARTESIAN_POINT ( 'NONE',  ( 3.391294344867775017E-16, 1.250000000000000000, 0.000000000000000000 ) ) ;
#270 = CARTESIAN_POINT ( 'NONE',  ( 0.000000000000000000, 0.000000000000000000, 0.000000000000000000 ) ) ;
#271 = DIRECTION ( 'NONE',  ( -0.000000000000000000, -1.000000000000000000, -0.000000000000000000 ) ) ;
#272 = AXIS2_PLACEMENT_3D ( 'NONE', #131, #9, #191 ) ;
#273 = EDGE_CURVE ( 'NONE', #194, #140, #225, .T. ) ;
#274 = VERTEX_POINT ( 'NONE', #229 ) ;
#275 = VECTOR ( 'NONE', #291, 39.37007874015748143 ) ;
#276 =( NAMED_UNIT ( * ) SI_UNIT ( $, .STERADIAN. ) SOLID_ANGLE_UNIT ( ) );
#277 =( GEOMETRIC_REPRESENTATION_CONTEXT ( 3 ) GLOBAL_UNCERTAINTY_ASSIGNED_CONTEXT ( ( #164 ) ) GLOBAL_UNIT_ASSIGNED_CONTEXT ( ( #108, #44, #100 ) ) REPRESENTATION_CONTEXT ( 'NONE', 'WORKASPACE' ) );
#278 = FACE_OUTER_BOUND ( 'NONE', #62, .T. ) ;
#279 = EDGE_CURVE ( 'NONE', #241, #284, #120, .T. ) ;
#280 = PRESENTATION_STYLE_ASSIGNMENT (( #198 ) ) ;
#281 = UNCERTAINTY_MEASURE_WITH_UNIT (LENGTH_MEASURE( 1.000000000000000082E-05 ), #324, 'distance_accuracy_value', 'NONE');
#282 = EDGE_LOOP ( 'NONE', ( #369, #30, #32, #311 ) ) ;
#283 = MECHANICAL_DESIGN_GEOMETRIC_PRESENTATION_REPRESENTATION (  '', ( #219 ), #277 ) ;
#284 = VERTEX_POINT ( 'NONE', #209 ) ;
#285 = EDGE_CURVE ( 'NONE', #348, #202, #3, .T. ) ;
#286 = ORIENTED_EDGE ( 'NONE', *, *, #347, .F. ) ;
#287 = DIMENSIONAL_EXPONENTS ( 1.000000000000000000, 0.000000000000000000, 0.000000000000000000, 0.000000000000000000, 0.000000000000000000, 0.000000000000000000, 0.000000000000000000 ) ;
#288 = APPLICATION_CONTEXT ( 'automotive_design' ) ;
#289 = SURFACE_STYLE_USAGE ( .BOTH. , #169 ) ;
#290 = DIRECTION ( 'NONE',  ( 0.000000000000000000, 0.000000000000000000, -1.000000000000000000 ) ) ;
#291 = DIRECTION ( 'NONE',  ( -1.238084311840241070E-16, 1.000000000000000000, -0.000000000000000000 ) ) ;
#292 = DIRECTION ( 'NONE',  ( 0.000000000000000000, 0.000000000000000000, -1.000000000000000000 ) ) ;
#293 =( NAMED_UNIT ( * ) PLANE_ANGLE_UNIT ( ) SI_UNIT ( $, .RADIAN. ) );
#294 = DIRECTION ( 'NONE',  ( -1.238084311840241070E-16, 1.000000000000000000, 0.000000000000000000 ) ) ;
#295 = DIRECTION ( 'NONE',  ( 1.224646799147353207E-16, -0.000000000000000000, 1.000000000000000000 ) ) ;
#296 = SURFACE_STYLE_USAGE ( .BOTH. , #181 ) ;
#297 = PRESENTATION_LAYER_ASSIGNMENT (  '', '', ( #136 ) ) ;
#298 = CARTESIAN_POINT ( 'NONE',  ( -1.913510623667739463E-17, 0.1562500000000000000, 0.000000000000000000 ) ) ;
#299 = DIRECTION ( 'NONE',  ( -1.238084311840241070E-16, 1.000000000000000000, -0.000000000000000000 ) ) ;
#300 = DIRECTION ( 'NONE',  ( -1.000000000000000000, 0.000000000000000000, 0.000000000000000000 ) ) ;
#301 = COLOUR_RGB ( '',1.000000000000000000, 0.000000000000000000, 0.000000000000000000 ) ;
#302 = EDGE_LOOP ( 'NONE', ( #143, #162, #201, #170 ) ) ;
#303 = ADVANCED_BREP_SHAPE_REPRESENTATION ( '86081', ( #200, #328, #338 ), #98 ) ;
#304 = SURFACE_SIDE_STYLE ('',( #188 ) ) ;
#305 = LENGTH_MEASURE_WITH_UNIT ( LENGTH_MEASURE( 0.02539999999999999897 ), #135 );
#306 =( CONVERSION_BASED_UNIT ( 'INCH', #307 ) LENGTH_UNIT ( ) NAMED_UNIT ( #351 ) );
#307 = LENGTH_MEASURE_WITH_UNIT ( LENGTH_MEASURE( 0.02539999999999999897 ), #82 );
#308 = COLOUR_RGB ( '',1.000000000000000000, 0.000000000000000000, 0.000000000000000000 ) ;
#309 = ADVANCED_FACE ( 'NONE', ( #352 ), #95, .F. ) ;
#310 = ORIENTED_EDGE ( 'NONE', *, *, #46, .F. ) ;
#311 = ORIENTED_EDGE ( 'NONE', *, *, #192, .T. ) ;
#312 =( NAMED_UNIT ( * ) PLANE_ANGLE_UNIT ( ) SI_UNIT ( $, .RADIAN. ) );
#313 = EDGE_LOOP ( 'NONE', ( #139, #372 ) ) ;
#314 = SURFACE_SIDE_STYLE ('',( #36 ) ) ;
#315 = ORIENTED_EDGE ( 'NONE', *, *, #53, .T. ) ;
#316 =( CONVERSION_BASED_UNIT ( 'INCH', #92 ) LENGTH_UNIT ( ) NAMED_UNIT ( #171 ) );
#317 = DIMENSIONAL_EXPONENTS ( 1.000000000000000000, 0.000000000000000000, 0.000000000000000000, 0.000000000000000000, 0.000000000000000000, 0.000000000000000000, 0.000000000000000000 ) ;
#318 = FILL_AREA_STYLE_COLOUR ( '', #55 ) ;
#319 = DIMENSIONAL_EXPONENTS ( 1.000000000000000000, 0.000000000000000000, 0.000000000000000000, 0.000000000000000000, 0.000000000000000000, 0.000000000000000000, 0.000000000000000000 ) ;
#320 = CARTESIAN_POINT ( 'NONE',  ( 0.1562499999999998612, 3.000000000000000444, 0.000000000000000000 ) ) ;
#321 = PRESENTATION_LAYER_ASSIGNMENT (  '', '', ( #83 ) ) ;
#322 = COLOUR_RGB ( '',0.7921568627450980005, 0.8196078431372548767, 0.9333333333333333481 ) ;
#323 =( LENGTH_UNIT ( ) NAMED_UNIT ( * ) SI_UNIT ( $, .METRE. ) );
#324 =( CONVERSION_BASED_UNIT ( 'INCH', #239 ) LENGTH_UNIT ( ) NAMED_UNIT ( #319 ) );
#325 = DIRECTION ( 'NONE',  ( -1.000000000000000000, 0.000000000000000000, 0.000000000000000000 ) ) ;
#326 = FACE_OUTER_BOUND ( 'NONE', #302, .T. ) ;
#327 = CARTESIAN_POINT ( 'NONE',  ( 0.000000000000000000, 0.1562500000000000278, 0.000000000000000000 ) ) ;
#328 = MANIFOLD_SOLID_BREP ( 'Revolve - Tool Body (Straight Shanked)', #266 ) ;
#329 = CYLINDRICAL_SURFACE ( 'NONE', #342, 0.1562499999999996392 ) ;
#330 = EDGE_CURVE ( 'NONE', #241, #202, #340, .T. ) ;
#331 = LENGTH_MEASURE_WITH_UNIT ( LENGTH_MEASURE( 0.02539999999999999897 ), #214 );
#332 = AXIS2_PLACEMENT_3D ( 'NONE', #43, #158, #103 ) ;
#333 = DIRECTION ( 'NONE',  ( -0.000000000000000000, -1.000000000000000000, -0.000000000000000000 ) ) ;
#334 = PRODUCT ( '86081', '86081', '', ( #247 ) ) ;
#335 = FILL_AREA_STYLE ('',( #368 ) ) ;
#336 = CIRCLE ( 'NONE', #272, 0.1562499999999995282 ) ;
#337 = UNCERTAINTY_MEASURE_WITH_UNIT (LENGTH_MEASURE( 1.000000000000000082E-05 ), #155, 'distance_accuracy_value', 'NONE');
#338 = AXIS2_PLACEMENT_3D ( 'NONE', #19, #215, #197 ) ;
#339 = ORIENTED_EDGE ( 'NONE', *, *, #285, .F. ) ;
#340 = LINE ( 'NONE', #245, #21 ) ;
#341 = PRODUCT_DEFINITION ( 'UNKNOWN', '', #213, #189 ) ;
#342 = AXIS2_PLACEMENT_3D ( 'NONE', #156, #299, #300 ) ;
#343 = AXIS2_PLACEMENT_3D ( 'NONE', #327, #271, #73 ) ;
#344 = CARTESIAN_POINT ( 'NONE',  ( 0.000000000000000000, 1.250000000000000000, 0.000000000000000000 ) ) ;
#345 = DIRECTION ( 'NONE',  ( -1.238084311840241070E-16, 1.000000000000000000, -0.000000000000000000 ) ) ;
#346 = LENGTH_MEASURE_WITH_UNIT ( LENGTH_MEASURE( 0.02539999999999999897 ), #222 );
#347 = EDGE_CURVE ( 'NONE', #350, #258, #121, .T. ) ;
#348 = VERTEX_POINT ( 'NONE', #367 ) ;
#349 = MECHANICAL_DESIGN_GEOMETRIC_PRESENTATION_REPRESENTATION (  '', ( #366 ), #177 ) ;
#350 = VERTEX_POINT ( 'NONE', #26 ) ;
#351 = DIMENSIONAL_EXPONENTS ( 1.000000000000000000, 0.000000000000000000, 0.000000000000000000, 0.000000000000000000, 0.000000000000000000, 0.000000000000000000, 0.000000000000000000 ) ;
#352 = FACE_OUTER_BOUND ( 'NONE', #166, .T. ) ;
#353 = FILL_AREA_STYLE ('',( #318 ) ) ;
#354 = CIRCLE ( 'NONE', #33, 0.1562500000000000000 ) ;
#355 = CYLINDRICAL_SURFACE ( 'NONE', #107, 0.1562499999999999445 ) ;
#356 = DIRECTION ( 'NONE',  ( -1.238084311840241070E-16, 1.000000000000000000, -0.000000000000000000 ) ) ;
#357 = DIRECTION ( 'NONE',  ( 0.000000000000000000, 0.000000000000000000, -1.000000000000000000 ) ) ;
#358 = CARTESIAN_POINT ( 'NONE',  ( 1.224646799147352714E-16, 3.000000000000000444, 0.000000000000000000 ) ) ;
#359 = DIRECTION ( 'NONE',  ( 0.000000000000000000, 1.000000000000000000, 0.000000000000000000 ) ) ;
#360 = MECHANICAL_DESIGN_GEOMETRIC_PRESENTATION_REPRESENTATION (  '', ( #83 ), #152 ) ;
#361 = COLOUR_RGB ( '',1.000000000000000000, 0.000000000000000000, 0.000000000000000000 ) ;
#362 = APPLICATION_PROTOCOL_DEFINITION ( 'draft international standard', 'automotive_design', 1998, #93 ) ;
#363 = UNCERTAINTY_MEASURE_WITH_UNIT (LENGTH_MEASURE( 1.000000000000000082E-05 ), #161, 'distance_accuracy_value', 'NONE');
#364 = ORIENTED_EDGE ( 'NONE', *, *, #216, .F. ) ;
#365 = AXIS2_PLACEMENT_3D ( 'NONE', #344, #359, #183 ) ;
#366 = STYLED_ITEM ( 'NONE', ( #25 ), #328 ) ;
#367 = CARTESIAN_POINT ( 'NONE',  ( 0.1562500000000000000, 0.1562500000000000278, 0.000000000000000000 ) ) ;
#368 = FILL_AREA_STYLE_COLOUR ( '', #301 ) ;
#369 = ORIENTED_EDGE ( 'NONE', *, *, #53, .F. ) ;
#370 = AXIS2_PLACEMENT_3D ( 'NONE', #195, #67, #290 ) ;
#371 = PRODUCT_RELATED_PRODUCT_CATEGORY ( 'part', '', ( #334 ) ) ;
#372 = ORIENTED_EDGE ( 'NONE', *, *, #273, .F. ) ;
#373 = DIRECTION ( 'NONE',  ( 0.000000000000000000, 0.000000000000000000, 1.000000000000000000 ) ) ;
ENDSEC;
END-ISO-10303-21;
