ISO-10303-21;
HEADER;
FILE_DESCRIPTION (( 'STEP AP214' ),
    '1' );
FILE_NAME ('06498.STEP',
    '2023-07-05T16:03:51',
    ( '' ),
    ( '' ),
    'SwSTEP 2.0',
    'SolidWorks 2023',
    '' );
FILE_SCHEMA (( 'AUTOMOTIVE_DESIGN' ));
ENDSEC;

DATA;
#1 = PLANE ( 'NONE',  #201 ) ;
#2 = FILL_AREA_STYLE ('',( #192 ) ) ;
#3 = AXIS2_PLACEMENT_3D ( 'NONE', #161, #28, #129 ) ;
#4 = DIRECTION ( 'NONE',  ( -1.000000000000000000, 0.000000000000000000, 0.000000000000000000 ) ) ;
#5 = FACE_OUTER_BOUND ( 'NONE', #138, .T. ) ;
#6 = DIRECTION ( 'NONE',  ( 0.000000000000000000, 0.000000000000000000, -1.000000000000000000 ) ) ;
#7 = PRESENTATION_LAYER_ASSIGNMENT (  '', '', ( #134 ) ) ;
#8 = DIRECTION ( 'NONE',  ( -1.219197302182064860E-16, 1.000000000000000000, -0.000000000000000000 ) ) ;
#9 = CARTESIAN_POINT ( 'NONE',  ( 0.000000000000000000, 39.37007874015748143, 0.000000000000000000 ) ) ;
#10 = ADVANCED_FACE ( 'NONE', ( #221 ), #231, .T. ) ;
#11 = LENGTH_MEASURE_WITH_UNIT ( LENGTH_MEASURE( 0.02539999999999999897 ), #259 );
#12 = AXIS2_PLACEMENT_3D ( 'NONE', #84, #254, #176 ) ;
#13 =( CONVERSION_BASED_UNIT ( 'INCH', #236 ) LENGTH_UNIT ( ) NAMED_UNIT ( #29 ) );
#14 = ORIENTED_EDGE ( 'NONE', *, *, #77, .T. ) ;
#15 = ORIENTED_EDGE ( 'NONE', *, *, #55, .T. ) ;
#16 = LENGTH_MEASURE_WITH_UNIT ( LENGTH_MEASURE( 0.02539999999999999897 ), #153 );
#17 = EDGE_LOOP ( 'NONE', ( #116, #164 ) ) ;
#18 = DIMENSIONAL_EXPONENTS ( 1.000000000000000000, 0.000000000000000000, 0.000000000000000000, 0.000000000000000000, 0.000000000000000000, 0.000000000000000000, 0.000000000000000000 ) ;
#19 =( GEOMETRIC_REPRESENTATION_CONTEXT ( 3 ) GLOBAL_UNCERTAINTY_ASSIGNED_CONTEXT ( ( #174 ) ) GLOBAL_UNIT_ASSIGNED_CONTEXT ( ( #13, #179, #182 ) ) REPRESENTATION_CONTEXT ( 'NONE', 'WORKASPACE' ) );
#20 = DIRECTION ( 'NONE',  ( 1.219197302182064860E-16, -1.000000000000000000, 0.000000000000000000 ) ) ;
#21 = CARTESIAN_POINT ( 'NONE',  ( -6.123233995736766036E-17, 2.500000000000000000, 0.000000000000000000 ) ) ;
#22 = SURFACE_STYLE_USAGE ( .BOTH. , #85 ) ;
#23 = FACE_OUTER_BOUND ( 'NONE', #35, .T. ) ;
#24 = LENGTH_MEASURE_WITH_UNIT ( LENGTH_MEASURE( 0.02539999999999999897 ), #193 );
#25 = LINE ( 'NONE', #62, #186 ) ;
#26 = CYLINDRICAL_SURFACE ( 'NONE', #213, 0.1249999999999999167 ) ;
#27 = CARTESIAN_POINT ( 'NONE',  ( 0.000000000000000000, 0.07216878364870282780, 0.000000000000000000 ) ) ;
#28 = DIRECTION ( 'NONE',  ( 0.000000000000000000, 1.000000000000000000, 0.000000000000000000 ) ) ;
#29 = DIMENSIONAL_EXPONENTS ( 1.000000000000000000, 0.000000000000000000, 0.000000000000000000, 0.000000000000000000, 0.000000000000000000, 0.000000000000000000, 0.000000000000000000 ) ;
#30 = DIRECTION ( 'NONE',  ( 0.000000000000000000, 0.000000000000000000, 1.000000000000000000 ) ) ;
#31 = MECHANICAL_DESIGN_GEOMETRIC_PRESENTATION_REPRESENTATION (  '', ( #133 ), #124 ) ;
#32 = FILL_AREA_STYLE ('',( #132 ) ) ;
#33 = COLOUR_RGB ( '',1.000000000000000000, 0.000000000000000000, 0.000000000000000000 ) ;
#34 = VERTEX_POINT ( 'NONE', #233 ) ;
#35 = EDGE_LOOP ( 'NONE', ( #245, #94, #92, #72 ) ) ;
#36 =( GEOMETRIC_REPRESENTATION_CONTEXT ( 3 ) GLOBAL_UNCERTAINTY_ASSIGNED_CONTEXT ( ( #168 ) ) GLOBAL_UNIT_ASSIGNED_CONTEXT ( ( #188, #122, #191 ) ) REPRESENTATION_CONTEXT ( 'NONE', 'WORKASPACE' ) );
#37 = VERTEX_POINT ( 'NONE', #145 ) ;
#38 = MECHANICAL_DESIGN_GEOMETRIC_PRESENTATION_REPRESENTATION (  '', ( #240 ), #155 ) ;
#39 = LINE ( 'NONE', #104, #113 ) ;
#40 = SURFACE_STYLE_FILL_AREA ( #66 ) ;
#41 =( CONVERSION_BASED_UNIT ( 'INCH', #24 ) LENGTH_UNIT ( ) NAMED_UNIT ( #190 ) );
#42 = FILL_AREA_STYLE_COLOUR ( '', #57 ) ;
#43 = PRODUCT_DEFINITION ( 'UNKNOWN', '', #78, #46 ) ;
#44 = CARTESIAN_POINT ( 'NONE',  ( 0.1250000000000000000, 2.500000000000000000, 0.000000000000000000 ) ) ;
#45 = CIRCLE ( 'NONE', #130, 0.1250000000000000555 ) ;
#46 = PRODUCT_DEFINITION_CONTEXT ( 'detailed design', #156, 'design' ) ;
#47 = FACE_OUTER_BOUND ( 'NONE', #17, .T. ) ;
#48 = FILL_AREA_STYLE ('',( #109 ) ) ;
#49 = ADVANCED_FACE ( 'NONE', ( #23 ), #102, .T. ) ;
#50 = CARTESIAN_POINT ( 'NONE',  ( -6.123233995736766036E-17, 2.500000000000000000, 0.000000000000000000 ) ) ;
#51 = CARTESIAN_POINT ( 'NONE',  ( 0.000000000000000000, 0.000000000000000000, 0.000000000000000000 ) ) ;
#52 = SHAPE_DEFINITION_REPRESENTATION ( #120, #166 ) ;
#53 = ADVANCED_FACE ( 'NONE', ( #126 ), #147, .F. ) ;
#54 = MECHANICAL_DESIGN_GEOMETRIC_PRESENTATION_REPRESENTATION (  '', ( #101 ), #253 ) ;
#55 = EDGE_CURVE ( 'NONE', #206, #142, #25, .T. ) ;
#56 = ORIENTED_EDGE ( 'NONE', *, *, #86, .T. ) ;
#57 = COLOUR_RGB ( '',1.000000000000000000, 0.000000000000000000, 0.000000000000000000 ) ;
#58 =( NAMED_UNIT ( * ) SI_UNIT ( $, .STERADIAN. ) SOLID_ANGLE_UNIT ( ) );
#59 = ORIENTED_EDGE ( 'NONE', *, *, #55, .F. ) ;
#60 = EDGE_LOOP ( 'NONE', ( #90, #15, #56 ) ) ;
#61 = DIMENSIONAL_EXPONENTS ( 1.000000000000000000, 0.000000000000000000, 0.000000000000000000, 0.000000000000000000, 0.000000000000000000, 0.000000000000000000, 0.000000000000000000 ) ;
#62 = CARTESIAN_POINT ( 'NONE',  ( 0.000000000000000000, 0.000000000000000000, 0.000000000000000000 ) ) ;
#63 = CLOSED_SHELL ( 'NONE', ( #219, #93, #49, #53 ) ) ;
#64 = CARTESIAN_POINT ( 'NONE',  ( -0.1250000000000001388, 2.500000000000000000, 0.000000000000000000 ) ) ;
#65 = SURFACE_STYLE_FILL_AREA ( #2 ) ;
#66 = FILL_AREA_STYLE ('',( #42 ) ) ;
#67 = AXIS2_PLACEMENT_3D ( 'NONE', #21, #210, #81 ) ;
#68 = VECTOR ( 'NONE', #107, 39.37007874015748143 ) ;
#69 = DIRECTION ( 'NONE',  ( -1.219197302182064860E-16, 1.000000000000000000, -0.000000000000000000 ) ) ;
#70 =( LENGTH_UNIT ( ) NAMED_UNIT ( * ) SI_UNIT ( $, .METRE. ) );
#71 = SURFACE_SIDE_STYLE ('',( #65 ) ) ;
#72 = ORIENTED_EDGE ( 'NONE', *, *, #256, .F. ) ;
#73 = ORIENTED_EDGE ( 'NONE', *, *, #86, .F. ) ;
#74 = PRESENTATION_LAYER_ASSIGNMENT (  '', '', ( #203 ) ) ;
#75 = EDGE_LOOP ( 'NONE', ( #220, #115 ) ) ;
#76 =( NAMED_UNIT ( * ) SI_UNIT ( $, .STERADIAN. ) SOLID_ANGLE_UNIT ( ) );
#77 = EDGE_CURVE ( 'NONE', #34, #263, #39, .T. ) ;
#78 = PRODUCT_DEFINITION_FORMATION_WITH_SPECIFIED_SOURCE ( 'ANY', '', #195, .NOT_KNOWN. ) ;
#79 =( LENGTH_UNIT ( ) NAMED_UNIT ( * ) SI_UNIT ( $, .METRE. ) );
#80 = UNCERTAINTY_MEASURE_WITH_UNIT (LENGTH_MEASURE( 1.000000000000000082E-05 ), #41, 'distance_accuracy_value', 'NONE');
#81 = DIRECTION ( 'NONE',  ( -1.000000000000000000, 0.000000000000000000, 0.000000000000000000 ) ) ;
#82 = FACE_OUTER_BOUND ( 'NONE', #223, .T. ) ;
#83 = DIRECTION ( 'NONE',  ( -1.219197302182064860E-16, 1.000000000000000000, -0.000000000000000000 ) ) ;
#84 = CARTESIAN_POINT ( 'NONE',  ( 2.347681869555226296E-16, 0.07216878364870271678, 0.000000000000000000 ) ) ;
#85 = SURFACE_SIDE_STYLE ('',( #217 ) ) ;
#86 = EDGE_CURVE ( 'NONE', #142, #37, #257, .T. ) ;
#87 = PRESENTATION_STYLE_ASSIGNMENT (( #89 ) ) ;
#88 = PRODUCT_CONTEXT ( 'NONE', #98, 'mechanical' ) ;
#89 = SURFACE_STYLE_USAGE ( .BOTH. , #205 ) ;
#90 = ORIENTED_EDGE ( 'NONE', *, *, #194, .F. ) ;
#91 = AXIS2_PLACEMENT_3D ( 'NONE', #128, #216, #108 ) ;
#92 = ORIENTED_EDGE ( 'NONE', *, *, #118, .T. ) ;
#93 = ADVANCED_FACE ( 'NONE', ( #47 ), #1, .F. ) ;
#94 = ORIENTED_EDGE ( 'NONE', *, *, #131, .T. ) ;
#95 = COLOUR_RGB ( '',0.7921568627450980005, 0.8196078431372548767, 0.9333333333333333481 ) ;
#96 = LENGTH_MEASURE_WITH_UNIT ( LENGTH_MEASURE( 0.02539999999999999897 ), #119 );
#97 = LINE ( 'NONE', #99, #68 ) ;
#98 = APPLICATION_CONTEXT ( 'automotive_design' ) ;
#99 = CARTESIAN_POINT ( 'NONE',  ( -0.1249999999999999861, 2.500000000000000000, 0.000000000000000000 ) ) ;
#100 =( NAMED_UNIT ( * ) SI_UNIT ( $, .STERADIAN. ) SOLID_ANGLE_UNIT ( ) );
#101 = STYLED_ITEM ( 'NONE', ( #111 ), #175 ) ;
#102 = CYLINDRICAL_SURFACE ( 'NONE', #67, 0.1249999999999999167 ) ;
#103 = CARTESIAN_POINT ( 'NONE',  ( 0.000000000000000000, 0.000000000000000000, 0.000000000000000000 ) ) ;
#104 = CARTESIAN_POINT ( 'NONE',  ( 0.1249999999999998473, 2.500000000000000000, 1.530808498934190276E-17 ) ) ;
#105 = CARTESIAN_POINT ( 'NONE',  ( -6.123233995736766036E-17, 2.500000000000000000, 0.000000000000000000 ) ) ;
#106 = LINE ( 'NONE', #198, #117 ) ;
#107 = DIRECTION ( 'NONE',  ( -1.219197302182064860E-16, 1.000000000000000000, -0.000000000000000000 ) ) ;
#108 = DIRECTION ( 'NONE',  ( 0.000000000000000000, 0.000000000000000000, -1.000000000000000000 ) ) ;
#109 = FILL_AREA_STYLE_COLOUR ( '', #209 ) ;
#110 = SURFACE_STYLE_FILL_AREA ( #32 ) ;
#111 = PRESENTATION_STYLE_ASSIGNMENT (( #135 ) ) ;
#112 = CONICAL_SURFACE ( 'NONE', #3, 68.19097667594041923, 1.047197551196600074 ) ;
#113 = VECTOR ( 'NONE', #69, 39.37007874015748143 ) ;
#114 =( CONVERSION_BASED_UNIT ( 'INCH', #11 ) LENGTH_UNIT ( ) NAMED_UNIT ( #248 ) );
#115 = ORIENTED_EDGE ( 'NONE', *, *, #256, .T. ) ;
#116 = ORIENTED_EDGE ( 'NONE', *, *, #241, .F. ) ;
#117 = VECTOR ( 'NONE', #170, 39.37007874015748854 ) ;
#118 = EDGE_CURVE ( 'NONE', #242, #162, #97, .T. ) ;
#119 =( LENGTH_UNIT ( ) NAMED_UNIT ( * ) SI_UNIT ( $, .METRE. ) );
#120 = PRODUCT_DEFINITION_SHAPE ( 'NONE', 'NONE',  #43 ) ;
#121 = DIRECTION ( 'NONE',  ( 0.000000000000000000, -0.000000000000000000, 1.000000000000000000 ) ) ;
#122 =( NAMED_UNIT ( * ) PLANE_ANGLE_UNIT ( ) SI_UNIT ( $, .RADIAN. ) );
#123 = UNCERTAINTY_MEASURE_WITH_UNIT (LENGTH_MEASURE( 1.000000000000000082E-05 ), #211, 'distance_accuracy_value', 'NONE');
#124 =( GEOMETRIC_REPRESENTATION_CONTEXT ( 3 ) GLOBAL_UNCERTAINTY_ASSIGNED_CONTEXT ( ( #123 ) ) GLOBAL_UNIT_ASSIGNED_CONTEXT ( ( #211, #228, #76 ) ) REPRESENTATION_CONTEXT ( 'NONE', 'WORKASPACE' ) );
#125 = CIRCLE ( 'NONE', #91, 0.1249999999999999861 ) ;
#126 = FACE_OUTER_BOUND ( 'NONE', #75, .T. ) ;
#127 = DIRECTION ( 'NONE',  ( -1.219197302182064860E-16, 1.000000000000000000, 0.000000000000000000 ) ) ;
#128 = CARTESIAN_POINT ( 'NONE',  ( 0.000000000000000000, 0.07216878364870282780, 0.000000000000000000 ) ) ;
#129 = DIRECTION ( 'NONE',  ( 0.000000000000000000, 0.000000000000000000, 1.000000000000000000 ) ) ;
#130 = AXIS2_PLACEMENT_3D ( 'NONE', #50, #151, #204 ) ;
#131 = EDGE_CURVE ( 'NONE', #34, #242, #235, .T. ) ;
#132 = FILL_AREA_STYLE_COLOUR ( '', #218 ) ;
#133 = STYLED_ITEM ( 'NONE', ( #171 ), #10 ) ;
#134 = STYLED_ITEM ( 'NONE', ( #187 ), #183 ) ;
#135 = SURFACE_STYLE_USAGE ( .BOTH. , #71 ) ;
#136 = ORIENTED_EDGE ( 'NONE', *, *, #118, .F. ) ;
#137 = APPLICATION_PROTOCOL_DEFINITION ( 'draft international standard', 'automotive_design', 1998, #156 ) ;
#138 = EDGE_LOOP ( 'NONE', ( #59, #184, #158 ) ) ;
#139 = ORIENTED_EDGE ( 'NONE', *, *, #227, .F. ) ;
#140 = CIRCLE ( 'NONE', #178, 0.1250000000000000555 ) ;
#141 =( NAMED_UNIT ( * ) PLANE_ANGLE_UNIT ( ) SI_UNIT ( $, .RADIAN. ) );
#142 = VERTEX_POINT ( 'NONE', #247 ) ;
#143 = DIRECTION ( 'NONE',  ( 1.060575238724908024E-16, 0.4999999999999979461, -0.8660254037844397068 ) ) ;
#144 = FILL_AREA_STYLE_COLOUR ( '', #33 ) ;
#145 = CARTESIAN_POINT ( 'NONE',  ( 0.000000000000000000, 0.07216878364870282780, 0.1250000000000000000 ) ) ;
#146 = UNCERTAINTY_MEASURE_WITH_UNIT (LENGTH_MEASURE( 1.000000000000000082E-05 ), #208, 'distance_accuracy_value', 'NONE');
#147 = PLANE ( 'NONE',  #148 ) ;
#148 = AXIS2_PLACEMENT_3D ( 'NONE', #44, #20, #214 ) ;
#149 = DIRECTION ( 'NONE',  ( 0.000000000000000000, 1.000000000000000000, 0.000000000000000000 ) ) ;
#150 = UNCERTAINTY_MEASURE_WITH_UNIT (LENGTH_MEASURE( 1.000000000000000082E-05 ), #114, 'distance_accuracy_value', 'NONE');
#151 = DIRECTION ( 'NONE',  ( -1.219197302182064860E-16, 1.000000000000000000, -0.000000000000000000 ) ) ;
#152 = APPLICATION_PROTOCOL_DEFINITION ( 'draft international standard', 'automotive_design', 1998, #98 ) ;
#153 =( LENGTH_UNIT ( ) NAMED_UNIT ( * ) SI_UNIT ( $, .METRE. ) );
#154 = DIRECTION ( 'NONE',  ( 1.000000000000000000, 0.000000000000000000, 0.000000000000000000 ) ) ;
#155 =( GEOMETRIC_REPRESENTATION_CONTEXT ( 3 ) GLOBAL_UNCERTAINTY_ASSIGNED_CONTEXT ( ( #80 ) ) GLOBAL_UNIT_ASSIGNED_CONTEXT ( ( #41, #230, #100 ) ) REPRESENTATION_CONTEXT ( 'NONE', 'WORKASPACE' ) );
#156 = APPLICATION_CONTEXT ( 'automotive_design' ) ;
#157 = PRODUCT_RELATED_PRODUCT_CATEGORY ( 'part', '', ( #195 ) ) ;
#158 = ORIENTED_EDGE ( 'NONE', *, *, #227, .T. ) ;
#159 = CLOSED_SHELL ( 'NONE', ( #183, #10, #202 ) ) ;
#160 = MECHANICAL_DESIGN_GEOMETRIC_PRESENTATION_REPRESENTATION (  '', ( #134 ), #36 ) ;
#161 = CARTESIAN_POINT ( 'NONE',  ( 0.000000000000000000, 39.37007874015748143, 0.000000000000000000 ) ) ;
#162 = VERTEX_POINT ( 'NONE', #64 ) ;
#163 = FACE_OUTER_BOUND ( 'NONE', #60, .T. ) ;
#164 = ORIENTED_EDGE ( 'NONE', *, *, #131, .F. ) ;
#165 = CARTESIAN_POINT ( 'NONE',  ( 0.000000000000000000, 0.07216878364870282780, 0.000000000000000000 ) ) ;
#166 = ADVANCED_BREP_SHAPE_REPRESENTATION ( '06498', ( #175, #261, #207 ), #167 ) ;
#167 =( GEOMETRIC_REPRESENTATION_CONTEXT ( 3 ) GLOBAL_UNCERTAINTY_ASSIGNED_CONTEXT ( ( #150 ) ) GLOBAL_UNIT_ASSIGNED_CONTEXT ( ( #114, #238, #234 ) ) REPRESENTATION_CONTEXT ( 'NONE', 'WORKASPACE' ) );
#168 = UNCERTAINTY_MEASURE_WITH_UNIT (LENGTH_MEASURE( 1.000000000000000082E-05 ), #188, 'distance_accuracy_value', 'NONE');
#169 = DIRECTION ( 'NONE',  ( -0.000000000000000000, -1.000000000000000000, -0.000000000000000000 ) ) ;
#170 = DIRECTION ( 'NONE',  ( 0.000000000000000000, 0.4999999999999979461, 0.8660254037844397068 ) ) ;
#171 = PRESENTATION_STYLE_ASSIGNMENT (( #196 ) ) ;
#172 = DIRECTION ( 'NONE',  ( -1.000000000000000000, 0.000000000000000000, 0.000000000000000000 ) ) ;
#173 = AXIS2_PLACEMENT_3D ( 'NONE', #27, #169, #6 ) ;
#174 = UNCERTAINTY_MEASURE_WITH_UNIT (LENGTH_MEASURE( 1.000000000000000082E-05 ), #13, 'distance_accuracy_value', 'NONE');
#175 = MANIFOLD_SOLID_BREP ( 'Revolve - Cutting Edge', #159 ) ;
#176 = DIRECTION ( 'NONE',  ( -1.000000000000000000, -1.365923996832134074E-16, 0.000000000000000000 ) ) ;
#177 = DIRECTION ( 'NONE',  ( 0.000000000000000000, 1.000000000000000000, 0.000000000000000000 ) ) ;
#178 = AXIS2_PLACEMENT_3D ( 'NONE', #250, #8, #4 ) ;
#179 =( NAMED_UNIT ( * ) PLANE_ANGLE_UNIT ( ) SI_UNIT ( $, .RADIAN. ) );
#180 = CARTESIAN_POINT ( 'NONE',  ( -0.1249999999999995420, 0.07216878364870270290, 0.000000000000000000 ) ) ;
#181 = PRESENTATION_LAYER_ASSIGNMENT (  '', '', ( #101 ) ) ;
#182 =( NAMED_UNIT ( * ) SI_UNIT ( $, .STERADIAN. ) SOLID_ANGLE_UNIT ( ) );
#183 = ADVANCED_FACE ( 'NONE', ( #163 ), #112, .T. ) ;
#184 = ORIENTED_EDGE ( 'NONE', *, *, #194, .T. ) ;
#185 = ORIENTED_EDGE ( 'NONE', *, *, #241, .T. ) ;
#186 = VECTOR ( 'NONE', #143, 39.37007874015748854 ) ;
#187 = PRESENTATION_STYLE_ASSIGNMENT (( #225 ) ) ;
#188 =( CONVERSION_BASED_UNIT ( 'INCH', #96 ) LENGTH_UNIT ( ) NAMED_UNIT ( #251 ) );
#189 = DIRECTION ( 'NONE',  ( -1.000000000000000000, -1.365923996832134074E-16, 0.000000000000000000 ) ) ;
#190 = DIMENSIONAL_EXPONENTS ( 1.000000000000000000, 0.000000000000000000, 0.000000000000000000, 0.000000000000000000, 0.000000000000000000, 0.000000000000000000, 0.000000000000000000 ) ;
#191 =( NAMED_UNIT ( * ) SI_UNIT ( $, .STERADIAN. ) SOLID_ANGLE_UNIT ( ) );
#192 = FILL_AREA_STYLE_COLOUR ( '', #95 ) ;
#193 =( LENGTH_UNIT ( ) NAMED_UNIT ( * ) SI_UNIT ( $, .METRE. ) );
#194 = EDGE_CURVE ( 'NONE', #206, #37, #106, .T. ) ;
#195 = PRODUCT ( '06498', '06498', '', ( #88 ) ) ;
#196 = SURFACE_STYLE_USAGE ( .BOTH. , #229 ) ;
#197 = DIRECTION ( 'NONE',  ( -1.219197302182064860E-16, 1.000000000000000000, -0.000000000000000000 ) ) ;
#198 = CARTESIAN_POINT ( 'NONE',  ( 0.000000000000000000, 0.000000000000000000, 0.000000000000000000 ) ) ;
#199 = CARTESIAN_POINT ( 'NONE',  ( 2.347681869555226296E-16, 0.07216878364870271678, 0.000000000000000000 ) ) ;
#200 = PRESENTATION_STYLE_ASSIGNMENT (( #22 ) ) ;
#201 = AXIS2_PLACEMENT_3D ( 'NONE', #249, #127, #215 ) ;
#202 = ADVANCED_FACE ( 'NONE', ( #5 ), #226, .T. ) ;
#203 = STYLED_ITEM ( 'NONE', ( #87 ), #261 ) ;
#204 = DIRECTION ( 'NONE',  ( -1.000000000000000000, 0.000000000000000000, 0.000000000000000000 ) ) ;
#205 = SURFACE_SIDE_STYLE ('',( #110 ) ) ;
#206 = VERTEX_POINT ( 'NONE', #103 ) ;
#207 = AXIS2_PLACEMENT_3D ( 'NONE', #51, #30, #154 ) ;
#208 =( CONVERSION_BASED_UNIT ( 'INCH', #16 ) LENGTH_UNIT ( ) NAMED_UNIT ( #61 ) );
#209 = COLOUR_RGB ( '',1.000000000000000000, 0.000000000000000000, 0.000000000000000000 ) ;
#210 = DIRECTION ( 'NONE',  ( -1.219197302182064860E-16, 1.000000000000000000, -0.000000000000000000 ) ) ;
#211 =( CONVERSION_BASED_UNIT ( 'INCH', #252 ) LENGTH_UNIT ( ) NAMED_UNIT ( #18 ) );
#212 = EDGE_CURVE ( 'NONE', #162, #263, #140, .T. ) ;
#213 = AXIS2_PLACEMENT_3D ( 'NONE', #105, #197, #172 ) ;
#214 = DIRECTION ( 'NONE',  ( 1.000000000000000000, 1.219197302182064860E-16, 0.000000000000000000 ) ) ;
#215 = DIRECTION ( 'NONE',  ( -1.000000000000000000, -1.219197302182064860E-16, 0.000000000000000000 ) ) ;
#216 = DIRECTION ( 'NONE',  ( -0.000000000000000000, -1.000000000000000000, -0.000000000000000000 ) ) ;
#217 = SURFACE_STYLE_FILL_AREA ( #48 ) ;
#218 = COLOUR_RGB ( '',0.7921568627450980005, 0.8196078431372548767, 0.9333333333333333481 ) ;
#219 = ADVANCED_FACE ( 'NONE', ( #82 ), #26, .T. ) ;
#220 = ORIENTED_EDGE ( 'NONE', *, *, #212, .T. ) ;
#221 = FACE_OUTER_BOUND ( 'NONE', #262, .T. ) ;
#222 = AXIS2_PLACEMENT_3D ( 'NONE', #9, #177, #255 ) ;
#223 = EDGE_LOOP ( 'NONE', ( #185, #14, #239, #136 ) ) ;
#224 = SURFACE_SIDE_STYLE ('',( #244 ) ) ;
#225 = SURFACE_STYLE_USAGE ( .BOTH. , #224 ) ;
#226 = CONICAL_SURFACE ( 'NONE', #222, 68.19097667594041923, 1.047197551196600074 ) ;
#227 = EDGE_CURVE ( 'NONE', #37, #142, #125, .T. ) ;
#228 =( NAMED_UNIT ( * ) PLANE_ANGLE_UNIT ( ) SI_UNIT ( $, .RADIAN. ) );
#229 = SURFACE_SIDE_STYLE ('',( #40 ) ) ;
#230 =( NAMED_UNIT ( * ) PLANE_ANGLE_UNIT ( ) SI_UNIT ( $, .RADIAN. ) );
#231 = PLANE ( 'NONE',  #264 ) ;
#232 = CIRCLE ( 'NONE', #12, 0.1249999999999997780 ) ;
#233 = CARTESIAN_POINT ( 'NONE',  ( 0.1250000000000000278, 0.07216878364870273066, 1.530808498934191201E-17 ) ) ;
#234 =( NAMED_UNIT ( * ) SI_UNIT ( $, .STERADIAN. ) SOLID_ANGLE_UNIT ( ) );
#235 = CIRCLE ( 'NONE', #237, 0.1249999999999997780 ) ;
#236 = LENGTH_MEASURE_WITH_UNIT ( LENGTH_MEASURE( 0.02539999999999999897 ), #70 );
#237 = AXIS2_PLACEMENT_3D ( 'NONE', #199, #83, #189 ) ;
#238 =( NAMED_UNIT ( * ) PLANE_ANGLE_UNIT ( ) SI_UNIT ( $, .RADIAN. ) );
#239 = ORIENTED_EDGE ( 'NONE', *, *, #212, .F. ) ;
#240 = STYLED_ITEM ( 'NONE', ( #200 ), #202 ) ;
#241 = EDGE_CURVE ( 'NONE', #242, #34, #232, .T. ) ;
#242 = VERTEX_POINT ( 'NONE', #180 ) ;
#243 = FILL_AREA_STYLE ('',( #144 ) ) ;
#244 = SURFACE_STYLE_FILL_AREA ( #243 ) ;
#245 = ORIENTED_EDGE ( 'NONE', *, *, #77, .F. ) ;
#246 = PRESENTATION_LAYER_ASSIGNMENT (  '', '', ( #133 ) ) ;
#247 = CARTESIAN_POINT ( 'NONE',  ( 1.530808498934191509E-17, 0.07216878364870282780, -0.1250000000000000000 ) ) ;
#248 = DIMENSIONAL_EXPONENTS ( 1.000000000000000000, 0.000000000000000000, 0.000000000000000000, 0.000000000000000000, 0.000000000000000000, 0.000000000000000000, 0.000000000000000000 ) ;
#249 = CARTESIAN_POINT ( 'NONE',  ( 2.347681869555226296E-16, 0.07216878364870282780, 0.000000000000000000 ) ) ;
#250 = CARTESIAN_POINT ( 'NONE',  ( -6.123233995736766036E-17, 2.500000000000000000, 0.000000000000000000 ) ) ;
#251 = DIMENSIONAL_EXPONENTS ( 1.000000000000000000, 0.000000000000000000, 0.000000000000000000, 0.000000000000000000, 0.000000000000000000, 0.000000000000000000, 0.000000000000000000 ) ;
#252 = LENGTH_MEASURE_WITH_UNIT ( LENGTH_MEASURE( 0.02539999999999999897 ), #79 );
#253 =( GEOMETRIC_REPRESENTATION_CONTEXT ( 3 ) GLOBAL_UNCERTAINTY_ASSIGNED_CONTEXT ( ( #146 ) ) GLOBAL_UNIT_ASSIGNED_CONTEXT ( ( #208, #141, #58 ) ) REPRESENTATION_CONTEXT ( 'NONE', 'WORKASPACE' ) );
#254 = DIRECTION ( 'NONE',  ( -1.219197302182064860E-16, 1.000000000000000000, -0.000000000000000000 ) ) ;
#255 = DIRECTION ( 'NONE',  ( 0.000000000000000000, 0.000000000000000000, 1.000000000000000000 ) ) ;
#256 = EDGE_CURVE ( 'NONE', #263, #162, #45, .T. ) ;
#257 = CIRCLE ( 'NONE', #173, 0.1249999999999999861 ) ;
#258 = CARTESIAN_POINT ( 'NONE',  ( 0.1249999999999999861, 2.500000000000000000, 1.530808498934191201E-17 ) ) ;
#259 =( LENGTH_UNIT ( ) NAMED_UNIT ( * ) SI_UNIT ( $, .METRE. ) );
#260 = PRESENTATION_LAYER_ASSIGNMENT (  '', '', ( #240 ) ) ;
#261 = MANIFOLD_SOLID_BREP ( 'Revolve - Tool Body (Pointed)', #63 ) ;
#262 = EDGE_LOOP ( 'NONE', ( #139, #73 ) ) ;
#263 = VERTEX_POINT ( 'NONE', #258 ) ;
#264 = AXIS2_PLACEMENT_3D ( 'NONE', #165, #149, #121 ) ;
#265 = MECHANICAL_DESIGN_GEOMETRIC_PRESENTATION_REPRESENTATION (  '', ( #203 ), #19 ) ;
ENDSEC;
END-ISO-10303-21;
