ISO-10303-21;
HEADER;
FILE_DESCRIPTION (( 'STEP AP214' ),
    '1' );
FILE_NAME ('Micro_RDB-10.STEP',
    '2021-08-31T16:59:19',
    ( '' ),
    ( '' ),
    'SwSTEP 2.0',
    'SolidWorks 2020',
    '' );
FILE_SCHEMA (( 'AUTOMOTIVE_DESIGN' ));
ENDSEC;

DATA;
#1 = AXIS2_PLACEMENT_3D ( 'NONE', #109, #84, #265 ) ;
#2 = EDGE_LOOP ( 'NONE', ( #46, #95, #145, #48 ) ) ;
#3 = ORIENTED_EDGE ( 'NONE', *, *, #28, .F. ) ;
#4 = CARTESIAN_POINT ( 'NONE',  ( 0.06250000000000000000, 7.654042494670956004E-18, 1.500000000000000222 ) ) ;
#5 = DIRECTION ( 'NONE',  ( 1.000000000000000000, 0.0000000000000000000, 0.0000000000000000000 ) ) ;
#6 =( GEOMETRIC_REPRESENTATION_CONTEXT ( 3 ) GLOBAL_UNCERTAINTY_ASSIGNED_CONTEXT ( ( #250 ) ) GLOBAL_UNIT_ASSIGNED_CONTEXT ( ( #45, #276, #191 ) ) REPRESENTATION_CONTEXT ( 'NONE', 'WORKASPACE' ) );
#7 = CYLINDRICAL_SURFACE ( 'NONE', #32, 0.06250000000000000000 ) ;
#8 = LINE ( 'NONE', #31, #158 ) ;
#9 = CARTESIAN_POINT ( 'NONE',  ( -0.06250000000000000000, 0.0000000000000000000, 1.500000000000000222 ) ) ;
#10 = SURFACE_STYLE_USAGE ( .BOTH. , #264 ) ;
#11 = DIRECTION ( 'NONE',  ( 1.224646799147353454E-16, 0.0000000000000000000, 1.000000000000000000 ) ) ;
#12 = EDGE_CURVE ( 'NONE', #142, #220, #8, .T. ) ;
#13 = CARTESIAN_POINT ( 'NONE',  ( 2.302335982397024786E-17, 0.0000000000000000000, 0.1880000000000000282 ) ) ;
#14 = AXIS2_PLACEMENT_3D ( 'NONE', #37, #245, #205 ) ;
#15 = EDGE_CURVE ( 'NONE', #295, #220, #100, .T. ) ;
#16 = APPLICATION_PROTOCOL_DEFINITION ( 'draft international standard', 'automotive_design', 1998, #183 ) ;
#17 = ORIENTED_EDGE ( 'NONE', *, *, #256, .T. ) ;
#18 = EDGE_CURVE ( 'NONE', #162, #199, #241, .T. ) ;
#19 = ORIENTED_EDGE ( 'NONE', *, *, #107, .F. ) ;
#20 = DIMENSIONAL_EXPONENTS ( 1.000000000000000000, 0.0000000000000000000, 0.0000000000000000000, 0.0000000000000000000, 0.0000000000000000000, 0.0000000000000000000, 0.0000000000000000000 ) ;
#21 =( LENGTH_UNIT ( ) NAMED_UNIT ( * ) SI_UNIT ( $, .METRE. ) );
#22 = EDGE_LOOP ( 'NONE', ( #208, #125 ) ) ;
#23 = VECTOR ( 'NONE', #70, 39.37007874015748143 ) ;
#24 = CARTESIAN_POINT ( 'NONE',  ( 4.682062571497488738E-34, 0.0000000000000000000, 3.823194226088143687E-18 ) ) ;
#25 = DIMENSIONAL_EXPONENTS ( 1.000000000000000000, 0.0000000000000000000, 0.0000000000000000000, 0.0000000000000000000, 0.0000000000000000000, 0.0000000000000000000, 0.0000000000000000000 ) ;
#26 = CONICAL_SURFACE ( 'NONE', #203, 0.03121874999999999303, 0.1745329251994338915 ) ;
#27 = CARTESIAN_POINT ( 'NONE',  ( 0.03121874999999999650, 3.823194226088142917E-18, -3.823194226088143687E-18 ) ) ;
#28 = EDGE_CURVE ( 'NONE', #251, #220, #200, .T. ) ;
#29 = EDGE_LOOP ( 'NONE', ( #66, #124, #217, #64 ) ) ;
#30 = AXIS2_PLACEMENT_3D ( 'NONE', #121, #54, #194 ) ;
#31 = CARTESIAN_POINT ( 'NONE',  ( 0.03121875000000001385, 0.0000000000000000000, 0.1880000000000000282 ) ) ;
#32 = AXIS2_PLACEMENT_3D ( 'NONE', #108, #195, #284 ) ;
#33 = CYLINDRICAL_SURFACE ( 'NONE', #244, 0.03121874999999999650 ) ;
#34 = DIRECTION ( 'NONE',  ( -1.224646799147353454E-16, -0.0000000000000000000, -1.000000000000000000 ) ) ;
#35 = DIRECTION ( 'NONE',  ( 0.0000000000000000000, 0.0000000000000000000, -1.000000000000000000 ) ) ;
#36 = DIRECTION ( 'NONE',  ( 1.000000000000000000, 0.0000000000000000000, 0.0000000000000000000 ) ) ;
#37 = CARTESIAN_POINT ( 'NONE',  ( 0.0000000000000000000, 0.0000000000000000000, 1.500000000000000222 ) ) ;
#38 = CARTESIAN_POINT ( 'NONE',  ( -0.03121874999999997222, 3.823194226088142147E-18, 0.1880000000000000282 ) ) ;
#39 = PRODUCT_RELATED_PRODUCT_CATEGORY ( 'part', '', ( #74 ) ) ;
#40 = SURFACE_STYLE_FILL_AREA ( #118 ) ;
#41 = AXIS2_PLACEMENT_3D ( 'NONE', #182, #135, #81 ) ;
#42 = PLANE ( 'NONE',  #210 ) ;
#43 = ORIENTED_EDGE ( 'NONE', *, *, #129, .T. ) ;
#44 = ORIENTED_EDGE ( 'NONE', *, *, #157, .F. ) ;
#45 =( CONVERSION_BASED_UNIT ( 'INCH', #248 ) LENGTH_UNIT ( ) NAMED_UNIT ( #25 ) );
#46 = ORIENTED_EDGE ( 'NONE', *, *, #296, .F. ) ;
#47 = MECHANICAL_DESIGN_GEOMETRIC_PRESENTATION_REPRESENTATION (  '', ( #90 ), #294 ) ;
#48 = ORIENTED_EDGE ( 'NONE', *, *, #18, .F. ) ;
#49 = CARTESIAN_POINT ( 'NONE',  ( 2.302335982397024786E-17, 0.0000000000000000000, 0.1880000000000000282 ) ) ;
#50 = AXIS2_PLACEMENT_3D ( 'NONE', #24, #75, #258 ) ;
#51 = PRODUCT_DEFINITION_FORMATION_WITH_SPECIFIED_SOURCE ( 'ANY', '', #74, .NOT_KNOWN. ) ;
#52 = FACE_OUTER_BOUND ( 'NONE', #299, .T. ) ;
#53 = DIRECTION ( 'NONE',  ( -1.224646799147353454E-16, -0.0000000000000000000, -1.000000000000000000 ) ) ;
#54 = DIRECTION ( 'NONE',  ( 0.0000000000000000000, 0.0000000000000000000, -1.000000000000000000 ) ) ;
#55 = CARTESIAN_POINT ( 'NONE',  ( 0.0000000000000000000, 0.0000000000000000000, 0.0000000000000000000 ) ) ;
#56 = DIRECTION ( 'NONE',  ( -1.000000000000000000, 0.0000000000000000000, 0.0000000000000000000 ) ) ;
#57 = FACE_OUTER_BOUND ( 'NONE', #2, .T. ) ;
#58 = CIRCLE ( 'NONE', #1, 0.03121874999999999650 ) ;
#59 = PRODUCT_DEFINITION ( 'UNKNOWN', '', #51, #71 ) ;
#60 = CARTESIAN_POINT ( 'NONE',  ( 2.302335982397024786E-17, 0.0000000000000000000, 0.1880000000000000282 ) ) ;
#61 = DIRECTION ( 'NONE',  ( 1.224646799147353454E-16, 0.0000000000000000000, 1.000000000000000000 ) ) ;
#62 = AXIS2_PLACEMENT_3D ( 'NONE', #243, #72, #173 ) ;
#63 = CARTESIAN_POINT ( 'NONE',  ( 0.06250000000000000000, 7.654042494670956004E-18, 1.485000000000000764 ) ) ;
#64 = ORIENTED_EDGE ( 'NONE', *, *, #256, .F. ) ;
#65 = AXIS2_PLACEMENT_3D ( 'NONE', #130, #34, #36 ) ;
#66 = ORIENTED_EDGE ( 'NONE', *, *, #15, .F. ) ;
#67 =( CONVERSION_BASED_UNIT ( 'INCH', #87 ) LENGTH_UNIT ( ) NAMED_UNIT ( #20 ) );
#68 = EDGE_CURVE ( 'NONE', #295, #199, #252, .T. ) ;
#69 = EDGE_LOOP ( 'NONE', ( #172, #169, #190, #19 ) ) ;
#70 = DIRECTION ( 'NONE',  ( -0.7071067811865456854, 0.0000000000000000000, -0.7071067811865493491 ) ) ;
#71 = PRODUCT_DEFINITION_CONTEXT ( 'detailed design', #201, 'design' ) ;
#72 = DIRECTION ( 'NONE',  ( -1.224646799147353454E-16, -0.0000000000000000000, -1.000000000000000000 ) ) ;
#73 = VECTOR ( 'NONE', #151, 39.37007874015748143 ) ;
#74 = PRODUCT ( 'Micro_RDB-10', 'Micro_RDB-10', '', ( #127 ) ) ;
#75 = DIRECTION ( 'NONE',  ( -1.224646799147353454E-16, -0.0000000000000000000, -1.000000000000000000 ) ) ;
#76 = VERTEX_POINT ( 'NONE', #240 ) ;
#77 = VERTEX_POINT ( 'NONE', #99 ) ;
#78 = CIRCLE ( 'NONE', #50, 0.03121874999999999650 ) ;
#79 = FILL_AREA_STYLE ('',( #285 ) ) ;
#80 = ADVANCED_FACE ( 'NONE', ( #283 ), #7, .T. ) ;
#81 = DIRECTION ( 'NONE',  ( 1.000000000000000000, 0.0000000000000000000, -0.0000000000000000000 ) ) ;
#82 = ADVANCED_FACE ( 'NONE', ( #259 ), #262, .T. ) ;
#83 = DIRECTION ( 'NONE',  ( -0.0000000000000000000, -0.0000000000000000000, -1.000000000000000000 ) ) ;
#84 = DIRECTION ( 'NONE',  ( -1.224646799147353454E-16, -0.0000000000000000000, -1.000000000000000000 ) ) ;
#85 = CONICAL_SURFACE ( 'NONE', #14, 0.04750000000000064587, 0.7853981633974457255 ) ;
#86 = DIRECTION ( 'NONE',  ( -1.000000000000000000, 0.0000000000000000000, 0.0000000000000000000 ) ) ;
#87 = LENGTH_MEASURE_WITH_UNIT ( LENGTH_MEASURE( 0.02539999999999999897 ), #187 );
#88 = PRESENTATION_STYLE_ASSIGNMENT (( #92 ) ) ;
#89 = ORIENTED_EDGE ( 'NONE', *, *, #15, .T. ) ;
#90 = STYLED_ITEM ( 'NONE', ( #88 ), #193 ) ;
#91 = ORIENTED_EDGE ( 'NONE', *, *, #211, .F. ) ;
#92 = SURFACE_STYLE_USAGE ( .BOTH. , #292 ) ;
#93 = EDGE_LOOP ( 'NONE', ( #218, #116, #261, #17 ) ) ;
#94 = CARTESIAN_POINT ( 'NONE',  ( -0.03121874999999999650, 0.0000000000000000000, 7.646388452176287375E-18 ) ) ;
#95 = ORIENTED_EDGE ( 'NONE', *, *, #146, .T. ) ;
#96 = CIRCLE ( 'NONE', #160, 0.04750000000000064587 ) ;
#97 = DIRECTION ( 'NONE',  ( 0.0000000000000000000, 0.0000000000000000000, 1.000000000000000000 ) ) ;
#98 = EDGE_CURVE ( 'NONE', #119, #280, #102, .T. ) ;
#99 = CARTESIAN_POINT ( 'NONE',  ( 0.03121874999999999650, 3.823194226088142917E-18, 0.0000000000000000000 ) ) ;
#100 = LINE ( 'NONE', #4, #184 ) ;
#101 = ADVANCED_FACE ( 'NONE', ( #52 ), #33, .T. ) ;
#102 = LINE ( 'NONE', #196, #73 ) ;
#103 = VECTOR ( 'NONE', #53, 39.37007874015748143 ) ;
#104 = AXIS2_PLACEMENT_3D ( 'NONE', #123, #97, #5 ) ;
#105 = APPLICATION_PROTOCOL_DEFINITION ( 'draft international standard', 'automotive_design', 1998, #201 ) ;
#106 = DIRECTION ( 'NONE',  ( -1.224646799147353454E-16, -0.0000000000000000000, -1.000000000000000000 ) ) ;
#107 = EDGE_CURVE ( 'NONE', #77, #280, #78, .T. ) ;
#108 = CARTESIAN_POINT ( 'NONE',  ( 0.0000000000000000000, 0.0000000000000000000, 1.500000000000000222 ) ) ;
#109 = CARTESIAN_POINT ( 'NONE',  ( 4.682062571497488738E-34, 0.0000000000000000000, 3.823194226088143687E-18 ) ) ;
#110 = CIRCLE ( 'NONE', #148, 0.04750000000000064587 ) ;
#111 = CARTESIAN_POINT ( 'NONE',  ( 0.0000000000000000000, 0.0000000000000000000, 1.500000000000000222 ) ) ;
#112 = PRESENTATION_STYLE_ASSIGNMENT (( #10 ) ) ;
#113 = CARTESIAN_POINT ( 'NONE',  ( -0.06249999999999995837, 0.0000000000000000000, 0.3654047844199155848 ) ) ;
#114 = FACE_OUTER_BOUND ( 'NONE', #164, .T. ) ;
#115 = EDGE_CURVE ( 'NONE', #142, #119, #286, .T. ) ;
#116 = ORIENTED_EDGE ( 'NONE', *, *, #115, .F. ) ;
#117 =( NAMED_UNIT ( * ) PLANE_ANGLE_UNIT ( ) SI_UNIT ( $, .RADIAN. ) );
#118 = FILL_AREA_STYLE ('',( #209 ) ) ;
#119 = VERTEX_POINT ( 'NONE', #147 ) ;
#120 = EDGE_LOOP ( 'NONE', ( #139, #297, #198, #188 ) ) ;
#121 = CARTESIAN_POINT ( 'NONE',  ( 0.0000000000000000000, 0.0000000000000000000, 1.485000000000000764 ) ) ;
#122 = CONICAL_SURFACE ( 'NONE', #239, 0.03121874999999999303, 0.1745329251994338915 ) ;
#123 = CARTESIAN_POINT ( 'NONE',  ( 0.0000000000000000000, 0.0000000000000000000, 0.0000000000000000000 ) ) ;
#124 = ORIENTED_EDGE ( 'NONE', *, *, #68, .T. ) ;
#125 = ORIENTED_EDGE ( 'NONE', *, *, #107, .T. ) ;
#126 = DIRECTION ( 'NONE',  ( -0.0000000000000000000, -0.0000000000000000000, -1.000000000000000000 ) ) ;
#127 = PRODUCT_CONTEXT ( 'NONE', #183, 'mechanical' ) ;
#128 = DIRECTION ( 'NONE',  ( 0.1736481776669313859, 0.0000000000000000000, 0.9848077530122077983 ) ) ;
#129 = EDGE_CURVE ( 'NONE', #142, #77, #260, .T. ) ;
#130 = CARTESIAN_POINT ( 'NONE',  ( 4.474917996329782695E-17, 0.0000000000000000000, 0.3654047844199155848 ) ) ;
#131 = ADVANCED_FACE ( 'NONE', ( #150 ), #85, .T. ) ;
#132 = CARTESIAN_POINT ( 'NONE',  ( 2.302335982397024786E-17, 0.0000000000000000000, 0.1880000000000000282 ) ) ;
#133 = CARTESIAN_POINT ( 'NONE',  ( 0.0000000000000000000, 0.0000000000000000000, 1.485000000000000764 ) ) ;
#134 = CARTESIAN_POINT ( 'NONE',  ( 0.03121875000000001385, 0.0000000000000000000, 0.1880000000000000282 ) ) ;
#135 = DIRECTION ( 'NONE',  ( 0.0000000000000000000, 0.0000000000000000000, 1.000000000000000000 ) ) ;
#136 = UNCERTAINTY_MEASURE_WITH_UNIT (LENGTH_MEASURE( 1.000000000000000082E-05 ), #67, 'distance_accuracy_value', 'NONE');
#137 = CIRCLE ( 'NONE', #206, 0.06250000000000000000 ) ;
#138 = DIRECTION ( 'NONE',  ( 1.000000000000000000, 0.0000000000000000000, -0.0000000000000000000 ) ) ;
#139 = ORIENTED_EDGE ( 'NONE', *, *, #214, .F. ) ;
#140 = FACE_OUTER_BOUND ( 'NONE', #120, .T. ) ;
#141 = LENGTH_MEASURE_WITH_UNIT ( LENGTH_MEASURE( 0.02539999999999999897 ), #21 );
#142 = VERTEX_POINT ( 'NONE', #134 ) ;
#143 = MECHANICAL_DESIGN_GEOMETRIC_PRESENTATION_REPRESENTATION (  '', ( #268 ), #6 ) ;
#144 = ORIENTED_EDGE ( 'NONE', *, *, #263, .T. ) ;
#145 = ORIENTED_EDGE ( 'NONE', *, *, #263, .F. ) ;
#146 = EDGE_CURVE ( 'NONE', #76, #295, #287, .T. ) ;
#147 = CARTESIAN_POINT ( 'NONE',  ( -0.03121874999999997222, 5.738618360379549846E-18, 0.1880000000000000282 ) ) ;
#148 = AXIS2_PLACEMENT_3D ( 'NONE', #298, #232, #237 ) ;
#149 = DIRECTION ( 'NONE',  ( -1.224646799147353454E-16, -0.0000000000000000000, -1.000000000000000000 ) ) ;
#150 = FACE_OUTER_BOUND ( 'NONE', #257, .T. ) ;
#151 = DIRECTION ( 'NONE',  ( -1.224646799147353454E-16, -0.0000000000000000000, -1.000000000000000000 ) ) ;
#152 = DIRECTION ( 'NONE',  ( -0.1736481776669311916, 2.126576849575783316E-17, 0.9848077530122080203 ) ) ;
#153 = DIRECTION ( 'NONE',  ( 0.0000000000000000000, 0.0000000000000000000, -1.000000000000000000 ) ) ;
#154 = DIRECTION ( 'NONE',  ( 1.000000000000000000, 0.0000000000000000000, 0.0000000000000000000 ) ) ;
#155 = COLOUR_RGB ( '',0.7921568627450980005, 0.8196078431372548767, 0.9333333333333333481 ) ;
#156 = PLANE ( 'NONE',  #41 ) ;
#157 = EDGE_CURVE ( 'NONE', #162, #76, #96, .T. ) ;
#158 = VECTOR ( 'NONE', #128, 39.37007874015748143 ) ;
#159 =( NAMED_UNIT ( * ) SI_UNIT ( $, .STERADIAN. ) SOLID_ANGLE_UNIT ( ) );
#160 = AXIS2_PLACEMENT_3D ( 'NONE', #111, #246, #227 ) ;
#161 = FACE_OUTER_BOUND ( 'NONE', #22, .T. ) ;
#162 = VERTEX_POINT ( 'NONE', #225 ) ;
#163 = DIRECTION ( 'NONE',  ( 1.000000000000000000, 0.0000000000000000000, 0.0000000000000000000 ) ) ;
#164 = EDGE_LOOP ( 'NONE', ( #236, #278 ) ) ;
#165 =( NAMED_UNIT ( * ) PLANE_ANGLE_UNIT ( ) SI_UNIT ( $, .RADIAN. ) );
#166 = ORIENTED_EDGE ( 'NONE', *, *, #146, .F. ) ;
#167 = ADVANCED_FACE ( 'NONE', ( #57 ), #255, .T. ) ;
#168 = CARTESIAN_POINT ( 'NONE',  ( 0.0000000000000000000, 0.0000000000000000000, 0.0000000000000000000 ) ) ;
#169 = ORIENTED_EDGE ( 'NONE', *, *, #115, .T. ) ;
#170 = AXIS2_PLACEMENT_3D ( 'NONE', #269, #83, #86 ) ;
#171 = DIRECTION ( 'NONE',  ( -1.000000000000000000, 0.0000000000000000000, 0.0000000000000000000 ) ) ;
#172 = ORIENTED_EDGE ( 'NONE', *, *, #129, .F. ) ;
#173 = DIRECTION ( 'NONE',  ( 1.000000000000000000, 0.0000000000000000000, 0.0000000000000000000 ) ) ;
#174 = CIRCLE ( 'NONE', #215, 0.03121874999999999303 ) ;
#175 = COLOUR_RGB ( '',0.7921568627450980005, 0.8196078431372548767, 0.9333333333333333481 ) ;
#176 = SURFACE_STYLE_FILL_AREA ( #79 ) ;
#177 = CYLINDRICAL_SURFACE ( 'NONE', #170, 0.06250000000000000000 ) ;
#178 = PRESENTATION_LAYER_ASSIGNMENT (  '', '', ( #90 ) ) ;
#179 = FACE_OUTER_BOUND ( 'NONE', #242, .T. ) ;
#180 = UNCERTAINTY_MEASURE_WITH_UNIT (LENGTH_MEASURE( 1.000000000000000082E-05 ), #254, 'distance_accuracy_value', 'NONE');
#181 = ADVANCED_FACE ( 'NONE', ( #114 ), #156, .T. ) ;
#182 = CARTESIAN_POINT ( 'NONE',  ( 0.0000000000000000000, 0.0000000000000000000, 1.500000000000000222 ) ) ;
#183 = APPLICATION_CONTEXT ( 'automotive_design' ) ;
#184 = VECTOR ( 'NONE', #126, 39.37007874015748143 ) ;
#185 = ORIENTED_EDGE ( 'NONE', *, *, #214, .T. ) ;
#186 = ADVANCED_FACE ( 'NONE', ( #228 ), #26, .T. ) ;
#187 =( LENGTH_UNIT ( ) NAMED_UNIT ( * ) SI_UNIT ( $, .METRE. ) );
#188 = ORIENTED_EDGE ( 'NONE', *, *, #12, .F. ) ;
#189 = DIRECTION ( 'NONE',  ( 0.0000000000000000000, 0.0000000000000000000, 1.000000000000000000 ) ) ;
#190 = ORIENTED_EDGE ( 'NONE', *, *, #98, .T. ) ;
#191 =( NAMED_UNIT ( * ) SI_UNIT ( $, .STERADIAN. ) SOLID_ANGLE_UNIT ( ) );
#192 = VECTOR ( 'NONE', #223, 39.37007874015748143 ) ;
#193 = ADVANCED_BREP_SHAPE_REPRESENTATION ( 'Micro_RDB-10', ( #266, #104 ), #281 ) ;
#194 = DIRECTION ( 'NONE',  ( 1.000000000000000000, 0.0000000000000000000, 0.0000000000000000000 ) ) ;
#195 = DIRECTION ( 'NONE',  ( -0.0000000000000000000, -0.0000000000000000000, -1.000000000000000000 ) ) ;
#196 = CARTESIAN_POINT ( 'NONE',  ( -0.03121874999999999650, 0.0000000000000000000, 3.823194226088143687E-18 ) ) ;
#197 = VECTOR ( 'NONE', #152, 39.37007874015747433 ) ;
#198 = ORIENTED_EDGE ( 'NONE', *, *, #28, .T. ) ;
#199 = VERTEX_POINT ( 'NONE', #207 ) ;
#200 = CIRCLE ( 'NONE', #62, 0.06250000000000000000 ) ;
#201 = APPLICATION_CONTEXT ( 'automotive_design' ) ;
#202 = DIRECTION ( 'NONE',  ( 1.000000000000000000, 0.0000000000000000000, 0.0000000000000000000 ) ) ;
#203 = AXIS2_PLACEMENT_3D ( 'NONE', #132, #11, #154 ) ;
#204 = CARTESIAN_POINT ( 'NONE',  ( 0.0000000000000000000, 0.0000000000000000000, 1.500000000000000222 ) ) ;
#205 = DIRECTION ( 'NONE',  ( -1.000000000000000000, 0.0000000000000000000, 0.0000000000000000000 ) ) ;
#206 = AXIS2_PLACEMENT_3D ( 'NONE', #133, #153, #202 ) ;
#207 = CARTESIAN_POINT ( 'NONE',  ( -0.06250000000000000000, 0.0000000000000000000, 1.485000000000000764 ) ) ;
#208 = ORIENTED_EDGE ( 'NONE', *, *, #253, .T. ) ;
#209 = FILL_AREA_STYLE_COLOUR ( '', #155 ) ;
#210 = AXIS2_PLACEMENT_3D ( 'NONE', #271, #189, #138 ) ;
#211 = EDGE_CURVE ( 'NONE', #199, #251, #288, .T. ) ;
#212 = ORIENTED_EDGE ( 'NONE', *, *, #253, .F. ) ;
#213 = DIMENSIONAL_EXPONENTS ( 1.000000000000000000, 0.0000000000000000000, 0.0000000000000000000, 0.0000000000000000000, 0.0000000000000000000, 0.0000000000000000000, 0.0000000000000000000 ) ;
#214 = EDGE_CURVE ( 'NONE', #119, #142, #174, .T. ) ;
#215 = AXIS2_PLACEMENT_3D ( 'NONE', #13, #291, #289 ) ;
#216 = CARTESIAN_POINT ( 'NONE',  ( -0.04750000000000064587, 0.0000000000000000000, 1.500000000000000222 ) ) ;
#217 = ORIENTED_EDGE ( 'NONE', *, *, #211, .T. ) ;
#218 = ORIENTED_EDGE ( 'NONE', *, *, #229, .F. ) ;
#219 = SHAPE_DEFINITION_REPRESENTATION ( #274, #193 ) ;
#220 = VERTEX_POINT ( 'NONE', #249 ) ;
#221 = DIRECTION ( 'NONE',  ( -1.000000000000000000, 0.0000000000000000000, 1.224646799147353454E-16 ) ) ;
#222 = ADVANCED_FACE ( 'NONE', ( #179 ), #177, .T. ) ;
#223 = DIRECTION ( 'NONE',  ( 0.7071067811865456854, 8.659560562354911904E-17, -0.7071067811865493491 ) ) ;
#224 = CLOSED_SHELL ( 'NONE', ( #101, #275, #167, #222, #80, #181, #131, #186, #82, #290 ) ) ;
#225 = CARTESIAN_POINT ( 'NONE',  ( -0.04750000000000064587, 0.0000000000000000000, 1.500000000000000222 ) ) ;
#226 = CIRCLE ( 'NONE', #65, 0.06250000000000000000 ) ;
#227 = DIRECTION ( 'NONE',  ( 1.000000000000000000, 0.0000000000000000000, 0.0000000000000000000 ) ) ;
#228 = FACE_OUTER_BOUND ( 'NONE', #93, .T. ) ;
#229 = EDGE_CURVE ( 'NONE', #119, #251, #270, .T. ) ;
#230 = CARTESIAN_POINT ( 'NONE',  ( 0.04750000000000064587, 5.817072295950006528E-18, 1.500000000000000222 ) ) ;
#231 = VECTOR ( 'NONE', #247, 39.37007874015748143 ) ;
#232 = DIRECTION ( 'NONE',  ( 0.0000000000000000000, 0.0000000000000000000, 1.000000000000000000 ) ) ;
#233 = ORIENTED_EDGE ( 'NONE', *, *, #18, .T. ) ;
#234 = ORIENTED_EDGE ( 'NONE', *, *, #98, .F. ) ;
#235 = PRESENTATION_LAYER_ASSIGNMENT (  '', '', ( #268 ) ) ;
#236 = ORIENTED_EDGE ( 'NONE', *, *, #157, .T. ) ;
#237 = DIRECTION ( 'NONE',  ( 1.000000000000000000, 0.0000000000000000000, 0.0000000000000000000 ) ) ;
#238 = ORIENTED_EDGE ( 'NONE', *, *, #68, .F. ) ;
#239 = AXIS2_PLACEMENT_3D ( 'NONE', #60, #61, #163 ) ;
#240 = CARTESIAN_POINT ( 'NONE',  ( 0.04750000000000064587, 6.735557395310482421E-18, 1.500000000000000222 ) ) ;
#241 = LINE ( 'NONE', #216, #23 ) ;
#242 = EDGE_LOOP ( 'NONE', ( #144, #89, #3, #91 ) ) ;
#243 = CARTESIAN_POINT ( 'NONE',  ( 4.474917996329782695E-17, 0.0000000000000000000, 0.3654047844199155848 ) ) ;
#244 = AXIS2_PLACEMENT_3D ( 'NONE', #55, #282, #221 ) ;
#245 = DIRECTION ( 'NONE',  ( 0.0000000000000000000, 0.0000000000000000000, -1.000000000000000000 ) ) ;
#246 = DIRECTION ( 'NONE',  ( 0.0000000000000000000, 0.0000000000000000000, 1.000000000000000000 ) ) ;
#247 = DIRECTION ( 'NONE',  ( -0.0000000000000000000, -0.0000000000000000000, -1.000000000000000000 ) ) ;
#248 = LENGTH_MEASURE_WITH_UNIT ( LENGTH_MEASURE( 0.02539999999999999897 ), #267 );
#249 = CARTESIAN_POINT ( 'NONE',  ( 0.06250000000000004163, 7.654042494670960626E-18, 0.3654047844199155848 ) ) ;
#250 = UNCERTAINTY_MEASURE_WITH_UNIT (LENGTH_MEASURE( 1.000000000000000082E-05 ), #45, 'distance_accuracy_value', 'NONE');
#251 = VERTEX_POINT ( 'NONE', #113 ) ;
#252 = CIRCLE ( 'NONE', #30, 0.06250000000000000000 ) ;
#253 = EDGE_CURVE ( 'NONE', #280, #77, #58, .T. ) ;
#254 =( CONVERSION_BASED_UNIT ( 'INCH', #141 ) LENGTH_UNIT ( ) NAMED_UNIT ( #213 ) );
#255 = CONICAL_SURFACE ( 'NONE', #293, 0.04750000000000064587, 0.7853981633974457255 ) ;
#256 = EDGE_CURVE ( 'NONE', #220, #251, #226, .T. ) ;
#257 = EDGE_LOOP ( 'NONE', ( #166, #44, #233, #238 ) ) ;
#258 = DIRECTION ( 'NONE',  ( -1.000000000000000000, 0.0000000000000000000, 1.224646799147353454E-16 ) ) ;
#259 = FACE_OUTER_BOUND ( 'NONE', #69, .T. ) ;
#260 = LINE ( 'NONE', #27, #103 ) ;
#261 = ORIENTED_EDGE ( 'NONE', *, *, #12, .T. ) ;
#262 = CYLINDRICAL_SURFACE ( 'NONE', #272, 0.03121874999999999650 ) ;
#263 = EDGE_CURVE ( 'NONE', #199, #295, #137, .T. ) ;
#264 = SURFACE_SIDE_STYLE ('',( #176 ) ) ;
#265 = DIRECTION ( 'NONE',  ( -1.000000000000000000, 0.0000000000000000000, 1.224646799147353454E-16 ) ) ;
#266 = MANIFOLD_SOLID_BREP ( 'Cut-Revolve1', #224 ) ;
#267 =( LENGTH_UNIT ( ) NAMED_UNIT ( * ) SI_UNIT ( $, .METRE. ) );
#268 = STYLED_ITEM ( 'NONE', ( #112 ), #266 ) ;
#269 = CARTESIAN_POINT ( 'NONE',  ( 0.0000000000000000000, 0.0000000000000000000, 1.500000000000000222 ) ) ;
#270 = LINE ( 'NONE', #38, #197 ) ;
#271 = CARTESIAN_POINT ( 'NONE',  ( 0.0000000000000000000, 0.0000000000000000000, 0.0000000000000000000 ) ) ;
#272 = AXIS2_PLACEMENT_3D ( 'NONE', #168, #106, #279 ) ;
#273 =( NAMED_UNIT ( * ) SI_UNIT ( $, .STERADIAN. ) SOLID_ANGLE_UNIT ( ) );
#274 = PRODUCT_DEFINITION_SHAPE ( 'NONE', 'NONE',  #59 ) ;
#275 = ADVANCED_FACE ( 'NONE', ( #140 ), #122, .T. ) ;
#276 =( NAMED_UNIT ( * ) PLANE_ANGLE_UNIT ( ) SI_UNIT ( $, .RADIAN. ) );
#277 = AXIS2_PLACEMENT_3D ( 'NONE', #49, #149, #171 ) ;
#278 = ORIENTED_EDGE ( 'NONE', *, *, #296, .T. ) ;
#279 = DIRECTION ( 'NONE',  ( -1.000000000000000000, 0.0000000000000000000, 1.224646799147353454E-16 ) ) ;
#280 = VERTEX_POINT ( 'NONE', #94 ) ;
#281 =( GEOMETRIC_REPRESENTATION_CONTEXT ( 3 ) GLOBAL_UNCERTAINTY_ASSIGNED_CONTEXT ( ( #180 ) ) GLOBAL_UNIT_ASSIGNED_CONTEXT ( ( #254, #117, #159 ) ) REPRESENTATION_CONTEXT ( 'NONE', 'WORKASPACE' ) );
#282 = DIRECTION ( 'NONE',  ( -1.224646799147353454E-16, -0.0000000000000000000, -1.000000000000000000 ) ) ;
#283 = FACE_OUTER_BOUND ( 'NONE', #29, .T. ) ;
#284 = DIRECTION ( 'NONE',  ( -1.000000000000000000, 0.0000000000000000000, 0.0000000000000000000 ) ) ;
#285 = FILL_AREA_STYLE_COLOUR ( '', #175 ) ;
#286 = CIRCLE ( 'NONE', #277, 0.03121874999999999303 ) ;
#287 = LINE ( 'NONE', #230, #192 ) ;
#288 = LINE ( 'NONE', #9, #231 ) ;
#289 = DIRECTION ( 'NONE',  ( -1.000000000000000000, 0.0000000000000000000, 0.0000000000000000000 ) ) ;
#290 = ADVANCED_FACE ( 'NONE', ( #161 ), #42, .F. ) ;
#291 = DIRECTION ( 'NONE',  ( -1.224646799147353454E-16, -0.0000000000000000000, -1.000000000000000000 ) ) ;
#292 = SURFACE_SIDE_STYLE ('',( #40 ) ) ;
#293 = AXIS2_PLACEMENT_3D ( 'NONE', #204, #35, #56 ) ;
#294 =( GEOMETRIC_REPRESENTATION_CONTEXT ( 3 ) GLOBAL_UNCERTAINTY_ASSIGNED_CONTEXT ( ( #136 ) ) GLOBAL_UNIT_ASSIGNED_CONTEXT ( ( #67, #165, #273 ) ) REPRESENTATION_CONTEXT ( 'NONE', 'WORKASPACE' ) );
#295 = VERTEX_POINT ( 'NONE', #63 ) ;
#296 = EDGE_CURVE ( 'NONE', #76, #162, #110, .T. ) ;
#297 = ORIENTED_EDGE ( 'NONE', *, *, #229, .T. ) ;
#298 = CARTESIAN_POINT ( 'NONE',  ( 0.0000000000000000000, 0.0000000000000000000, 1.500000000000000222 ) ) ;
#299 = EDGE_LOOP ( 'NONE', ( #185, #43, #212, #234 ) ) ;
ENDSEC;
END-ISO-10303-21;
