ISO-10303-21;
HEADER;
FILE_DESCRIPTION (( 'STEP AP214' ),
    '1' );
FILE_NAME ('48030.STEP',
    '2023-06-22T20:59:16',
    ( '' ),
    ( '' ),
    'SwSTEP 2.0',
    'SolidWorks 2023',
    '' );
FILE_SCHEMA (( 'AUTOMOTIVE_DESIGN' ));
ENDSEC;

DATA;
#1 = MANIFOLD_SOLID_BREP ( 'Revolve - Cutting Edge', #132 ) ;
#2 = SURFACE_SIDE_STYLE ('',( #119 ) ) ;
#3 = VERTEX_POINT ( 'NONE', #215 ) ;
#4 = STYLED_ITEM ( 'NONE', ( #131 ), #77 ) ;
#5 = DIRECTION ( 'NONE',  ( 0.000000000000000000, -0.000000000000000000, 1.000000000000000000 ) ) ;
#6 = EDGE_CURVE ( 'NONE', #188, #271, #78, .T. ) ;
#7 = ORIENTED_EDGE ( 'NONE', *, *, #93, .F. ) ;
#8 = LENGTH_MEASURE_WITH_UNIT ( LENGTH_MEASURE( 0.02539999999999999897 ), #57 );
#9 = ORIENTED_EDGE ( 'NONE', *, *, #84, .F. ) ;
#10 = CARTESIAN_POINT ( 'NONE',  ( 0.000000000000000000, 0.3749999999999999445, 0.000000000000000000 ) ) ;
#11 =( LENGTH_UNIT ( ) NAMED_UNIT ( * ) SI_UNIT ( $, .METRE. ) );
#12 = EDGE_CURVE ( 'NONE', #247, #3, #234, .T. ) ;
#13 = AXIS2_PLACEMENT_3D ( 'NONE', #146, #143, #255 ) ;
#14 = FILL_AREA_STYLE ('',( #164 ) ) ;
#15 = ORIENTED_EDGE ( 'NONE', *, *, #286, .T. ) ;
#16 = FACE_OUTER_BOUND ( 'NONE', #280, .T. ) ;
#17 = SURFACE_STYLE_FILL_AREA ( #121 ) ;
#18 = DIRECTION ( 'NONE',  ( 3.768143997376471359E-17, 1.000000000000000000, -0.000000000000000000 ) ) ;
#19 = AXIS2_PLACEMENT_3D ( 'NONE', #258, #259, #289 ) ;
#20 = PRESENTATION_STYLE_ASSIGNMENT (( #305 ) ) ;
#21 = FACE_OUTER_BOUND ( 'NONE', #140, .T. ) ;
#22 =( GEOMETRIC_REPRESENTATION_CONTEXT ( 3 ) GLOBAL_UNCERTAINTY_ASSIGNED_CONTEXT ( ( #181 ) ) GLOBAL_UNIT_ASSIGNED_CONTEXT ( ( #147, #144, #303 ) ) REPRESENTATION_CONTEXT ( 'NONE', 'WORKASPACE' ) );
#23 = AXIS2_PLACEMENT_3D ( 'NONE', #45, #205, #301 ) ;
#24 = FILL_AREA_STYLE_COLOUR ( '', #109 ) ;
#25 =( LENGTH_UNIT ( ) NAMED_UNIT ( * ) SI_UNIT ( $, .METRE. ) );
#26 = PRESENTATION_LAYER_ASSIGNMENT (  '', '', ( #172 ) ) ;
#27 = DIRECTION ( 'NONE',  ( -1.000000000000000000, 3.768143997376471359E-17, 0.000000000000000000 ) ) ;
#28 = DIRECTION ( 'NONE',  ( 3.768143997376471359E-17, 1.000000000000000000, -0.000000000000000000 ) ) ;
#29 = ORIENTED_EDGE ( 'NONE', *, *, #127, .T. ) ;
#30 = DIRECTION ( 'NONE',  ( -1.000000000000000000, 0.000000000000000000, 0.000000000000000000 ) ) ;
#31 = SURFACE_STYLE_FILL_AREA ( #184 ) ;
#32 = ORIENTED_EDGE ( 'NONE', *, *, #6, .T. ) ;
#33 = CIRCLE ( 'NONE', #212, 0.09375000000000001388 ) ;
#34 = FACE_OUTER_BOUND ( 'NONE', #136, .T. ) ;
#35 =( NAMED_UNIT ( * ) SI_UNIT ( $, .STERADIAN. ) SOLID_ANGLE_UNIT ( ) );
#36 = VERTEX_POINT ( 'NONE', #49 ) ;
#37 = FACE_OUTER_BOUND ( 'NONE', #296, .T. ) ;
#38 = PRESENTATION_STYLE_ASSIGNMENT (( #230 ) ) ;
#39 = ORIENTED_EDGE ( 'NONE', *, *, #6, .F. ) ;
#40 = AXIS2_PLACEMENT_3D ( 'NONE', #61, #86, #54 ) ;
#41 = PLANE ( 'NONE',  #23 ) ;
#42 = DIRECTION ( 'NONE',  ( 0.000000000000000000, 0.000000000000000000, -1.000000000000000000 ) ) ;
#43 = EDGE_CURVE ( 'NONE', #188, #138, #102, .T. ) ;
#44 =( NAMED_UNIT ( * ) PLANE_ANGLE_UNIT ( ) SI_UNIT ( $, .RADIAN. ) );
#45 = CARTESIAN_POINT ( 'NONE',  ( 0.000000000000000000, 0.000000000000000000, 0.000000000000000000 ) ) ;
#46 = FACE_OUTER_BOUND ( 'NONE', #223, .T. ) ;
#47 = DIRECTION ( 'NONE',  ( 3.768143997376471359E-17, 1.000000000000000000, -0.000000000000000000 ) ) ;
#48 =( NAMED_UNIT ( * ) SI_UNIT ( $, .STERADIAN. ) SOLID_ANGLE_UNIT ( ) );
#49 = CARTESIAN_POINT ( 'NONE',  ( 0.09374999999999998612, 0.3749999999999999445, 1.148106374200643247E-17 ) ) ;
#50 = FILL_AREA_STYLE ('',( #24 ) ) ;
#51 = CLOSED_SHELL ( 'NONE', ( #186, #297, #211, #165 ) ) ;
#52 = DIRECTION ( 'NONE',  ( -0.000000000000000000, -1.000000000000000000, -0.000000000000000000 ) ) ;
#53 = ADVANCED_BREP_SHAPE_REPRESENTATION ( '48030', ( #1, #115, #177 ), #204 ) ;
#54 = DIRECTION ( 'NONE',  ( 0.000000000000000000, 0.000000000000000000, -1.000000000000000000 ) ) ;
#55 = CARTESIAN_POINT ( 'NONE',  ( 0.000000000000000000, 0.3750000000000000555, 0.000000000000000000 ) ) ;
#56 =( NAMED_UNIT ( * ) SI_UNIT ( $, .STERADIAN. ) SOLID_ANGLE_UNIT ( ) );
#57 =( LENGTH_UNIT ( ) NAMED_UNIT ( * ) SI_UNIT ( $, .METRE. ) );
#58 = ORIENTED_EDGE ( 'NONE', *, *, #135, .T. ) ;
#59 = CIRCLE ( 'NONE', #239, 0.09375000000000001388 ) ;
#60 = CARTESIAN_POINT ( 'NONE',  ( 0.000000000000000000, 0.000000000000000000, 0.000000000000000000 ) ) ;
#61 = CARTESIAN_POINT ( 'NONE',  ( 0.000000000000000000, 0.000000000000000000, 0.000000000000000000 ) ) ;
#62 = EDGE_LOOP ( 'NONE', ( #29, #15 ) ) ;
#63 = ORIENTED_EDGE ( 'NONE', *, *, #43, .T. ) ;
#64 = CYLINDRICAL_SURFACE ( 'NONE', #153, 0.09374999999999995837 ) ;
#65 = ORIENTED_EDGE ( 'NONE', *, *, #291, .T. ) ;
#66 = VECTOR ( 'NONE', #47, 39.37007874015748143 ) ;
#67 = MECHANICAL_DESIGN_GEOMETRIC_PRESENTATION_REPRESENTATION (  '', ( #172 ), #133 ) ;
#68 =( CONVERSION_BASED_UNIT ( 'INCH', #283 ) LENGTH_UNIT ( ) NAMED_UNIT ( #304 ) );
#69 = DIRECTION ( 'NONE',  ( -1.000000000000000000, 0.000000000000000000, 0.000000000000000000 ) ) ;
#70 = COLOUR_RGB ( '',1.000000000000000000, 0.000000000000000000, 0.000000000000000000 ) ;
#71 =( LENGTH_UNIT ( ) NAMED_UNIT ( * ) SI_UNIT ( $, .METRE. ) );
#72 = DIMENSIONAL_EXPONENTS ( 1.000000000000000000, 0.000000000000000000, 0.000000000000000000, 0.000000000000000000, 0.000000000000000000, 0.000000000000000000, 0.000000000000000000 ) ;
#73 = APPLICATION_CONTEXT ( 'automotive_design' ) ;
#74 = DIRECTION ( 'NONE',  ( -0.000000000000000000, -1.000000000000000000, -0.000000000000000000 ) ) ;
#75 = VECTOR ( 'NONE', #246, 39.37007874015748143 ) ;
#76 = CIRCLE ( 'NONE', #161, 0.09374999999999991673 ) ;
#77 = ADVANCED_FACE ( 'NONE', ( #242 ), #152, .T. ) ;
#78 = CIRCLE ( 'NONE', #256, 0.09374999999999998612 ) ;
#79 =( GEOMETRIC_REPRESENTATION_CONTEXT ( 3 ) GLOBAL_UNCERTAINTY_ASSIGNED_CONTEXT ( ( #187 ) ) GLOBAL_UNIT_ASSIGNED_CONTEXT ( ( #160, #81, #35 ) ) REPRESENTATION_CONTEXT ( 'NONE', 'WORKASPACE' ) );
#80 = AXIS2_PLACEMENT_3D ( 'NONE', #157, #224, #27 ) ;
#81 =( NAMED_UNIT ( * ) PLANE_ANGLE_UNIT ( ) SI_UNIT ( $, .RADIAN. ) );
#82 = APPLICATION_PROTOCOL_DEFINITION ( 'draft international standard', 'automotive_design', 1998, #73 ) ;
#83 =( LENGTH_UNIT ( ) NAMED_UNIT ( * ) SI_UNIT ( $, .METRE. ) );
#84 = EDGE_CURVE ( 'NONE', #36, #112, #279, .T. ) ;
#85 = CARTESIAN_POINT ( 'NONE',  ( 0.000000000000000000, 0.000000000000000000, 0.000000000000000000 ) ) ;
#86 = DIRECTION ( 'NONE',  ( -0.000000000000000000, -1.000000000000000000, -0.000000000000000000 ) ) ;
#87 = PRESENTATION_LAYER_ASSIGNMENT (  '', '', ( #148 ) ) ;
#88 =( NAMED_UNIT ( * ) PLANE_ANGLE_UNIT ( ) SI_UNIT ( $, .RADIAN. ) );
#89 = DIRECTION ( 'NONE',  ( 0.000000000000000000, 1.000000000000000000, 0.000000000000000000 ) ) ;
#90 = ORIENTED_EDGE ( 'NONE', *, *, #286, .F. ) ;
#91 = ORIENTED_EDGE ( 'NONE', *, *, #12, .T. ) ;
#92 = CARTESIAN_POINT ( 'NONE',  ( 0.09374999999999998612, 2.000000000000000000, 0.000000000000000000 ) ) ;
#93 = EDGE_CURVE ( 'NONE', #271, #302, #226, .T. ) ;
#94 = CIRCLE ( 'NONE', #262, 0.09374999999999998612 ) ;
#95 =( NAMED_UNIT ( * ) SI_UNIT ( $, .STERADIAN. ) SOLID_ANGLE_UNIT ( ) );
#96 = ADVANCED_FACE ( 'NONE', ( #37 ), #178, .T. ) ;
#97 = LENGTH_MEASURE_WITH_UNIT ( LENGTH_MEASURE( 0.02539999999999999897 ), #11 );
#98 =( GEOMETRIC_REPRESENTATION_CONTEXT ( 3 ) GLOBAL_UNCERTAINTY_ASSIGNED_CONTEXT ( ( #274 ) ) GLOBAL_UNIT_ASSIGNED_CONTEXT ( ( #105, #195, #48 ) ) REPRESENTATION_CONTEXT ( 'NONE', 'WORKASPACE' ) );
#99 = FILL_AREA_STYLE ('',( #124 ) ) ;
#100 = DIMENSIONAL_EXPONENTS ( 1.000000000000000000, 0.000000000000000000, 0.000000000000000000, 0.000000000000000000, 0.000000000000000000, 0.000000000000000000, 0.000000000000000000 ) ;
#101 = CYLINDRICAL_SURFACE ( 'NONE', #142, 0.09374999999999998612 ) ;
#102 = LINE ( 'NONE', #154, #237 ) ;
#103 = SURFACE_SIDE_STYLE ('',( #192 ) ) ;
#104 = PRESENTATION_LAYER_ASSIGNMENT (  '', '', ( #306 ) ) ;
#105 =( CONVERSION_BASED_UNIT ( 'INCH', #126 ) LENGTH_UNIT ( ) NAMED_UNIT ( #145 ) );
#106 = DIRECTION ( 'NONE',  ( -0.000000000000000000, -1.000000000000000000, -0.000000000000000000 ) ) ;
#107 = PRODUCT_RELATED_PRODUCT_CATEGORY ( 'part', '', ( #278 ) ) ;
#108 = DIRECTION ( 'NONE',  ( 0.000000000000000000, 0.000000000000000000, -1.000000000000000000 ) ) ;
#109 = COLOUR_RGB ( '',1.000000000000000000, 0.000000000000000000, 0.000000000000000000 ) ;
#110 = COLOUR_RGB ( '',1.000000000000000000, 0.000000000000000000, 0.000000000000000000 ) ;
#111 = SURFACE_STYLE_USAGE ( .BOTH. , #2 ) ;
#112 = VERTEX_POINT ( 'NONE', #130 ) ;
#113 = CARTESIAN_POINT ( 'NONE',  ( 6.123233995736766036E-17, 2.000000000000000000, 0.000000000000000000 ) ) ;
#114 = ORIENTED_EDGE ( 'NONE', *, *, #263, .T. ) ;
#115 = MANIFOLD_SOLID_BREP ( 'Revolve - Tool Body (Straight Shanked)', #51 ) ;
#116 = DIRECTION ( 'NONE',  ( -0.000000000000000000, -1.000000000000000000, -0.000000000000000000 ) ) ;
#117 = ORIENTED_EDGE ( 'NONE', *, *, #263, .F. ) ;
#118 = AXIS2_PLACEMENT_3D ( 'NONE', #92, #168, #307 ) ;
#119 = SURFACE_STYLE_FILL_AREA ( #14 ) ;
#120 = FILL_AREA_STYLE ('',( #252 ) ) ;
#121 = FILL_AREA_STYLE ('',( #149 ) ) ;
#122 = MECHANICAL_DESIGN_GEOMETRIC_PRESENTATION_REPRESENTATION (  '', ( #148 ), #194 ) ;
#123 = CARTESIAN_POINT ( 'NONE',  ( -0.09374999999999998612, 0.3749999999999999445, 0.000000000000000000 ) ) ;
#124 = FILL_AREA_STYLE_COLOUR ( '', #70 ) ;
#125 = DIMENSIONAL_EXPONENTS ( 1.000000000000000000, 0.000000000000000000, 0.000000000000000000, 0.000000000000000000, 0.000000000000000000, 0.000000000000000000, 0.000000000000000000 ) ;
#126 = LENGTH_MEASURE_WITH_UNIT ( LENGTH_MEASURE( 0.02539999999999999897 ), #25 );
#127 = EDGE_CURVE ( 'NONE', #3, #112, #292, .T. ) ;
#128 = SURFACE_STYLE_FILL_AREA ( #50 ) ;
#129 = UNCERTAINTY_MEASURE_WITH_UNIT (LENGTH_MEASURE( 1.000000000000000082E-05 ), #199, 'distance_accuracy_value', 'NONE');
#130 = CARTESIAN_POINT ( 'NONE',  ( 0.09374999999999998612, 2.000000000000000000, 1.148106374200643247E-17 ) ) ;
#131 = PRESENTATION_STYLE_ASSIGNMENT (( #236 ) ) ;
#132 = CLOSED_SHELL ( 'NONE', ( #217, #77, #96, #193 ) ) ;
#133 =( GEOMETRIC_REPRESENTATION_CONTEXT ( 3 ) GLOBAL_UNCERTAINTY_ASSIGNED_CONTEXT ( ( #196 ) ) GLOBAL_UNIT_ASSIGNED_CONTEXT ( ( #68, #170, #151 ) ) REPRESENTATION_CONTEXT ( 'NONE', 'WORKASPACE' ) );
#134 = DIRECTION ( 'NONE',  ( 0.000000000000000000, 0.000000000000000000, 1.000000000000000000 ) ) ;
#135 = EDGE_CURVE ( 'NONE', #271, #188, #243, .T. ) ;
#136 = EDGE_LOOP ( 'NONE', ( #189, #117 ) ) ;
#137 = DIRECTION ( 'NONE',  ( -0.000000000000000000, -1.000000000000000000, -0.000000000000000000 ) ) ;
#138 = VERTEX_POINT ( 'NONE', #209 ) ;
#139 =( NAMED_UNIT ( * ) PLANE_ANGLE_UNIT ( ) SI_UNIT ( $, .RADIAN. ) );
#140 = EDGE_LOOP ( 'NONE', ( #32, #227, #203, #206 ) ) ;
#141 = PRESENTATION_LAYER_ASSIGNMENT (  '', '', ( #175 ) ) ;
#142 = AXIS2_PLACEMENT_3D ( 'NONE', #173, #74, #266 ) ;
#143 = DIRECTION ( 'NONE',  ( -0.000000000000000000, -1.000000000000000000, -0.000000000000000000 ) ) ;
#144 =( NAMED_UNIT ( * ) PLANE_ANGLE_UNIT ( ) SI_UNIT ( $, .RADIAN. ) );
#145 = DIMENSIONAL_EXPONENTS ( 1.000000000000000000, 0.000000000000000000, 0.000000000000000000, 0.000000000000000000, 0.000000000000000000, 0.000000000000000000, 0.000000000000000000 ) ;
#146 = CARTESIAN_POINT ( 'NONE',  ( 0.000000000000000000, 0.3750000000000000555, 0.000000000000000000 ) ) ;
#147 =( CONVERSION_BASED_UNIT ( 'INCH', #308 ) LENGTH_UNIT ( ) NAMED_UNIT ( #150 ) );
#148 = STYLED_ITEM ( 'NONE', ( #162 ), #115 ) ;
#149 = FILL_AREA_STYLE_COLOUR ( '', #110 ) ;
#150 = DIMENSIONAL_EXPONENTS ( 1.000000000000000000, 0.000000000000000000, 0.000000000000000000, 0.000000000000000000, 0.000000000000000000, 0.000000000000000000, 0.000000000000000000 ) ;
#151 =( NAMED_UNIT ( * ) SI_UNIT ( $, .STERADIAN. ) SOLID_ANGLE_UNIT ( ) );
#152 = PLANE ( 'NONE',  #225 ) ;
#153 = AXIS2_PLACEMENT_3D ( 'NONE', #166, #18, #214 ) ;
#154 = CARTESIAN_POINT ( 'NONE',  ( 0.000000000000000000, 0.000000000000000000, -0.09374999999999998612 ) ) ;
#155 = DIRECTION ( 'NONE',  ( -1.000000000000000000, 0.000000000000000000, 0.000000000000000000 ) ) ;
#156 = CARTESIAN_POINT ( 'NONE',  ( 1.148106374200643401E-17, 0.3750000000000000555, 0.09374999999999998612 ) ) ;
#157 = CARTESIAN_POINT ( 'NONE',  ( 6.655738680452029292E-35, 0.3750000000000000555, 0.000000000000000000 ) ) ;
#158 = UNCERTAINTY_MEASURE_WITH_UNIT (LENGTH_MEASURE( 1.000000000000000082E-05 ), #287, 'distance_accuracy_value', 'NONE');
#159 = SURFACE_SIDE_STYLE ('',( #31 ) ) ;
#160 =( CONVERSION_BASED_UNIT ( 'INCH', #8 ) LENGTH_UNIT ( ) NAMED_UNIT ( #213 ) );
#161 = AXIS2_PLACEMENT_3D ( 'NONE', #244, #28, #180 ) ;
#162 = PRESENTATION_STYLE_ASSIGNMENT (( #275 ) ) ;
#163 = ORIENTED_EDGE ( 'NONE', *, *, #127, .F. ) ;
#164 = FILL_AREA_STYLE_COLOUR ( '', #190 ) ;
#165 = ADVANCED_FACE ( 'NONE', ( #191 ), #281, .F. ) ;
#166 = CARTESIAN_POINT ( 'NONE',  ( 6.123233995736766036E-17, 2.000000000000000000, 0.000000000000000000 ) ) ;
#167 = DIRECTION ( 'NONE',  ( -0.000000000000000000, -1.000000000000000000, -0.000000000000000000 ) ) ;
#168 = DIRECTION ( 'NONE',  ( -3.768143997376471359E-17, -1.000000000000000000, 0.000000000000000000 ) ) ;
#169 =( GEOMETRIC_REPRESENTATION_CONTEXT ( 3 ) GLOBAL_UNCERTAINTY_ASSIGNED_CONTEXT ( ( #129 ) ) GLOBAL_UNIT_ASSIGNED_CONTEXT ( ( #199, #139, #222 ) ) REPRESENTATION_CONTEXT ( 'NONE', 'WORKASPACE' ) );
#170 =( NAMED_UNIT ( * ) PLANE_ANGLE_UNIT ( ) SI_UNIT ( $, .RADIAN. ) );
#171 = DIRECTION ( 'NONE',  ( 3.768143997376471359E-17, 1.000000000000000000, -0.000000000000000000 ) ) ;
#172 = STYLED_ITEM ( 'NONE', ( #20 ), #193 ) ;
#173 = CARTESIAN_POINT ( 'NONE',  ( 0.000000000000000000, 0.000000000000000000, 0.000000000000000000 ) ) ;
#174 = DIRECTION ( 'NONE',  ( 3.768143997376471359E-17, 1.000000000000000000, -0.000000000000000000 ) ) ;
#175 = STYLED_ITEM ( 'NONE', ( #38 ), #1 ) ;
#176 = MECHANICAL_DESIGN_GEOMETRIC_PRESENTATION_REPRESENTATION (  '', ( #4 ), #169 ) ;
#177 = AXIS2_PLACEMENT_3D ( 'NONE', #229, #134, #221 ) ;
#178 = CYLINDRICAL_SURFACE ( 'NONE', #40, 0.09374999999999998612 ) ;
#179 = EDGE_LOOP ( 'NONE', ( #9, #114, #91, #90 ) ) ;
#180 = DIRECTION ( 'NONE',  ( -1.000000000000000000, 0.000000000000000000, 0.000000000000000000 ) ) ;
#181 = UNCERTAINTY_MEASURE_WITH_UNIT (LENGTH_MEASURE( 1.000000000000000082E-05 ), #147, 'distance_accuracy_value', 'NONE');
#182 = CARTESIAN_POINT ( 'NONE',  ( 0.09375000000000002776, 2.000000000000000000, 1.148106374200643092E-17 ) ) ;
#183 = ORIENTED_EDGE ( 'NONE', *, *, #135, .F. ) ;
#184 = FILL_AREA_STYLE ('',( #299 ) ) ;
#185 =( LENGTH_UNIT ( ) NAMED_UNIT ( * ) SI_UNIT ( $, .METRE. ) );
#186 = ADVANCED_FACE ( 'NONE', ( #16 ), #64, .T. ) ;
#187 = UNCERTAINTY_MEASURE_WITH_UNIT (LENGTH_MEASURE( 1.000000000000000082E-05 ), #160, 'distance_accuracy_value', 'NONE');
#188 = VERTEX_POINT ( 'NONE', #260 ) ;
#189 = ORIENTED_EDGE ( 'NONE', *, *, #241, .F. ) ;
#190 = COLOUR_RGB ( '',1.000000000000000000, 0.000000000000000000, 0.000000000000000000 ) ;
#191 = FACE_OUTER_BOUND ( 'NONE', #62, .T. ) ;
#192 = SURFACE_STYLE_FILL_AREA ( #99 ) ;
#193 = ADVANCED_FACE ( 'NONE', ( #46 ), #41, .T. ) ;
#194 =( GEOMETRIC_REPRESENTATION_CONTEXT ( 3 ) GLOBAL_UNCERTAINTY_ASSIGNED_CONTEXT ( ( #158 ) ) GLOBAL_UNIT_ASSIGNED_CONTEXT ( ( #287, #44, #95 ) ) REPRESENTATION_CONTEXT ( 'NONE', 'WORKASPACE' ) );
#195 =( NAMED_UNIT ( * ) PLANE_ANGLE_UNIT ( ) SI_UNIT ( $, .RADIAN. ) );
#196 = UNCERTAINTY_MEASURE_WITH_UNIT (LENGTH_MEASURE( 1.000000000000000082E-05 ), #68, 'distance_accuracy_value', 'NONE');
#197 = DIRECTION ( 'NONE',  ( 0.000000000000000000, 0.000000000000000000, -1.000000000000000000 ) ) ;
#198 = PLANE ( 'NONE',  #80 ) ;
#199 =( CONVERSION_BASED_UNIT ( 'INCH', #202 ) LENGTH_UNIT ( ) NAMED_UNIT ( #100 ) );
#200 = ORIENTED_EDGE ( 'NONE', *, *, #84, .T. ) ;
#201 = PRODUCT_DEFINITION ( 'UNKNOWN', '', #293, #253 ) ;
#202 = LENGTH_MEASURE_WITH_UNIT ( LENGTH_MEASURE( 0.02539999999999999897 ), #83 );
#203 = ORIENTED_EDGE ( 'NONE', *, *, #291, .F. ) ;
#204 =( GEOMETRIC_REPRESENTATION_CONTEXT ( 3 ) GLOBAL_UNCERTAINTY_ASSIGNED_CONTEXT ( ( #250 ) ) GLOBAL_UNIT_ASSIGNED_CONTEXT ( ( #300, #88, #56 ) ) REPRESENTATION_CONTEXT ( 'NONE', 'WORKASPACE' ) );
#205 = DIRECTION ( 'NONE',  ( 0.000000000000000000, -1.000000000000000000, -0.000000000000000000 ) ) ;
#206 = ORIENTED_EDGE ( 'NONE', *, *, #43, .F. ) ;
#207 = PRODUCT_DEFINITION_SHAPE ( 'NONE', 'NONE',  #201 ) ;
#208 =( LENGTH_UNIT ( ) NAMED_UNIT ( * ) SI_UNIT ( $, .METRE. ) );
#209 = CARTESIAN_POINT ( 'NONE',  ( 0.000000000000000000, 0.000000000000000000, -0.09375000000000001388 ) ) ;
#210 = MECHANICAL_DESIGN_GEOMETRIC_PRESENTATION_REPRESENTATION (  '', ( #175 ), #22 ) ;
#211 = ADVANCED_FACE ( 'NONE', ( #285 ), #233, .T. ) ;
#212 = AXIS2_PLACEMENT_3D ( 'NONE', #85, #52, #197 ) ;
#213 = DIMENSIONAL_EXPONENTS ( 1.000000000000000000, 0.000000000000000000, 0.000000000000000000, 0.000000000000000000, 0.000000000000000000, 0.000000000000000000, 0.000000000000000000 ) ;
#214 = DIRECTION ( 'NONE',  ( -1.000000000000000000, 0.000000000000000000, 0.000000000000000000 ) ) ;
#215 = CARTESIAN_POINT ( 'NONE',  ( -0.09374999999999984734, 2.000000000000000000, 0.000000000000000000 ) ) ;
#216 = DIRECTION ( 'NONE',  ( 3.768143997376471359E-17, 1.000000000000000000, -0.000000000000000000 ) ) ;
#217 = ADVANCED_FACE ( 'NONE', ( #21 ), #101, .T. ) ;
#218 = AXIS2_PLACEMENT_3D ( 'NONE', #113, #216, #69 ) ;
#219 = APPLICATION_CONTEXT ( 'automotive_design' ) ;
#220 = STYLED_ITEM ( 'NONE', ( #240 ), #217 ) ;
#221 = DIRECTION ( 'NONE',  ( 1.000000000000000000, 0.000000000000000000, 0.000000000000000000 ) ) ;
#222 =( NAMED_UNIT ( * ) SI_UNIT ( $, .STERADIAN. ) SOLID_ANGLE_UNIT ( ) );
#223 = EDGE_LOOP ( 'NONE', ( #65, #276 ) ) ;
#224 = DIRECTION ( 'NONE',  ( 3.768143997376471359E-17, 1.000000000000000000, -0.000000000000000000 ) ) ;
#225 = AXIS2_PLACEMENT_3D ( 'NONE', #231, #89, #5 ) ;
#226 = LINE ( 'NONE', #270, #273 ) ;
#227 = ORIENTED_EDGE ( 'NONE', *, *, #93, .T. ) ;
#228 = ORIENTED_EDGE ( 'NONE', *, *, #267, .F. ) ;
#229 = CARTESIAN_POINT ( 'NONE',  ( 0.000000000000000000, 0.000000000000000000, 0.000000000000000000 ) ) ;
#230 = SURFACE_STYLE_USAGE ( .BOTH. , #245 ) ;
#231 = CARTESIAN_POINT ( 'NONE',  ( 0.000000000000000000, 0.3750000000000000555, 0.000000000000000000 ) ) ;
#232 = EDGE_LOOP ( 'NONE', ( #39, #183 ) ) ;
#233 = CYLINDRICAL_SURFACE ( 'NONE', #19, 0.09374999999999995837 ) ;
#234 = LINE ( 'NONE', #261, #66 ) ;
#235 = SURFACE_SIDE_STYLE ('',( #17 ) ) ;
#236 = SURFACE_STYLE_USAGE ( .BOTH. , #265 ) ;
#237 = VECTOR ( 'NONE', #106, 39.37007874015748143 ) ;
#238 = PRESENTATION_LAYER_ASSIGNMENT (  '', '', ( #220 ) ) ;
#239 = AXIS2_PLACEMENT_3D ( 'NONE', #60, #137, #108 ) ;
#240 = PRESENTATION_STYLE_ASSIGNMENT (( #290 ) ) ;
#241 = EDGE_CURVE ( 'NONE', #247, #36, #269, .T. ) ;
#242 = FACE_OUTER_BOUND ( 'NONE', #232, .T. ) ;
#243 = CIRCLE ( 'NONE', #13, 0.09374999999999998612 ) ;
#244 = CARTESIAN_POINT ( 'NONE',  ( 6.123233995736766036E-17, 2.000000000000000000, 0.000000000000000000 ) ) ;
#245 = SURFACE_SIDE_STYLE ('',( #282 ) ) ;
#246 = DIRECTION ( 'NONE',  ( 3.768143997376471359E-17, 1.000000000000000000, -0.000000000000000000 ) ) ;
#247 = VERTEX_POINT ( 'NONE', #123 ) ;
#248 = SHAPE_DEFINITION_REPRESENTATION ( #207, #53 ) ;
#249 = MECHANICAL_DESIGN_GEOMETRIC_PRESENTATION_REPRESENTATION (  '', ( #306 ), #79 ) ;
#250 = UNCERTAINTY_MEASURE_WITH_UNIT (LENGTH_MEASURE( 1.000000000000000082E-05 ), #300, 'distance_accuracy_value', 'NONE');
#251 = APPLICATION_PROTOCOL_DEFINITION ( 'draft international standard', 'automotive_design', 1998, #219 ) ;
#252 = FILL_AREA_STYLE_COLOUR ( '', #268 ) ;
#253 = PRODUCT_DEFINITION_CONTEXT ( 'detailed design', #219, 'design' ) ;
#254 = ORIENTED_EDGE ( 'NONE', *, *, #12, .F. ) ;
#255 = DIRECTION ( 'NONE',  ( 0.000000000000000000, 0.000000000000000000, -1.000000000000000000 ) ) ;
#256 = AXIS2_PLACEMENT_3D ( 'NONE', #55, #167, #42 ) ;
#257 = COLOUR_RGB ( '',0.7921568627450980005, 0.8196078431372548767, 0.9333333333333333481 ) ;
#258 = CARTESIAN_POINT ( 'NONE',  ( 6.123233995736766036E-17, 2.000000000000000000, 0.000000000000000000 ) ) ;
#259 = DIRECTION ( 'NONE',  ( 3.768143997376471359E-17, 1.000000000000000000, -0.000000000000000000 ) ) ;
#260 = CARTESIAN_POINT ( 'NONE',  ( 0.000000000000000000, 0.3750000000000000555, -0.09374999999999998612 ) ) ;
#261 = CARTESIAN_POINT ( 'NONE',  ( -0.09374999999999988898, 2.000000000000000000, 0.000000000000000000 ) ) ;
#262 = AXIS2_PLACEMENT_3D ( 'NONE', #10, #174, #30 ) ;
#263 = EDGE_CURVE ( 'NONE', #36, #247, #94, .T. ) ;
#264 = CARTESIAN_POINT ( 'NONE',  ( 0.000000000000000000, 0.3749999999999999445, 0.000000000000000000 ) ) ;
#265 = SURFACE_SIDE_STYLE ('',( #128 ) ) ;
#266 = DIRECTION ( 'NONE',  ( 0.000000000000000000, 0.000000000000000000, -1.000000000000000000 ) ) ;
#267 = EDGE_CURVE ( 'NONE', #302, #138, #33, .T. ) ;
#268 = COLOUR_RGB ( '',0.7921568627450980005, 0.8196078431372548767, 0.9333333333333333481 ) ;
#269 = CIRCLE ( 'NONE', #309, 0.09374999999999998612 ) ;
#270 = CARTESIAN_POINT ( 'NONE',  ( 1.148106374200643401E-17, 0.000000000000000000, 0.09374999999999998612 ) ) ;
#271 = VERTEX_POINT ( 'NONE', #156 ) ;
#272 = PRESENTATION_STYLE_ASSIGNMENT (( #111 ) ) ;
#273 = VECTOR ( 'NONE', #116, 39.37007874015748143 ) ;
#274 = UNCERTAINTY_MEASURE_WITH_UNIT (LENGTH_MEASURE( 1.000000000000000082E-05 ), #105, 'distance_accuracy_value', 'NONE');
#275 = SURFACE_STYLE_USAGE ( .BOTH. , #159 ) ;
#276 = ORIENTED_EDGE ( 'NONE', *, *, #267, .T. ) ;
#277 = PRODUCT_CONTEXT ( 'NONE', #73, 'mechanical' ) ;
#278 = PRODUCT ( '48030', '48030', '', ( #277 ) ) ;
#279 = LINE ( 'NONE', #182, #75 ) ;
#280 = EDGE_LOOP ( 'NONE', ( #295, #200, #163, #254 ) ) ;
#281 = PLANE ( 'NONE',  #118 ) ;
#282 = SURFACE_STYLE_FILL_AREA ( #120 ) ;
#283 = LENGTH_MEASURE_WITH_UNIT ( LENGTH_MEASURE( 0.02539999999999999897 ), #208 );
#284 = MECHANICAL_DESIGN_GEOMETRIC_PRESENTATION_REPRESENTATION (  '', ( #220 ), #98 ) ;
#285 = FACE_OUTER_BOUND ( 'NONE', #179, .T. ) ;
#286 = EDGE_CURVE ( 'NONE', #112, #3, #76, .T. ) ;
#287 =( CONVERSION_BASED_UNIT ( 'INCH', #97 ) LENGTH_UNIT ( ) NAMED_UNIT ( #125 ) );
#288 = PRESENTATION_LAYER_ASSIGNMENT (  '', '', ( #4 ) ) ;
#289 = DIRECTION ( 'NONE',  ( -1.000000000000000000, 0.000000000000000000, 0.000000000000000000 ) ) ;
#290 = SURFACE_STYLE_USAGE ( .BOTH. , #103 ) ;
#291 = EDGE_CURVE ( 'NONE', #138, #302, #59, .T. ) ;
#292 = CIRCLE ( 'NONE', #218, 0.09374999999999991673 ) ;
#293 = PRODUCT_DEFINITION_FORMATION_WITH_SPECIFIED_SOURCE ( 'ANY', '', #278, .NOT_KNOWN. ) ;
#294 = LENGTH_MEASURE_WITH_UNIT ( LENGTH_MEASURE( 0.02539999999999999897 ), #185 );
#295 = ORIENTED_EDGE ( 'NONE', *, *, #241, .T. ) ;
#296 = EDGE_LOOP ( 'NONE', ( #7, #58, #63, #228 ) ) ;
#297 = ADVANCED_FACE ( 'NONE', ( #34 ), #198, .F. ) ;
#298 = CARTESIAN_POINT ( 'NONE',  ( 1.148106374200643555E-17, 0.000000000000000000, 0.09375000000000001388 ) ) ;
#299 = FILL_AREA_STYLE_COLOUR ( '', #257 ) ;
#300 =( CONVERSION_BASED_UNIT ( 'INCH', #294 ) LENGTH_UNIT ( ) NAMED_UNIT ( #72 ) );
#301 = DIRECTION ( 'NONE',  ( 0.000000000000000000, 0.000000000000000000, -1.000000000000000000 ) ) ;
#302 = VERTEX_POINT ( 'NONE', #298 ) ;
#303 =( NAMED_UNIT ( * ) SI_UNIT ( $, .STERADIAN. ) SOLID_ANGLE_UNIT ( ) );
#304 = DIMENSIONAL_EXPONENTS ( 1.000000000000000000, 0.000000000000000000, 0.000000000000000000, 0.000000000000000000, 0.000000000000000000, 0.000000000000000000, 0.000000000000000000 ) ;
#305 = SURFACE_STYLE_USAGE ( .BOTH. , #235 ) ;
#306 = STYLED_ITEM ( 'NONE', ( #272 ), #96 ) ;
#307 = DIRECTION ( 'NONE',  ( 1.000000000000000000, -3.768143997376471359E-17, 0.000000000000000000 ) ) ;
#308 = LENGTH_MEASURE_WITH_UNIT ( LENGTH_MEASURE( 0.02539999999999999897 ), #71 );
#309 = AXIS2_PLACEMENT_3D ( 'NONE', #264, #171, #155 ) ;
ENDSEC;
END-ISO-10303-21;
