ISO-10303-21;
HEADER;
FILE_DESCRIPTION (( 'STEP AP214' ),
    '1' );
FILE_NAME ('Micro_BEM-171-02X.STEP',
    '2021-09-03T13:04:22',
    ( '' ),
    ( '' ),
    'SwSTEP 2.0',
    'SolidWorks 2020',
    '' );
FILE_SCHEMA (( 'AUTOMOTIVE_DESIGN' ));
ENDSEC;

DATA;
#1 =( LENGTH_UNIT ( ) NAMED_UNIT ( * ) SI_UNIT ( $, .METRE. ) );
#2 = VERTEX_POINT ( 'NONE', #259 ) ;
#3 = UNCERTAINTY_MEASURE_WITH_UNIT (LENGTH_MEASURE( 1.000000000000000082E-05 ), #304, 'distance_accuracy_value', 'NONE');
#4 = CARTESIAN_POINT ( 'NONE',  ( 1.051531339943283032E-17, 0.0000000000000000000, 0.08586404999999999732 ) ) ;
#5 = ORIENTED_EDGE ( 'NONE', *, *, #72, .T. ) ;
#6 = ORIENTED_EDGE ( 'NONE', *, *, #77, .F. ) ;
#7 = AXIS2_PLACEMENT_3D ( 'NONE', #271, #172, #43 ) ;
#8 = CARTESIAN_POINT ( 'NONE',  ( 1.051531339943283032E-17, 0.0000000000000000000, 0.08586404999999999732 ) ) ;
#9 = ADVANCED_FACE ( 'NONE', ( #232 ), #213, .T. ) ;
#10 = DIRECTION ( 'NONE',  ( -1.000000000000000000, 0.0000000000000000000, 1.224646799147353454E-16 ) ) ;
#11 = ORIENTED_EDGE ( 'NONE', *, *, #168, .T. ) ;
#12 = DIRECTION ( 'NONE',  ( 0.0000000000000000000, 0.0000000000000000000, 1.000000000000000000 ) ) ;
#13 =( NAMED_UNIT ( * ) PLANE_ANGLE_UNIT ( ) SI_UNIT ( $, .RADIAN. ) );
#14 = EDGE_CURVE ( 'NONE', #153, #80, #177, .T. ) ;
#15 = PRODUCT_CONTEXT ( 'NONE', #324, 'mechanical' ) ;
#16 = CARTESIAN_POINT ( 'NONE',  ( -0.08586404999999992793, 1.099818857071963216E-17, 0.6250000000000000000 ) ) ;
#17 = FACE_OUTER_BOUND ( 'NONE', #48, .T. ) ;
#18 = CIRCLE ( 'NONE', #56, 0.08586404999999999732 ) ;
#19 = DIRECTION ( 'NONE',  ( 1.000000000000000000, 0.0000000000000000000, 0.0000000000000000000 ) ) ;
#20 = LINE ( 'NONE', #143, #306 ) ;
#21 = EDGE_CURVE ( 'NONE', #153, #254, #85, .T. ) ;
#22 = PRODUCT_DEFINITION_SHAPE ( 'NONE', 'NONE',  #255 ) ;
#23 = DIRECTION ( 'NONE',  ( -1.000000000000000000, 0.0000000000000000000, 1.224646799147353454E-16 ) ) ;
#24 = MECHANICAL_DESIGN_GEOMETRIC_PRESENTATION_REPRESENTATION (  '', ( #86 ), #233 ) ;
#25 = DIRECTION ( 'NONE',  ( -0.7071067811865463515, 0.0000000000000000000, -0.7071067811865486830 ) ) ;
#26 = EDGE_CURVE ( 'NONE', #226, #2, #287, .T. ) ;
#27 = CARTESIAN_POINT ( 'NONE',  ( 0.07874999999999980627, 1.056257864264590573E-17, 2.000000000000000000 ) ) ;
#28 = DIRECTION ( 'NONE',  ( -0.0000000000000000000, -0.0000000000000000000, -1.000000000000000000 ) ) ;
#29 = EDGE_LOOP ( 'NONE', ( #279, #310, #134, #5 ) ) ;
#30 = UNCERTAINTY_MEASURE_WITH_UNIT (LENGTH_MEASURE( 1.000000000000000082E-05 ), #188, 'distance_accuracy_value', 'NONE');
#31 = EDGE_LOOP ( 'NONE', ( #209, #150 ) ) ;
#32 = PRODUCT_RELATED_PRODUCT_CATEGORY ( 'part', '', ( #239 ) ) ;
#33 = EDGE_LOOP ( 'NONE', ( #179, #156, #247, #114 ) ) ;
#34 = VECTOR ( 'NONE', #320, 39.37007874015747433 ) ;
#35 = ORIENTED_EDGE ( 'NONE', *, *, #158, .F. ) ;
#36 = CARTESIAN_POINT ( 'NONE',  ( 0.08586405000000006671, 0.0000000000000000000, 0.6250000000000000000 ) ) ;
#37 = AXIS2_PLACEMENT_3D ( 'NONE', #117, #40, #237 ) ;
#38 = DIRECTION ( 'NONE',  ( 1.000000000000000000, 0.0000000000000000000, 0.0000000000000000000 ) ) ;
#39 = DIRECTION ( 'NONE',  ( -1.224646799147353207E-16, -0.0000000000000000000, -1.000000000000000000 ) ) ;
#40 = DIRECTION ( 'NONE',  ( 1.224646799147353207E-16, 0.0000000000000000000, 1.000000000000000000 ) ) ;
#41 = AXIS2_PLACEMENT_3D ( 'NONE', #169, #93, #42 ) ;
#42 = DIRECTION ( 'NONE',  ( -1.000000000000000000, 0.0000000000000000000, 0.0000000000000000000 ) ) ;
#43 = DIRECTION ( 'NONE',  ( 1.000000000000000000, 0.0000000000000000000, 0.0000000000000000000 ) ) ;
#44 = CARTESIAN_POINT ( 'NONE',  ( 0.0000000000000000000, 0.0000000000000000000, 2.000000000000000000 ) ) ;
#45 = FILL_AREA_STYLE_COLOUR ( '', #126 ) ;
#46 = ORIENTED_EDGE ( 'NONE', *, *, #201, .T. ) ;
#47 = SURFACE_SIDE_STYLE ('',( #51 ) ) ;
#48 = EDGE_LOOP ( 'NONE', ( #180, #128, #301, #202 ) ) ;
#49 = MANIFOLD_SOLID_BREP ( 'Fillet1', #154 ) ;
#50 =( CONVERSION_BASED_UNIT ( 'INCH', #278 ) LENGTH_UNIT ( ) NAMED_UNIT ( #160 ) );
#51 = SURFACE_STYLE_FILL_AREA ( #178 ) ;
#52 = EDGE_LOOP ( 'NONE', ( #283, #159, #100 ) ) ;
#53 = AXIS2_PLACEMENT_3D ( 'NONE', #262, #314, #187 ) ;
#54 = ORIENTED_EDGE ( 'NONE', *, *, #95, .F. ) ;
#55 = DIRECTION ( 'NONE',  ( 0.0000000000000000000, 0.0000000000000000000, -1.000000000000000000 ) ) ;
#56 = AXIS2_PLACEMENT_3D ( 'NONE', #118, #268, #194 ) ;
#57 = DIRECTION ( 'NONE',  ( -1.224646799147353207E-16, -0.0000000000000000000, -1.000000000000000000 ) ) ;
#58 = VERTEX_POINT ( 'NONE', #189 ) ;
#59 = EDGE_CURVE ( 'NONE', #153, #224, #161, .T. ) ;
#60 = FACE_OUTER_BOUND ( 'NONE', #182, .T. ) ;
#61 = AXIS2_PLACEMENT_3D ( 'NONE', #234, #55, #190 ) ;
#62 = DIRECTION ( 'NONE',  ( -1.224646799147353207E-16, -0.0000000000000000000, -1.000000000000000000 ) ) ;
#63 = CARTESIAN_POINT ( 'NONE',  ( -0.08586404999999998344, 0.0000000000000000000, 0.08586405000000002508 ) ) ;
#64 = DIRECTION ( 'NONE',  ( 0.0000000000000000000, 0.0000000000000000000, 1.000000000000000000 ) ) ;
#65 = VECTOR ( 'NONE', #295, 39.37007874015748143 ) ;
#66 = CARTESIAN_POINT ( 'NONE',  ( -0.08586404999999999732, 0.0000000000000000000, 1.051531339943283032E-17 ) ) ;
#67 = ADVANCED_FACE ( 'NONE', ( #60 ), #125, .T. ) ;
#68 = CARTESIAN_POINT ( 'NONE',  ( 1.051531339943283032E-17, 0.0000000000000000000, 0.08586404999999999732 ) ) ;
#69 = FACE_OUTER_BOUND ( 'NONE', #231, .T. ) ;
#70 = VECTOR ( 'NONE', #87, 39.37007874015748143 ) ;
#71 =( NAMED_UNIT ( * ) PLANE_ANGLE_UNIT ( ) SI_UNIT ( $, .RADIAN. ) );
#72 = EDGE_CURVE ( 'NONE', #176, #254, #289, .T. ) ;
#73 = VERTEX_POINT ( 'NONE', #288 ) ;
#74 = CARTESIAN_POINT ( 'NONE',  ( 0.0000000000000000000, 0.0000000000000000000, 2.000000000000000000 ) ) ;
#75 = ORIENTED_EDGE ( 'NONE', *, *, #83, .F. ) ;
#76 = ORIENTED_EDGE ( 'NONE', *, *, #21, .T. ) ;
#77 = EDGE_CURVE ( 'NONE', #78, #224, #111, .T. ) ;
#78 = VERTEX_POINT ( 'NONE', #235 ) ;
#79 = FILL_AREA_STYLE_COLOUR ( '', #267 ) ;
#80 = VERTEX_POINT ( 'NONE', #16 ) ;
#81 = ORIENTED_EDGE ( 'NONE', *, *, #99, .F. ) ;
#82 = DIRECTION ( 'NONE',  ( 0.0000000000000000000, 0.0000000000000000000, -1.000000000000000000 ) ) ;
#83 = EDGE_CURVE ( 'NONE', #224, #78, #258, .T. ) ;
#84 = DIRECTION ( 'NONE',  ( 1.000000000000000000, 0.0000000000000000000, 0.0000000000000000000 ) ) ;
#85 = LINE ( 'NONE', #108, #217 ) ;
#86 = STYLED_ITEM ( 'NONE', ( #284 ), #49 ) ;
#87 = DIRECTION ( 'NONE',  ( 0.7071067811865463515, 8.659560562354916834E-17, -0.7071067811865486830 ) ) ;
#88 = ADVANCED_FACE ( 'NONE', ( #269 ), #325, .T. ) ;
#89 = CARTESIAN_POINT ( 'NONE',  ( 0.09375000000000001388, 1.148106374200643863E-17, 2.000000000000000000 ) ) ;
#90 = CARTESIAN_POINT ( 'NONE',  ( 0.0000000000000000000, 0.0000000000000000000, 1.984999999999999654 ) ) ;
#91 = AXIS2_PLACEMENT_3D ( 'NONE', #193, #119, #144 ) ;
#92 = MECHANICAL_DESIGN_GEOMETRIC_PRESENTATION_REPRESENTATION (  '', ( #116 ), #238 ) ;
#93 = DIRECTION ( 'NONE',  ( 0.0000000000000000000, 0.0000000000000000000, -1.000000000000000000 ) ) ;
#94 = CARTESIAN_POINT ( 'NONE',  ( 0.07874999999999980627, 9.644093543285380530E-18, 2.000000000000000000 ) ) ;
#95 = EDGE_CURVE ( 'NONE', #73, #2, #20, .T. ) ;
#96 = CARTESIAN_POINT ( 'NONE',  ( 0.0000000000000000000, 0.0000000000000000000, 2.000000000000000000 ) ) ;
#97 = EDGE_LOOP ( 'NONE', ( #300, #11, #6, #303 ) ) ;
#98 = CIRCLE ( 'NONE', #285, 0.08586404999999999732 ) ;
#99 = EDGE_CURVE ( 'NONE', #58, #254, #18, .T. ) ;
#100 = ORIENTED_EDGE ( 'NONE', *, *, #72, .F. ) ;
#101 = SURFACE_STYLE_USAGE ( .BOTH. , #47 ) ;
#102 = ORIENTED_EDGE ( 'NONE', *, *, #14, .F. ) ;
#103 = DIRECTION ( 'NONE',  ( 0.0000000000000000000, 0.0000000000000000000, 1.000000000000000000 ) ) ;
#104 = ORIENTED_EDGE ( 'NONE', *, *, #59, .T. ) ;
#105 = EDGE_CURVE ( 'NONE', #80, #153, #263, .T. ) ;
#106 = ADVANCED_FACE ( 'NONE', ( #122 ), #222, .T. ) ;
#107 = ORIENTED_EDGE ( 'NONE', *, *, #245, .F. ) ;
#108 = CARTESIAN_POINT ( 'NONE',  ( 0.08586404999999999732, 1.051531339943283032E-17, -1.051531339943283032E-17 ) ) ;
#109 = EDGE_CURVE ( 'NONE', #253, #226, #323, .T. ) ;
#110 = DIRECTION ( 'NONE',  ( 1.000000000000000000, 0.0000000000000000000, 0.0000000000000000000 ) ) ;
#111 = CIRCLE ( 'NONE', #200, 0.09375000000000001388 ) ;
#112 = ADVANCED_FACE ( 'NONE', ( #17 ), #186, .T. ) ;
#113 = DIRECTION ( 'NONE',  ( 1.224646799147353207E-16, 0.0000000000000000000, 1.000000000000000000 ) ) ;
#114 = ORIENTED_EDGE ( 'NONE', *, *, #59, .F. ) ;
#115 = DIRECTION ( 'NONE',  ( 1.000000000000000000, 0.0000000000000000000, 0.0000000000000000000 ) ) ;
#116 = STYLED_ITEM ( 'NONE', ( #282 ), #260 ) ;
#117 = CARTESIAN_POINT ( 'NONE',  ( 7.654042494670957853E-17, 0.0000000000000000000, 0.6250000000000000000 ) ) ;
#118 = CARTESIAN_POINT ( 'NONE',  ( 1.051531339943283032E-17, 0.0000000000000000000, 0.08586404999999999732 ) ) ;
#119 = DIRECTION ( 'NONE',  ( 1.224646799147353207E-16, 1.000000000000000000, -0.0000000000000000000 ) ) ;
#120 = CIRCLE ( 'NONE', #225, 0.09375000000000001388 ) ;
#121 =( GEOMETRIC_REPRESENTATION_CONTEXT ( 3 ) GLOBAL_UNCERTAINTY_ASSIGNED_CONTEXT ( ( #3 ) ) GLOBAL_UNIT_ASSIGNED_CONTEXT ( ( #304, #71, #208 ) ) REPRESENTATION_CONTEXT ( 'NONE', 'WORKASPACE' ) );
#122 = FACE_OUTER_BOUND ( 'NONE', #228, .T. ) ;
#123 = DIRECTION ( 'NONE',  ( 1.224646799147353207E-16, 0.0000000000000000000, 1.000000000000000000 ) ) ;
#124 = CARTESIAN_POINT ( 'NONE',  ( 0.0000000000000000000, 0.0000000000000000000, 2.000000000000000000 ) ) ;
#125 = CONICAL_SURFACE ( 'NONE', #61, 0.07874999999999980627, 0.7853981633974466137 ) ;
#126 = COLOUR_RGB ( '',0.7921568627450980005, 0.8196078431372548767, 0.9333333333333333481 ) ;
#127 = LINE ( 'NONE', #252, #181 ) ;
#128 = ORIENTED_EDGE ( 'NONE', *, *, #273, .F. ) ;
#129 = DIRECTION ( 'NONE',  ( -1.000000000000000000, 0.0000000000000000000, 1.988498092088789851E-16 ) ) ;
#130 = ORIENTED_EDGE ( 'NONE', *, *, #26, .T. ) ;
#131 = SPHERICAL_SURFACE ( 'NONE', #220, 0.08586404999999999732 ) ;
#132 = EDGE_LOOP ( 'NONE', ( #206, #130, #275, #75 ) ) ;
#133 = AXIS2_PLACEMENT_3D ( 'NONE', #218, #216, #23 ) ;
#134 = ORIENTED_EDGE ( 'NONE', *, *, #158, .T. ) ;
#135 = DIRECTION ( 'NONE',  ( 0.1736481776669313304, 0.0000000000000000000, 0.9848077530122077983 ) ) ;
#136 = PRODUCT_DEFINITION_CONTEXT ( 'detailed design', #291, 'design' ) ;
#137 = DIMENSIONAL_EXPONENTS ( 1.000000000000000000, 0.0000000000000000000, 0.0000000000000000000, 0.0000000000000000000, 0.0000000000000000000, 0.0000000000000000000, 0.0000000000000000000 ) ;
#138 = EDGE_CURVE ( 'NONE', #80, #78, #192, .T. ) ;
#139 = APPLICATION_PROTOCOL_DEFINITION ( 'draft international standard', 'automotive_design', 1998, #291 ) ;
#140 = SURFACE_STYLE_USAGE ( .BOTH. , #261 ) ;
#141 = CARTESIAN_POINT ( 'NONE',  ( -0.08586404999999992793, 1.051531339943283032E-17, 0.6250000000000000000 ) ) ;
#142 = AXIS2_PLACEMENT_3D ( 'NONE', #171, #219, #319 ) ;
#143 = CARTESIAN_POINT ( 'NONE',  ( -0.07874999999999980627, 0.0000000000000000000, 2.000000000000000000 ) ) ;
#144 = DIRECTION ( 'NONE',  ( -1.000000000000000000, 1.224646799147353454E-16, 0.0000000000000000000 ) ) ;
#145 = CARTESIAN_POINT ( 'NONE',  ( 0.09375000000000009714, 1.148106374200644787E-17, 0.6697234448654140193 ) ) ;
#146 =( LENGTH_UNIT ( ) NAMED_UNIT ( * ) SI_UNIT ( $, .METRE. ) );
#147 = DIRECTION ( 'NONE',  ( -0.0000000000000000000, -0.0000000000000000000, -1.000000000000000000 ) ) ;
#148 = ORIENTED_EDGE ( 'NONE', *, *, #109, .T. ) ;
#149 = CYLINDRICAL_SURFACE ( 'NONE', #191, 0.09375000000000001388 ) ;
#150 = ORIENTED_EDGE ( 'NONE', *, *, #245, .T. ) ;
#151 = AXIS2_PLACEMENT_3D ( 'NONE', #74, #103, #276 ) ;
#152 = DIRECTION ( 'NONE',  ( 1.000000000000000000, 0.0000000000000000000, 0.0000000000000000000 ) ) ;
#153 = VERTEX_POINT ( 'NONE', #270 ) ;
#154 = CLOSED_SHELL ( 'NONE', ( #174, #106, #221, #67, #248, #281, #204, #112, #88, #9, #256 ) ) ;
#155 = AXIS2_PLACEMENT_3D ( 'NONE', #313, #57, #10 ) ;
#156 = ORIENTED_EDGE ( 'NONE', *, *, #138, .T. ) ;
#157 = CARTESIAN_POINT ( 'NONE',  ( 0.0000000000000000000, 0.0000000000000000000, 0.0000000000000000000 ) ) ;
#158 = EDGE_CURVE ( 'NONE', #80, #176, #322, .T. ) ;
#159 = ORIENTED_EDGE ( 'NONE', *, *, #99, .T. ) ;
#160 = DIMENSIONAL_EXPONENTS ( 1.000000000000000000, 0.0000000000000000000, 0.0000000000000000000, 0.0000000000000000000, 0.0000000000000000000, 0.0000000000000000000, 0.0000000000000000000 ) ;
#161 = LINE ( 'NONE', #36, #165 ) ;
#162 = SHAPE_DEFINITION_REPRESENTATION ( #22, #260 ) ;
#163 = EDGE_CURVE ( 'NONE', #2, #226, #120, .T. ) ;
#164 = CARTESIAN_POINT ( 'NONE',  ( 8.201746730683681886E-17, 0.0000000000000000000, 0.6697234448654140193 ) ) ;
#165 = VECTOR ( 'NONE', #135, 39.37007874015748143 ) ;
#166 =( NAMED_UNIT ( * ) SI_UNIT ( $, .STERADIAN. ) SOLID_ANGLE_UNIT ( ) );
#167 = FACE_OUTER_BOUND ( 'NONE', #31, .T. ) ;
#168 = EDGE_CURVE ( 'NONE', #226, #224, #240, .T. ) ;
#169 = CARTESIAN_POINT ( 'NONE',  ( 0.0000000000000000000, 0.0000000000000000000, 2.000000000000000000 ) ) ;
#170 = CIRCLE ( 'NONE', #243, 0.07874999999999980627 ) ;
#171 = CARTESIAN_POINT ( 'NONE',  ( 7.654042494670957853E-17, 0.0000000000000000000, 0.6250000000000000000 ) ) ;
#172 = DIRECTION ( 'NONE',  ( 1.224646799147353207E-16, 0.0000000000000000000, 1.000000000000000000 ) ) ;
#173 = DIRECTION ( 'NONE',  ( 0.0000000000000000000, 1.000000000000000000, 0.0000000000000000000 ) ) ;
#174 = ADVANCED_FACE ( 'NONE', ( #69 ), #241, .T. ) ;
#175 = AXIS2_PLACEMENT_3D ( 'NONE', #309, #82, #110 ) ;
#176 = VERTEX_POINT ( 'NONE', #63 ) ;
#177 = CIRCLE ( 'NONE', #53, 0.08586404999999999732 ) ;
#178 = FILL_AREA_STYLE ('',( #45 ) ) ;
#179 = ORIENTED_EDGE ( 'NONE', *, *, #105, .F. ) ;
#180 = ORIENTED_EDGE ( 'NONE', *, *, #109, .F. ) ;
#181 = VECTOR ( 'NONE', #147, 39.37007874015748143 ) ;
#182 = EDGE_LOOP ( 'NONE', ( #107, #148, #257, #54 ) ) ;
#183 = APPLICATION_PROTOCOL_DEFINITION ( 'draft international standard', 'automotive_design', 1998, #324 ) ;
#184 = ORIENTED_EDGE ( 'NONE', *, *, #105, .T. ) ;
#185 = SURFACE_STYLE_FILL_AREA ( #211 ) ;
#186 = CONICAL_SURFACE ( 'NONE', #41, 0.07874999999999980627, 0.7853981633974466137 ) ;
#187 = DIRECTION ( 'NONE',  ( -1.000000000000000000, 0.0000000000000000000, 0.0000000000000000000 ) ) ;
#188 =( CONVERSION_BASED_UNIT ( 'INCH', #210 ) LENGTH_UNIT ( ) NAMED_UNIT ( #137 ) );
#189 = CARTESIAN_POINT ( 'NONE',  ( 1.577297009914924626E-17, 0.0000000000000000000, 0.0000000000000000000 ) ) ;
#190 = DIRECTION ( 'NONE',  ( -1.000000000000000000, 0.0000000000000000000, 0.0000000000000000000 ) ) ;
#191 = AXIS2_PLACEMENT_3D ( 'NONE', #124, #246, #274 ) ;
#192 = LINE ( 'NONE', #141, #34 ) ;
#193 = CARTESIAN_POINT ( 'NONE',  ( 1.051531339943283032E-17, 0.0000000000000000000, 0.08586404999999999732 ) ) ;
#194 = DIRECTION ( 'NONE',  ( 0.0000000000000000000, 0.0000000000000000000, -1.000000000000000000 ) ) ;
#195 = PRESENTATION_LAYER_ASSIGNMENT (  '', '', ( #116 ) ) ;
#196 = DIRECTION ( 'NONE',  ( 1.000000000000000000, 0.0000000000000000000, -0.0000000000000000000 ) ) ;
#197 = DIRECTION ( 'NONE',  ( -1.224646799147353207E-16, -0.0000000000000000000, -1.000000000000000000 ) ) ;
#198 = CARTESIAN_POINT ( 'NONE',  ( 0.08586405000000002508, 1.051531339943283032E-17, 0.08586404999999998344 ) ) ;
#199 = EDGE_LOOP ( 'NONE', ( #277, #102, #104, #250 ) ) ;
#200 = AXIS2_PLACEMENT_3D ( 'NONE', #164, #264, #38 ) ;
#201 = EDGE_CURVE ( 'NONE', #58, #176, #251, .T. ) ;
#202 = ORIENTED_EDGE ( 'NONE', *, *, #26, .F. ) ;
#203 = ORIENTED_EDGE ( 'NONE', *, *, #311, .T. ) ;
#204 = ADVANCED_FACE ( 'NONE', ( #167 ), #266, .T. ) ;
#205 = LENGTH_MEASURE_WITH_UNIT ( LENGTH_MEASURE( 0.02539999999999999897 ), #1 );
#206 = ORIENTED_EDGE ( 'NONE', *, *, #168, .F. ) ;
#207 = CONICAL_SURFACE ( 'NONE', #7, 0.08586404999999999732, 0.1745329251994338360 ) ;
#208 =( NAMED_UNIT ( * ) SI_UNIT ( $, .STERADIAN. ) SOLID_ANGLE_UNIT ( ) );
#209 = ORIENTED_EDGE ( 'NONE', *, *, #273, .T. ) ;
#210 = LENGTH_MEASURE_WITH_UNIT ( LENGTH_MEASURE( 0.02539999999999999897 ), #212 );
#211 = FILL_AREA_STYLE ('',( #79 ) ) ;
#212 =( LENGTH_UNIT ( ) NAMED_UNIT ( * ) SI_UNIT ( $, .METRE. ) );
#213 = CYLINDRICAL_SURFACE ( 'NONE', #155, 0.08586404999999999732 ) ;
#214 = AXIS2_PLACEMENT_3D ( 'NONE', #68, #173, #292 ) ;
#215 = FACE_OUTER_BOUND ( 'NONE', #97, .T. ) ;
#216 = DIRECTION ( 'NONE',  ( -1.224646799147353207E-16, -0.0000000000000000000, -1.000000000000000000 ) ) ;
#217 = VECTOR ( 'NONE', #62, 39.37007874015748143 ) ;
#218 = CARTESIAN_POINT ( 'NONE',  ( 0.0000000000000000000, 0.0000000000000000000, 0.0000000000000000000 ) ) ;
#219 = DIRECTION ( 'NONE',  ( -1.224646799147353207E-16, -0.0000000000000000000, -1.000000000000000000 ) ) ;
#220 = AXIS2_PLACEMENT_3D ( 'NONE', #4, #302, #152 ) ;
#221 = ADVANCED_FACE ( 'NONE', ( #297 ), #207, .T. ) ;
#222 = CYLINDRICAL_SURFACE ( 'NONE', #133, 0.08586404999999999732 ) ;
#223 = FACE_OUTER_BOUND ( 'NONE', #132, .T. ) ;
#224 = VERTEX_POINT ( 'NONE', #145 ) ;
#225 = AXIS2_PLACEMENT_3D ( 'NONE', #90, #318, #298 ) ;
#226 = VERTEX_POINT ( 'NONE', #242 ) ;
#227 = CYLINDRICAL_SURFACE ( 'NONE', #280, 0.09375000000000001388 ) ;
#228 = EDGE_LOOP ( 'NONE', ( #184, #76, #203, #35 ) ) ;
#229 = UNCERTAINTY_MEASURE_WITH_UNIT (LENGTH_MEASURE( 1.000000000000000082E-05 ), #50, 'distance_accuracy_value', 'NONE');
#230 =( NAMED_UNIT ( * ) PLANE_ANGLE_UNIT ( ) SI_UNIT ( $, .RADIAN. ) );
#231 = EDGE_LOOP ( 'NONE', ( #81, #46, #308 ) ) ;
#232 = FACE_OUTER_BOUND ( 'NONE', #29, .T. ) ;
#233 =( GEOMETRIC_REPRESENTATION_CONTEXT ( 3 ) GLOBAL_UNCERTAINTY_ASSIGNED_CONTEXT ( ( #30 ) ) GLOBAL_UNIT_ASSIGNED_CONTEXT ( ( #188, #13, #166 ) ) REPRESENTATION_CONTEXT ( 'NONE', 'WORKASPACE' ) );
#234 = CARTESIAN_POINT ( 'NONE',  ( 0.0000000000000000000, 0.0000000000000000000, 2.000000000000000000 ) ) ;
#235 = CARTESIAN_POINT ( 'NONE',  ( -0.09374999999999991673, 0.0000000000000000000, 0.6697234448654140193 ) ) ;
#236 = DIRECTION ( 'NONE',  ( 0.0000000000000000000, 0.0000000000000000000, 1.000000000000000000 ) ) ;
#237 = DIRECTION ( 'NONE',  ( 1.000000000000000000, 0.0000000000000000000, 0.0000000000000000000 ) ) ;
#238 =( GEOMETRIC_REPRESENTATION_CONTEXT ( 3 ) GLOBAL_UNCERTAINTY_ASSIGNED_CONTEXT ( ( #229 ) ) GLOBAL_UNIT_ASSIGNED_CONTEXT ( ( #50, #230, #286 ) ) REPRESENTATION_CONTEXT ( 'NONE', 'WORKASPACE' ) );
#239 = PRODUCT ( 'Micro_BEM-171-02X', 'Micro_BEM-171-02X', '', ( #15 ) ) ;
#240 = LINE ( 'NONE', #89, #65 ) ;
#241 = SPHERICAL_SURFACE ( 'NONE', #214, 0.08586404999999999732 ) ;
#242 = CARTESIAN_POINT ( 'NONE',  ( 0.09375000000000001388, 1.148106374200643863E-17, 1.984999999999999654 ) ) ;
#243 = AXIS2_PLACEMENT_3D ( 'NONE', #44, #236, #115 ) ;
#244 = DIRECTION ( 'NONE',  ( -1.000000000000000000, 0.0000000000000000000, 0.0000000000000000000 ) ) ;
#245 = EDGE_CURVE ( 'NONE', #253, #73, #170, .T. ) ;
#246 = DIRECTION ( 'NONE',  ( -0.0000000000000000000, -0.0000000000000000000, -1.000000000000000000 ) ) ;
#247 = ORIENTED_EDGE ( 'NONE', *, *, #77, .T. ) ;
#248 = ADVANCED_FACE ( 'NONE', ( #215 ), #149, .T. ) ;
#249 = FACE_OUTER_BOUND ( 'NONE', #52, .T. ) ;
#250 = ORIENTED_EDGE ( 'NONE', *, *, #83, .T. ) ;
#251 = CIRCLE ( 'NONE', #91, 0.08586404999999999732 ) ;
#252 = CARTESIAN_POINT ( 'NONE',  ( -0.09375000000000001388, 0.0000000000000000000, 2.000000000000000000 ) ) ;
#253 = VERTEX_POINT ( 'NONE', #27 ) ;
#254 = VERTEX_POINT ( 'NONE', #198 ) ;
#255 = PRODUCT_DEFINITION ( 'UNKNOWN', '', #296, #136 ) ;
#256 = ADVANCED_FACE ( 'NONE', ( #249 ), #131, .T. ) ;
#257 = ORIENTED_EDGE ( 'NONE', *, *, #163, .F. ) ;
#258 = CIRCLE ( 'NONE', #316, 0.09375000000000001388 ) ;
#259 = CARTESIAN_POINT ( 'NONE',  ( -0.09375000000000001388, 0.0000000000000000000, 1.984999999999999654 ) ) ;
#260 = ADVANCED_BREP_SHAPE_REPRESENTATION ( 'Micro_BEM-171-02X', ( #49, #307 ), #121 ) ;
#261 = SURFACE_SIDE_STYLE ('',( #185 ) ) ;
#262 = CARTESIAN_POINT ( 'NONE',  ( 7.654042494670957853E-17, 0.0000000000000000000, 0.6250000000000000000 ) ) ;
#263 = CIRCLE ( 'NONE', #142, 0.08586404999999999732 ) ;
#264 = DIRECTION ( 'NONE',  ( -1.224646799147353207E-16, -0.0000000000000000000, -1.000000000000000000 ) ) ;
#265 = CARTESIAN_POINT ( 'NONE',  ( 8.201746730683681886E-17, 0.0000000000000000000, 0.6697234448654140193 ) ) ;
#266 = PLANE ( 'NONE',  #317 ) ;
#267 = COLOUR_RGB ( '',0.7921568627450980005, 0.8196078431372548767, 0.9333333333333333481 ) ;
#268 = DIRECTION ( 'NONE',  ( 0.0000000000000000000, -1.000000000000000000, 0.0000000000000000000 ) ) ;
#269 = FACE_OUTER_BOUND ( 'NONE', #199, .T. ) ;
#270 = CARTESIAN_POINT ( 'NONE',  ( 0.08586405000000006671, 0.0000000000000000000, 0.6250000000000000000 ) ) ;
#271 = CARTESIAN_POINT ( 'NONE',  ( 7.654042494670957853E-17, 0.0000000000000000000, 0.6250000000000000000 ) ) ;
#272 = PRESENTATION_LAYER_ASSIGNMENT (  '', '', ( #86 ) ) ;
#273 = EDGE_CURVE ( 'NONE', #73, #253, #294, .T. ) ;
#274 = DIRECTION ( 'NONE',  ( -1.000000000000000000, 0.0000000000000000000, 0.0000000000000000000 ) ) ;
#275 = ORIENTED_EDGE ( 'NONE', *, *, #315, .T. ) ;
#276 = DIRECTION ( 'NONE',  ( 1.000000000000000000, 0.0000000000000000000, 0.0000000000000000000 ) ) ;
#277 = ORIENTED_EDGE ( 'NONE', *, *, #138, .F. ) ;
#278 = LENGTH_MEASURE_WITH_UNIT ( LENGTH_MEASURE( 0.02539999999999999897 ), #146 );
#279 = ORIENTED_EDGE ( 'NONE', *, *, #21, .F. ) ;
#280 = AXIS2_PLACEMENT_3D ( 'NONE', #96, #28, #244 ) ;
#281 = ADVANCED_FACE ( 'NONE', ( #223 ), #227, .T. ) ;
#282 = PRESENTATION_STYLE_ASSIGNMENT (( #101 ) ) ;
#283 = ORIENTED_EDGE ( 'NONE', *, *, #201, .F. ) ;
#284 = PRESENTATION_STYLE_ASSIGNMENT (( #140 ) ) ;
#285 = AXIS2_PLACEMENT_3D ( 'NONE', #299, #123, #129 ) ;
#286 =( NAMED_UNIT ( * ) SI_UNIT ( $, .STERADIAN. ) SOLID_ANGLE_UNIT ( ) );
#287 = CIRCLE ( 'NONE', #175, 0.09375000000000001388 ) ;
#288 = CARTESIAN_POINT ( 'NONE',  ( -0.07874999999999980627, 0.0000000000000000000, 2.000000000000000000 ) ) ;
#289 = CIRCLE ( 'NONE', #312, 0.08586404999999999732 ) ;
#290 = DIRECTION ( 'NONE',  ( -1.000000000000000000, 0.0000000000000000000, 1.988498092088789851E-16 ) ) ;
#291 = APPLICATION_CONTEXT ( 'automotive_design' ) ;
#292 = DIRECTION ( 'NONE',  ( 1.000000000000000000, 0.0000000000000000000, 0.0000000000000000000 ) ) ;
#293 = CARTESIAN_POINT ( 'NONE',  ( 0.0000000000000000000, 0.0000000000000000000, 2.000000000000000000 ) ) ;
#294 = CIRCLE ( 'NONE', #151, 0.07874999999999980627 ) ;
#295 = DIRECTION ( 'NONE',  ( -0.0000000000000000000, -0.0000000000000000000, -1.000000000000000000 ) ) ;
#296 = PRODUCT_DEFINITION_FORMATION_WITH_SPECIFIED_SOURCE ( 'ANY', '', #239, .NOT_KNOWN. ) ;
#297 = FACE_OUTER_BOUND ( 'NONE', #33, .T. ) ;
#298 = DIRECTION ( 'NONE',  ( 1.000000000000000000, 0.0000000000000000000, 0.0000000000000000000 ) ) ;
#299 = CARTESIAN_POINT ( 'NONE',  ( 1.051531339943283032E-17, 0.0000000000000000000, 0.08586404999999999732 ) ) ;
#300 = ORIENTED_EDGE ( 'NONE', *, *, #163, .T. ) ;
#301 = ORIENTED_EDGE ( 'NONE', *, *, #95, .T. ) ;
#302 = DIRECTION ( 'NONE',  ( 0.0000000000000000000, 1.000000000000000000, 0.0000000000000000000 ) ) ;
#303 = ORIENTED_EDGE ( 'NONE', *, *, #315, .F. ) ;
#304 =( CONVERSION_BASED_UNIT ( 'INCH', #205 ) LENGTH_UNIT ( ) NAMED_UNIT ( #305 ) );
#305 = DIMENSIONAL_EXPONENTS ( 1.000000000000000000, 0.0000000000000000000, 0.0000000000000000000, 0.0000000000000000000, 0.0000000000000000000, 0.0000000000000000000, 0.0000000000000000000 ) ;
#306 = VECTOR ( 'NONE', #25, 39.37007874015748143 ) ;
#307 = AXIS2_PLACEMENT_3D ( 'NONE', #157, #12, #84 ) ;
#308 = ORIENTED_EDGE ( 'NONE', *, *, #311, .F. ) ;
#309 = CARTESIAN_POINT ( 'NONE',  ( 0.0000000000000000000, 0.0000000000000000000, 1.984999999999999654 ) ) ;
#310 = ORIENTED_EDGE ( 'NONE', *, *, #14, .T. ) ;
#311 = EDGE_CURVE ( 'NONE', #254, #176, #98, .T. ) ;
#312 = AXIS2_PLACEMENT_3D ( 'NONE', #8, #113, #290 ) ;
#313 = CARTESIAN_POINT ( 'NONE',  ( 0.0000000000000000000, 0.0000000000000000000, 0.0000000000000000000 ) ) ;
#314 = DIRECTION ( 'NONE',  ( -1.224646799147353207E-16, -0.0000000000000000000, -1.000000000000000000 ) ) ;
#315 = EDGE_CURVE ( 'NONE', #2, #78, #127, .T. ) ;
#316 = AXIS2_PLACEMENT_3D ( 'NONE', #265, #39, #19 ) ;
#317 = AXIS2_PLACEMENT_3D ( 'NONE', #293, #64, #196 ) ;
#318 = DIRECTION ( 'NONE',  ( 0.0000000000000000000, 0.0000000000000000000, -1.000000000000000000 ) ) ;
#319 = DIRECTION ( 'NONE',  ( -1.000000000000000000, 0.0000000000000000000, 0.0000000000000000000 ) ) ;
#320 = DIRECTION ( 'NONE',  ( -0.1736481776669311639, 2.126576849575782392E-17, 0.9848077530122080203 ) ) ;
#321 = VECTOR ( 'NONE', #197, 39.37007874015748143 ) ;
#322 = LINE ( 'NONE', #66, #321 ) ;
#323 = LINE ( 'NONE', #94, #70 ) ;
#324 = APPLICATION_CONTEXT ( 'automotive_design' ) ;
#325 = CONICAL_SURFACE ( 'NONE', #37, 0.08586404999999999732, 0.1745329251994338360 ) ;
ENDSEC;
END-ISO-10303-21;
