ISO-10303-21;
HEADER;
FILE_DESCRIPTION (( 'STEP AP214' ),
    '1' );
FILE_NAME ('Micro_SFP-125-24.STEP',
    '2021-09-02T06:01:52',
    ( '' ),
    ( '' ),
    'SwSTEP 2.0',
    'SolidWorks 2020',
    '' );
FILE_SCHEMA (( 'AUTOMOTIVE_DESIGN' ));
ENDSEC;

DATA;
#1 = CARTESIAN_POINT ( 'NONE',  ( 9.364125142994979186E-34, 0.0000000000000000000, 7.646388452176288915E-18 ) ) ;
#2 = DIMENSIONAL_EXPONENTS ( 1.000000000000000000, 0.0000000000000000000, 0.0000000000000000000, 0.0000000000000000000, 0.0000000000000000000, 0.0000000000000000000, 0.0000000000000000000 ) ;
#3 = VECTOR ( 'NONE', #9, 39.37007874015748143 ) ;
#4 = VERTEX_POINT ( 'NONE', #136 ) ;
#5 = ORIENTED_EDGE ( 'NONE', *, *, #46, .T. ) ;
#6 = ADVANCED_FACE ( 'NONE', ( #280 ), #140, .F. ) ;
#7 = ORIENTED_EDGE ( 'NONE', *, *, #79, .F. ) ;
#8 = STYLED_ITEM ( 'NONE', ( #68 ), #186 ) ;
#9 = DIRECTION ( 'NONE',  ( -0.0000000000000000000, -0.0000000000000000000, -1.000000000000000000 ) ) ;
#10 = DIRECTION ( 'NONE',  ( 1.224646799147353454E-16, 0.0000000000000000000, 1.000000000000000000 ) ) ;
#11 = DIRECTION ( 'NONE',  ( -1.224646799147353454E-16, -0.0000000000000000000, -1.000000000000000000 ) ) ;
#12 = CYLINDRICAL_SURFACE ( 'NONE', #56, 0.06250000000000000000 ) ;
#13 = STYLED_ITEM ( 'NONE', ( #197 ), #188 ) ;
#14 = ORIENTED_EDGE ( 'NONE', *, *, #203, .T. ) ;
#15 = DIRECTION ( 'NONE',  ( -1.000000000000000000, 0.0000000000000000000, 0.0000000000000000000 ) ) ;
#16 = SURFACE_STYLE_USAGE ( .BOTH. , #135 ) ;
#17 = ORIENTED_EDGE ( 'NONE', *, *, #99, .F. ) ;
#18 = FILL_AREA_STYLE_COLOUR ( '', #60 ) ;
#19 = CARTESIAN_POINT ( 'NONE',  ( -0.04750000000000064587, 0.0000000000000000000, 1.500000000000000222 ) ) ;
#20 = EDGE_CURVE ( 'NONE', #163, #53, #235, .T. ) ;
#21 = CARTESIAN_POINT ( 'NONE',  ( 0.0000000000000000000, 0.0000000000000000000, 1.500000000000000222 ) ) ;
#22 = CARTESIAN_POINT ( 'NONE',  ( -0.06243749999999999994, 0.0000000000000000000, 7.646388452176288915E-18 ) ) ;
#23 = VERTEX_POINT ( 'NONE', #166 ) ;
#24 = CARTESIAN_POINT ( 'NONE',  ( 0.06243750000000005546, 0.0000000000000000000, 0.5000000000000000000 ) ) ;
#25 = AXIS2_PLACEMENT_3D ( 'NONE', #269, #128, #250 ) ;
#26 = VERTEX_POINT ( 'NONE', #142 ) ;
#27 = EDGE_LOOP ( 'NONE', ( #240, #190, #213, #17 ) ) ;
#28 = VERTEX_POINT ( 'NONE', #232 ) ;
#29 = APPLICATION_CONTEXT ( 'automotive_design' ) ;
#30 = ORIENTED_EDGE ( 'NONE', *, *, #263, .T. ) ;
#31 = AXIS2_PLACEMENT_3D ( 'NONE', #177, #144, #72 ) ;
#32 = EDGE_CURVE ( 'NONE', #48, #28, #251, .T. ) ;
#33 = CARTESIAN_POINT ( 'NONE',  ( 0.06243750000000001382, 7.646388452176287375E-18, 0.0000000000000000000 ) ) ;
#34 = APPLICATION_PROTOCOL_DEFINITION ( 'draft international standard', 'automotive_design', 1998, #29 ) ;
#35 = CARTESIAN_POINT ( 'NONE',  ( 0.0000000000000000000, 0.0000000000000000000, 1.500000000000000222 ) ) ;
#36 = DIRECTION ( 'NONE',  ( -1.224646799147353454E-16, -0.0000000000000000000, -1.000000000000000000 ) ) ;
#37 = EDGE_CURVE ( 'NONE', #163, #48, #95, .T. ) ;
#38 = AXIS2_PLACEMENT_3D ( 'NONE', #101, #191, #264 ) ;
#39 = PRODUCT_CONTEXT ( 'NONE', #252, 'mechanical' ) ;
#40 = DIRECTION ( 'NONE',  ( -1.000000000000000000, 0.0000000000000000000, 0.0000000000000000000 ) ) ;
#41 = FACE_OUTER_BOUND ( 'NONE', #165, .T. ) ;
#42 = CLOSED_SHELL ( 'NONE', ( #200, #175, #88, #284, #130, #246, #184, #82, #90, #6 ) ) ;
#43 = CIRCLE ( 'NONE', #100, 0.04750000000000064587 ) ;
#44 = AXIS2_PLACEMENT_3D ( 'NONE', #108, #199, #253 ) ;
#45 = DIRECTION ( 'NONE',  ( 0.0000000000000000000, 0.0000000000000000000, 1.000000000000000000 ) ) ;
#46 = EDGE_CURVE ( 'NONE', #281, #4, #288, .T. ) ;
#47 = CIRCLE ( 'NONE', #70, 0.06250000000000000000 ) ;
#48 = VERTEX_POINT ( 'NONE', #33 ) ;
#49 = PRODUCT_DEFINITION_CONTEXT ( 'detailed design', #29, 'design' ) ;
#50 = ORIENTED_EDGE ( 'NONE', *, *, #141, .T. ) ;
#51 = CIRCLE ( 'NONE', #64, 0.06250000000000000000 ) ;
#52 = EDGE_LOOP ( 'NONE', ( #285, #272, #226, #7 ) ) ;
#53 = VERTEX_POINT ( 'NONE', #221 ) ;
#54 = DIRECTION ( 'NONE',  ( 1.000000000000000000, 0.0000000000000000000, 0.0000000000000000000 ) ) ;
#55 = DIRECTION ( 'NONE',  ( 1.000000000000000000, 0.0000000000000000000, 0.0000000000000000000 ) ) ;
#56 = AXIS2_PLACEMENT_3D ( 'NONE', #35, #148, #195 ) ;
#57 = DIRECTION ( 'NONE',  ( 1.000000000000000000, 0.0000000000000000000, 0.0000000000000000000 ) ) ;
#58 = CARTESIAN_POINT ( 'NONE',  ( 0.0000000000000000000, 0.0000000000000000000, 1.485000000000000764 ) ) ;
#59 = DIRECTION ( 'NONE',  ( -1.224646799147353454E-16, -0.0000000000000000000, -1.000000000000000000 ) ) ;
#60 = COLOUR_RGB ( '',0.7921568627450980005, 0.8196078431372548767, 0.9333333333333333481 ) ;
#61 = FACE_OUTER_BOUND ( 'NONE', #174, .T. ) ;
#62 = CARTESIAN_POINT ( 'NONE',  ( 0.06250000000000000000, 7.654042494670956004E-18, 1.485000000000000764 ) ) ;
#63 =( GEOMETRIC_REPRESENTATION_CONTEXT ( 3 ) GLOBAL_UNCERTAINTY_ASSIGNED_CONTEXT ( ( #278 ) ) GLOBAL_UNIT_ASSIGNED_CONTEXT ( ( #160, #97, #76 ) ) REPRESENTATION_CONTEXT ( 'NONE', 'WORKASPACE' ) );
#64 = AXIS2_PLACEMENT_3D ( 'NONE', #106, #287, #103 ) ;
#65 =( NAMED_UNIT ( * ) SI_UNIT ( $, .STERADIAN. ) SOLID_ANGLE_UNIT ( ) );
#66 = DIRECTION ( 'NONE',  ( -1.000000000000000000, 0.0000000000000000000, 0.0000000000000000000 ) ) ;
#67 = EDGE_LOOP ( 'NONE', ( #50, #179 ) ) ;
#68 = PRESENTATION_STYLE_ASSIGNMENT (( #231 ) ) ;
#69 = EDGE_LOOP ( 'NONE', ( #30, #183, #98, #289 ) ) ;
#70 = AXIS2_PLACEMENT_3D ( 'NONE', #290, #170, #248 ) ;
#71 = EDGE_LOOP ( 'NONE', ( #158, #257, #74, #75 ) ) ;
#72 = DIRECTION ( 'NONE',  ( 1.000000000000000000, 0.0000000000000000000, 0.0000000000000000000 ) ) ;
#73 = EDGE_CURVE ( 'NONE', #163, #283, #194, .T. ) ;
#74 = ORIENTED_EDGE ( 'NONE', *, *, #137, .T. ) ;
#75 = ORIENTED_EDGE ( 'NONE', *, *, #20, .F. ) ;
#76 =( NAMED_UNIT ( * ) SI_UNIT ( $, .STERADIAN. ) SOLID_ANGLE_UNIT ( ) );
#77 = AXIS2_PLACEMENT_3D ( 'NONE', #58, #222, #57 ) ;
#78 = EDGE_LOOP ( 'NONE', ( #241, #297, #259, #80 ) ) ;
#79 = EDGE_CURVE ( 'NONE', #53, #26, #51, .T. ) ;
#80 = ORIENTED_EDGE ( 'NONE', *, *, #196, .F. ) ;
#81 = FACE_OUTER_BOUND ( 'NONE', #282, .T. ) ;
#82 = ADVANCED_FACE ( 'NONE', ( #81 ), #152, .T. ) ;
#83 = FACE_OUTER_BOUND ( 'NONE', #147, .T. ) ;
#84 = ORIENTED_EDGE ( 'NONE', *, *, #37, .T. ) ;
#85 = CARTESIAN_POINT ( 'NONE',  ( 9.364125142994979186E-34, 0.0000000000000000000, 7.646388452176288915E-18 ) ) ;
#86 = VECTOR ( 'NONE', #258, 39.37007874015748143 ) ;
#87 = CARTESIAN_POINT ( 'NONE',  ( 0.06250000000000000000, 7.654042494670956004E-18, 1.500000000000000222 ) ) ;
#88 = ADVANCED_FACE ( 'NONE', ( #268 ), #120, .T. ) ;
#89 = PRESENTATION_LAYER_ASSIGNMENT (  '', '', ( #8 ) ) ;
#90 = ADVANCED_FACE ( 'NONE', ( #83 ), #131, .T. ) ;
#91 = DIRECTION ( 'NONE',  ( 1.000000000000000000, 0.0000000000000000000, -0.0000000000000000000 ) ) ;
#92 = SURFACE_SIDE_STYLE ('',( #185 ) ) ;
#93 = DIRECTION ( 'NONE',  ( -1.224646799147353454E-16, -0.0000000000000000000, -1.000000000000000000 ) ) ;
#94 = CONICAL_SURFACE ( 'NONE', #286, 0.04750000000000064587, 0.7853981633974457255 ) ;
#95 = LINE ( 'NONE', #180, #86 ) ;
#96 = ORIENTED_EDGE ( 'NONE', *, *, #233, .F. ) ;
#97 =( NAMED_UNIT ( * ) PLANE_ANGLE_UNIT ( ) SI_UNIT ( $, .RADIAN. ) );
#98 = ORIENTED_EDGE ( 'NONE', *, *, #137, .F. ) ;
#99 = EDGE_CURVE ( 'NONE', #260, #23, #105, .T. ) ;
#100 = AXIS2_PLACEMENT_3D ( 'NONE', #21, #45, #113 ) ;
#101 = CARTESIAN_POINT ( 'NONE',  ( 6.123233995736767268E-17, 0.0000000000000000000, 0.5000000000000000000 ) ) ;
#102 = CARTESIAN_POINT ( 'NONE',  ( 0.0000000000000000000, 0.0000000000000000000, 1.500000000000000222 ) ) ;
#103 = DIRECTION ( 'NONE',  ( 1.000000000000000000, 0.0000000000000000000, 0.0000000000000000000 ) ) ;
#104 =( GEOMETRIC_REPRESENTATION_CONTEXT ( 3 ) GLOBAL_UNCERTAINTY_ASSIGNED_CONTEXT ( ( #207 ) ) GLOBAL_UNIT_ASSIGNED_CONTEXT ( ( #182, #157, #208 ) ) REPRESENTATION_CONTEXT ( 'NONE', 'WORKASPACE' ) );
#105 = CIRCLE ( 'NONE', #77, 0.06250000000000000000 ) ;
#106 = CARTESIAN_POINT ( 'NONE',  ( 6.127574818941428501E-17, 0.0000000000000000000, 0.5003544551137261154 ) ) ;
#107 = FACE_OUTER_BOUND ( 'NONE', #52, .T. ) ;
#108 = CARTESIAN_POINT ( 'NONE',  ( 0.0000000000000000000, 0.0000000000000000000, 0.0000000000000000000 ) ) ;
#109 = VECTOR ( 'NONE', #126, 39.37007874015747433 ) ;
#110 = VECTOR ( 'NONE', #116, 39.37007874015748143 ) ;
#111 = LINE ( 'NONE', #22, #110 ) ;
#112 =( CONVERSION_BASED_UNIT ( 'INCH', #292 ) LENGTH_UNIT ( ) NAMED_UNIT ( #119 ) );
#113 = DIRECTION ( 'NONE',  ( 1.000000000000000000, 0.0000000000000000000, 0.0000000000000000000 ) ) ;
#114 = AXIS2_PLACEMENT_3D ( 'NONE', #171, #243, #54 ) ;
#115 = PRESENTATION_LAYER_ASSIGNMENT (  '', '', ( #13 ) ) ;
#116 = DIRECTION ( 'NONE',  ( -1.224646799147353454E-16, -0.0000000000000000000, -1.000000000000000000 ) ) ;
#117 = ORIENTED_EDGE ( 'NONE', *, *, #20, .T. ) ;
#118 = ORIENTED_EDGE ( 'NONE', *, *, #141, .F. ) ;
#119 = DIMENSIONAL_EXPONENTS ( 1.000000000000000000, 0.0000000000000000000, 0.0000000000000000000, 0.0000000000000000000, 0.0000000000000000000, 0.0000000000000000000, 0.0000000000000000000 ) ;
#120 = CONICAL_SURFACE ( 'NONE', #238, 0.04750000000000064587, 0.7853981633974457255 ) ;
#121 = CARTESIAN_POINT ( 'NONE',  ( 0.0000000000000000000, 0.0000000000000000000, 0.0000000000000000000 ) ) ;
#122 =( LENGTH_UNIT ( ) NAMED_UNIT ( * ) SI_UNIT ( $, .METRE. ) );
#123 = ORIENTED_EDGE ( 'NONE', *, *, #32, .F. ) ;
#124 = EDGE_CURVE ( 'NONE', #23, #26, #244, .T. ) ;
#125 = ORIENTED_EDGE ( 'NONE', *, *, #79, .T. ) ;
#126 = DIRECTION ( 'NONE',  ( 0.1736481776669312194, 0.0000000000000000000, 0.9848077530122080203 ) ) ;
#127 = VECTOR ( 'NONE', #273, 39.37007874015748143 ) ;
#128 = DIRECTION ( 'NONE',  ( -1.224646799147353454E-16, -0.0000000000000000000, -1.000000000000000000 ) ) ;
#129 = DIMENSIONAL_EXPONENTS ( 1.000000000000000000, 0.0000000000000000000, 0.0000000000000000000, 0.0000000000000000000, 0.0000000000000000000, 0.0000000000000000000, 0.0000000000000000000 ) ;
#130 = ADVANCED_FACE ( 'NONE', ( #107 ), #12, .T. ) ;
#131 = CYLINDRICAL_SURFACE ( 'NONE', #25, 0.06243749999999999994 ) ;
#132 = PRODUCT_DEFINITION_FORMATION_WITH_SPECIFIED_SOURCE ( 'ANY', '', #216, .NOT_KNOWN. ) ;
#133 = AXIS2_PLACEMENT_3D ( 'NONE', #167, #10, #267 ) ;
#134 = AXIS2_PLACEMENT_3D ( 'NONE', #1, #93, #209 ) ;
#135 = SURFACE_SIDE_STYLE ('',( #225 ) ) ;
#136 = CARTESIAN_POINT ( 'NONE',  ( -0.04750000000000064587, 0.0000000000000000000, 1.500000000000000222 ) ) ;
#137 = EDGE_CURVE ( 'NONE', #26, #53, #47, .T. ) ;
#138 = CARTESIAN_POINT ( 'NONE',  ( 0.0000000000000000000, 0.0000000000000000000, 1.500000000000000222 ) ) ;
#139 = ORIENTED_EDGE ( 'NONE', *, *, #73, .F. ) ;
#140 = PLANE ( 'NONE',  #206 ) ;
#141 = EDGE_CURVE ( 'NONE', #28, #48, #168, .T. ) ;
#142 = CARTESIAN_POINT ( 'NONE',  ( -0.06249999999999993755, 0.0000000000000000000, 0.5003544551137261154 ) ) ;
#143 = CARTESIAN_POINT ( 'NONE',  ( 6.123233995736767268E-17, 0.0000000000000000000, 0.5000000000000000000 ) ) ;
#144 = DIRECTION ( 'NONE',  ( 0.0000000000000000000, 0.0000000000000000000, -1.000000000000000000 ) ) ;
#145 = AXIS2_PLACEMENT_3D ( 'NONE', #138, #169, #55 ) ;
#146 = FACE_OUTER_BOUND ( 'NONE', #27, .T. ) ;
#147 = EDGE_LOOP ( 'NONE', ( #294, #153, #237, #123 ) ) ;
#148 = DIRECTION ( 'NONE',  ( -0.0000000000000000000, -0.0000000000000000000, -1.000000000000000000 ) ) ;
#149 = SHAPE_DEFINITION_REPRESENTATION ( #256, #186 ) ;
#150 = EDGE_CURVE ( 'NONE', #283, #163, #249, .T. ) ;
#151 = CARTESIAN_POINT ( 'NONE',  ( 0.0000000000000000000, 0.0000000000000000000, 1.500000000000000222 ) ) ;
#152 = CONICAL_SURFACE ( 'NONE', #133, 0.06243749999999999301, 0.1745329251994336972 ) ;
#153 = ORIENTED_EDGE ( 'NONE', *, *, #73, .T. ) ;
#154 = CARTESIAN_POINT ( 'NONE',  ( 0.04750000000000064587, 5.817072295950006528E-18, 1.500000000000000222 ) ) ;
#155 = DIRECTION ( 'NONE',  ( -0.1736481776669309696, 2.126576849575780543E-17, 0.9848077530122080203 ) ) ;
#156 = UNCERTAINTY_MEASURE_WITH_UNIT (LENGTH_MEASURE( 1.000000000000000082E-05 ), #112, 'distance_accuracy_value', 'NONE');
#157 =( NAMED_UNIT ( * ) PLANE_ANGLE_UNIT ( ) SI_UNIT ( $, .RADIAN. ) );
#158 = ORIENTED_EDGE ( 'NONE', *, *, #150, .F. ) ;
#159 = CIRCLE ( 'NONE', #31, 0.06250000000000000000 ) ;
#160 =( CONVERSION_BASED_UNIT ( 'INCH', #187 ) LENGTH_UNIT ( ) NAMED_UNIT ( #2 ) );
#161 = DIRECTION ( 'NONE',  ( 1.000000000000000000, 0.0000000000000000000, -0.0000000000000000000 ) ) ;
#162 = DIRECTION ( 'NONE',  ( -0.0000000000000000000, -0.0000000000000000000, -1.000000000000000000 ) ) ;
#163 = VERTEX_POINT ( 'NONE', #192 ) ;
#164 = CYLINDRICAL_SURFACE ( 'NONE', #181, 0.06250000000000000000 ) ;
#165 = EDGE_LOOP ( 'NONE', ( #205, #84, #118, #215 ) ) ;
#166 = CARTESIAN_POINT ( 'NONE',  ( -0.06250000000000000000, 0.0000000000000000000, 1.485000000000000764 ) ) ;
#167 = CARTESIAN_POINT ( 'NONE',  ( 6.123233995736767268E-17, 0.0000000000000000000, 0.5000000000000000000 ) ) ;
#168 = CIRCLE ( 'NONE', #211, 0.06243750000000001382 ) ;
#169 = DIRECTION ( 'NONE',  ( 0.0000000000000000000, 0.0000000000000000000, 1.000000000000000000 ) ) ;
#170 = DIRECTION ( 'NONE',  ( -1.224646799147353454E-16, -0.0000000000000000000, -1.000000000000000000 ) ) ;
#171 = CARTESIAN_POINT ( 'NONE',  ( 0.0000000000000000000, 0.0000000000000000000, 0.0000000000000000000 ) ) ;
#172 = DIRECTION ( 'NONE',  ( -1.000000000000000000, 0.0000000000000000000, 1.224646799147353207E-16 ) ) ;
#173 = MECHANICAL_DESIGN_GEOMETRIC_PRESENTATION_REPRESENTATION (  '', ( #8 ), #63 ) ;
#174 = EDGE_LOOP ( 'NONE', ( #14, #5 ) ) ;
#175 = ADVANCED_FACE ( 'NONE', ( #218 ), #212, .T. ) ;
#176 = LINE ( 'NONE', #154, #198 ) ;
#177 = CARTESIAN_POINT ( 'NONE',  ( 0.0000000000000000000, 0.0000000000000000000, 1.485000000000000764 ) ) ;
#178 =( LENGTH_UNIT ( ) NAMED_UNIT ( * ) SI_UNIT ( $, .METRE. ) );
#179 = ORIENTED_EDGE ( 'NONE', *, *, #32, .T. ) ;
#180 = CARTESIAN_POINT ( 'NONE',  ( 0.06243749999999999994, 7.646388452176287375E-18, -7.646388452176288915E-18 ) ) ;
#181 = AXIS2_PLACEMENT_3D ( 'NONE', #236, #162, #217 ) ;
#182 =( CONVERSION_BASED_UNIT ( 'INCH', #214 ) LENGTH_UNIT ( ) NAMED_UNIT ( #129 ) );
#183 = ORIENTED_EDGE ( 'NONE', *, *, #242, .T. ) ;
#184 = ADVANCED_FACE ( 'NONE', ( #146 ), #94, .T. ) ;
#185 = SURFACE_STYLE_FILL_AREA ( #279 ) ;
#186 = ADVANCED_BREP_SHAPE_REPRESENTATION ( 'Micro_SFP-125-24', ( #188, #114 ), #104 ) ;
#187 = LENGTH_MEASURE_WITH_UNIT ( LENGTH_MEASURE( 0.02539999999999999897 ), #122 );
#188 = MANIFOLD_SOLID_BREP ( 'Cut-Revolve1', #42 ) ;
#189 =( GEOMETRIC_REPRESENTATION_CONTEXT ( 3 ) GLOBAL_UNCERTAINTY_ASSIGNED_CONTEXT ( ( #156 ) ) GLOBAL_UNIT_ASSIGNED_CONTEXT ( ( #112, #228, #65 ) ) REPRESENTATION_CONTEXT ( 'NONE', 'WORKASPACE' ) );
#190 = ORIENTED_EDGE ( 'NONE', *, *, #203, .F. ) ;
#191 = DIRECTION ( 'NONE',  ( 1.224646799147353454E-16, 0.0000000000000000000, 1.000000000000000000 ) ) ;
#192 = CARTESIAN_POINT ( 'NONE',  ( 0.06243750000000005546, 0.0000000000000000000, 0.5000000000000000000 ) ) ;
#193 = DIRECTION ( 'NONE',  ( -1.000000000000000000, 0.0000000000000000000, 0.0000000000000000000 ) ) ;
#194 = CIRCLE ( 'NONE', #265, 0.06243749999999999301 ) ;
#195 = DIRECTION ( 'NONE',  ( -1.000000000000000000, 0.0000000000000000000, 0.0000000000000000000 ) ) ;
#196 = EDGE_CURVE ( 'NONE', #4, #23, #274, .T. ) ;
#197 = PRESENTATION_STYLE_ASSIGNMENT (( #16 ) ) ;
#198 = VECTOR ( 'NONE', #229, 39.37007874015748143 ) ;
#199 = DIRECTION ( 'NONE',  ( -1.224646799147353454E-16, -0.0000000000000000000, -1.000000000000000000 ) ) ;
#200 = ADVANCED_FACE ( 'NONE', ( #41 ), #224, .T. ) ;
#201 = DIRECTION ( 'NONE',  ( -0.7071067811865456854, 0.0000000000000000000, -0.7071067811865493491 ) ) ;
#202 = LINE ( 'NONE', #87, #127 ) ;
#203 = EDGE_CURVE ( 'NONE', #4, #281, #43, .T. ) ;
#204 = CARTESIAN_POINT ( 'NONE',  ( 0.04750000000000064587, 6.735557395310482421E-18, 1.500000000000000222 ) ) ;
#205 = ORIENTED_EDGE ( 'NONE', *, *, #150, .T. ) ;
#206 = AXIS2_PLACEMENT_3D ( 'NONE', #121, #262, #161 ) ;
#207 = UNCERTAINTY_MEASURE_WITH_UNIT (LENGTH_MEASURE( 1.000000000000000082E-05 ), #182, 'distance_accuracy_value', 'NONE');
#208 =( NAMED_UNIT ( * ) SI_UNIT ( $, .STERADIAN. ) SOLID_ANGLE_UNIT ( ) );
#209 = DIRECTION ( 'NONE',  ( -1.000000000000000000, 0.0000000000000000000, 1.224646799147353207E-16 ) ) ;
#210 = PRODUCT_DEFINITION ( 'UNKNOWN', '', #132, #49 ) ;
#211 = AXIS2_PLACEMENT_3D ( 'NONE', #85, #36, #172 ) ;
#212 = CONICAL_SURFACE ( 'NONE', #38, 0.06243749999999999301, 0.1745329251994336972 ) ;
#213 = ORIENTED_EDGE ( 'NONE', *, *, #196, .T. ) ;
#214 = LENGTH_MEASURE_WITH_UNIT ( LENGTH_MEASURE( 0.02539999999999999897 ), #178 );
#215 = ORIENTED_EDGE ( 'NONE', *, *, #275, .F. ) ;
#216 = PRODUCT ( 'Micro_SFP-125-24', 'Micro_SFP-125-24', '', ( #39 ) ) ;
#217 = DIRECTION ( 'NONE',  ( -1.000000000000000000, 0.0000000000000000000, 0.0000000000000000000 ) ) ;
#218 = FACE_OUTER_BOUND ( 'NONE', #71, .T. ) ;
#219 = MECHANICAL_DESIGN_GEOMETRIC_PRESENTATION_REPRESENTATION (  '', ( #13 ), #189 ) ;
#220 = CARTESIAN_POINT ( 'NONE',  ( 6.123233995736767268E-17, 0.0000000000000000000, 0.5000000000000000000 ) ) ;
#221 = CARTESIAN_POINT ( 'NONE',  ( 0.06250000000000005551, 7.654042494670962167E-18, 0.5003544551137261154 ) ) ;
#222 = DIRECTION ( 'NONE',  ( 0.0000000000000000000, 0.0000000000000000000, -1.000000000000000000 ) ) ;
#223 = COLOUR_RGB ( '',0.7921568627450980005, 0.8196078431372548767, 0.9333333333333333481 ) ;
#224 = CYLINDRICAL_SURFACE ( 'NONE', #44, 0.06243749999999999994 ) ;
#225 = SURFACE_STYLE_FILL_AREA ( #254 ) ;
#226 = ORIENTED_EDGE ( 'NONE', *, *, #124, .T. ) ;
#227 = CARTESIAN_POINT ( 'NONE',  ( -0.06243749999999993749, 7.646388452176285834E-18, 0.5000000000000000000 ) ) ;
#228 =( NAMED_UNIT ( * ) PLANE_ANGLE_UNIT ( ) SI_UNIT ( $, .RADIAN. ) );
#229 = DIRECTION ( 'NONE',  ( 0.7071067811865456854, 8.659560562354911904E-17, -0.7071067811865493491 ) ) ;
#230 = VECTOR ( 'NONE', #201, 39.37007874015748143 ) ;
#231 = SURFACE_STYLE_USAGE ( .BOTH. , #92 ) ;
#232 = CARTESIAN_POINT ( 'NONE',  ( -0.06243750000000001382, 0.0000000000000000000, 1.529277690435257783E-17 ) ) ;
#233 = EDGE_CURVE ( 'NONE', #283, #26, #295, .T. ) ;
#234 = FILL_AREA_STYLE_COLOUR ( '', #223 ) ;
#235 = LINE ( 'NONE', #24, #109 ) ;
#236 = CARTESIAN_POINT ( 'NONE',  ( 0.0000000000000000000, 0.0000000000000000000, 1.500000000000000222 ) ) ;
#237 = ORIENTED_EDGE ( 'NONE', *, *, #275, .T. ) ;
#238 = AXIS2_PLACEMENT_3D ( 'NONE', #102, #291, #15 ) ;
#239 = APPLICATION_PROTOCOL_DEFINITION ( 'draft international standard', 'automotive_design', 1998, #252 ) ;
#240 = ORIENTED_EDGE ( 'NONE', *, *, #266, .F. ) ;
#241 = ORIENTED_EDGE ( 'NONE', *, *, #46, .F. ) ;
#242 = EDGE_CURVE ( 'NONE', #260, #53, #202, .T. ) ;
#243 = DIRECTION ( 'NONE',  ( 0.0000000000000000000, 0.0000000000000000000, 1.000000000000000000 ) ) ;
#244 = LINE ( 'NONE', #247, #3 ) ;
#245 = CARTESIAN_POINT ( 'NONE',  ( 0.0000000000000000000, 0.0000000000000000000, 1.500000000000000222 ) ) ;
#246 = ADVANCED_FACE ( 'NONE', ( #61 ), #299, .T. ) ;
#247 = CARTESIAN_POINT ( 'NONE',  ( -0.06250000000000000000, 0.0000000000000000000, 1.500000000000000222 ) ) ;
#248 = DIRECTION ( 'NONE',  ( 1.000000000000000000, 0.0000000000000000000, 0.0000000000000000000 ) ) ;
#249 = CIRCLE ( 'NONE', #298, 0.06243749999999999301 ) ;
#250 = DIRECTION ( 'NONE',  ( -1.000000000000000000, 0.0000000000000000000, 1.224646799147353700E-16 ) ) ;
#251 = CIRCLE ( 'NONE', #134, 0.06243750000000001382 ) ;
#252 = APPLICATION_CONTEXT ( 'automotive_design' ) ;
#253 = DIRECTION ( 'NONE',  ( -1.000000000000000000, 0.0000000000000000000, 1.224646799147353700E-16 ) ) ;
#254 = FILL_AREA_STYLE ('',( #18 ) ) ;
#255 = PRODUCT_RELATED_PRODUCT_CATEGORY ( 'part', '', ( #216 ) ) ;
#256 = PRODUCT_DEFINITION_SHAPE ( 'NONE', 'NONE',  #210 ) ;
#257 = ORIENTED_EDGE ( 'NONE', *, *, #233, .T. ) ;
#258 = DIRECTION ( 'NONE',  ( -1.224646799147353454E-16, -0.0000000000000000000, -1.000000000000000000 ) ) ;
#259 = ORIENTED_EDGE ( 'NONE', *, *, #263, .F. ) ;
#260 = VERTEX_POINT ( 'NONE', #62 ) ;
#261 = FACE_OUTER_BOUND ( 'NONE', #69, .T. ) ;
#262 = DIRECTION ( 'NONE',  ( 0.0000000000000000000, 0.0000000000000000000, 1.000000000000000000 ) ) ;
#263 = EDGE_CURVE ( 'NONE', #23, #260, #159, .T. ) ;
#264 = DIRECTION ( 'NONE',  ( 1.000000000000000000, 0.0000000000000000000, 0.0000000000000000000 ) ) ;
#265 = AXIS2_PLACEMENT_3D ( 'NONE', #143, #11, #193 ) ;
#266 = EDGE_CURVE ( 'NONE', #281, #260, #176, .T. ) ;
#267 = DIRECTION ( 'NONE',  ( 1.000000000000000000, 0.0000000000000000000, 0.0000000000000000000 ) ) ;
#268 = FACE_OUTER_BOUND ( 'NONE', #78, .T. ) ;
#269 = CARTESIAN_POINT ( 'NONE',  ( 0.0000000000000000000, 0.0000000000000000000, 0.0000000000000000000 ) ) ;
#270 = VECTOR ( 'NONE', #155, 39.37007874015748854 ) ;
#271 = CARTESIAN_POINT ( 'NONE',  ( -0.06243749999999993749, 7.650215473423621689E-18, 0.5000000000000000000 ) ) ;
#272 = ORIENTED_EDGE ( 'NONE', *, *, #99, .T. ) ;
#273 = DIRECTION ( 'NONE',  ( -0.0000000000000000000, -0.0000000000000000000, -1.000000000000000000 ) ) ;
#274 = LINE ( 'NONE', #19, #230 ) ;
#275 = EDGE_CURVE ( 'NONE', #283, #28, #111, .T. ) ;
#276 =( LENGTH_UNIT ( ) NAMED_UNIT ( * ) SI_UNIT ( $, .METRE. ) );
#277 = DIRECTION ( 'NONE',  ( 0.0000000000000000000, 0.0000000000000000000, -1.000000000000000000 ) ) ;
#278 = UNCERTAINTY_MEASURE_WITH_UNIT (LENGTH_MEASURE( 1.000000000000000082E-05 ), #160, 'distance_accuracy_value', 'NONE');
#279 = FILL_AREA_STYLE ('',( #234 ) ) ;
#280 = FACE_OUTER_BOUND ( 'NONE', #67, .T. ) ;
#281 = VERTEX_POINT ( 'NONE', #204 ) ;
#282 = EDGE_LOOP ( 'NONE', ( #96, #139, #117, #125 ) ) ;
#283 = VERTEX_POINT ( 'NONE', #271 ) ;
#284 = ADVANCED_FACE ( 'NONE', ( #261 ), #164, .T. ) ;
#285 = ORIENTED_EDGE ( 'NONE', *, *, #242, .F. ) ;
#286 = AXIS2_PLACEMENT_3D ( 'NONE', #245, #277, #66 ) ;
#287 = DIRECTION ( 'NONE',  ( -1.224646799147353454E-16, -0.0000000000000000000, -1.000000000000000000 ) ) ;
#288 = CIRCLE ( 'NONE', #145, 0.04750000000000064587 ) ;
#289 = ORIENTED_EDGE ( 'NONE', *, *, #124, .F. ) ;
#290 = CARTESIAN_POINT ( 'NONE',  ( 6.127574818941428501E-17, 0.0000000000000000000, 0.5003544551137261154 ) ) ;
#291 = DIRECTION ( 'NONE',  ( 0.0000000000000000000, 0.0000000000000000000, -1.000000000000000000 ) ) ;
#292 = LENGTH_MEASURE_WITH_UNIT ( LENGTH_MEASURE( 0.02539999999999999897 ), #276 );
#293 = AXIS2_PLACEMENT_3D ( 'NONE', #151, #296, #91 ) ;
#294 = ORIENTED_EDGE ( 'NONE', *, *, #37, .F. ) ;
#295 = LINE ( 'NONE', #227, #270 ) ;
#296 = DIRECTION ( 'NONE',  ( 0.0000000000000000000, 0.0000000000000000000, 1.000000000000000000 ) ) ;
#297 = ORIENTED_EDGE ( 'NONE', *, *, #266, .T. ) ;
#298 = AXIS2_PLACEMENT_3D ( 'NONE', #220, #59, #40 ) ;
#299 = PLANE ( 'NONE',  #293 ) ;
ENDSEC;
END-ISO-10303-21;
