ISO-10303-21;
HEADER;
FILE_DESCRIPTION (( 'STEP AP214' ),
    '1' );
FILE_NAME ('83421.STEP',
    '2023-06-30T23:16:15',
    ( '' ),
    ( '' ),
    'SwSTEP 2.0',
    'SolidWorks 2023',
    '' );
FILE_SCHEMA (( 'AUTOMOTIVE_DESIGN' ));
ENDSEC;

DATA;
#1 = ORIENTED_EDGE ( 'NONE', *, *, #87, .F. ) ;
#2 = PRESENTATION_STYLE_ASSIGNMENT (( #20 ) ) ;
#3 = EDGE_LOOP ( 'NONE', ( #251, #319 ) ) ;
#4 = ORIENTED_EDGE ( 'NONE', *, *, #258, .T. ) ;
#5 = ADVANCED_FACE ( 'NONE', ( #50 ), #170, .T. ) ;
#6 = SPHERICAL_SURFACE ( 'NONE', #26, 0.1874999999999999722 ) ;
#7 =( LENGTH_UNIT ( ) NAMED_UNIT ( * ) SI_UNIT ( $, .METRE. ) );
#8 = DIRECTION ( 'NONE',  ( -0.000000000000000000, -1.000000000000000000, -0.000000000000000000 ) ) ;
#9 = CARTESIAN_POINT ( 'NONE',  ( 0.000000000000000000, 1.250000000000000000, 0.000000000000000000 ) ) ;
#10 = MECHANICAL_DESIGN_GEOMETRIC_PRESENTATION_REPRESENTATION (  '', ( #171 ), #47 ) ;
#11 = CARTESIAN_POINT ( 'NONE',  ( -1.224646799147353207E-16, 3.500000000000000000, 0.000000000000000000 ) ) ;
#12 = DIRECTION ( 'NONE',  ( -1.000000000000000000, 0.000000000000000000, 0.000000000000000000 ) ) ;
#13 = DIRECTION ( 'NONE',  ( 1.000000000000000000, 1.224646799147353700E-16, 0.000000000000000000 ) ) ;
#14 = FACE_OUTER_BOUND ( 'NONE', #76, .T. ) ;
#15 = UNCERTAINTY_MEASURE_WITH_UNIT (LENGTH_MEASURE( 1.000000000000000082E-05 ), #253, 'distance_accuracy_value', 'NONE');
#16 = CIRCLE ( 'NONE', #283, 0.1874999999999999722 ) ;
#17 = ORIENTED_EDGE ( 'NONE', *, *, #238, .F. ) ;
#18 = STYLED_ITEM ( 'NONE', ( #73 ), #99 ) ;
#19 = PRODUCT_DEFINITION_CONTEXT ( 'detailed design', #232, 'design' ) ;
#20 = SURFACE_STYLE_USAGE ( .BOTH. , #340 ) ;
#21 = CARTESIAN_POINT ( 'NONE',  ( -0.1875000000000001110, 3.500000000000000000, 0.000000000000000000 ) ) ;
#22 = ADVANCED_FACE ( 'NONE', ( #243 ), #300, .F. ) ;
#23 = COLOUR_RGB ( '',1.000000000000000000, 0.000000000000000000, 0.000000000000000000 ) ;
#24 = SURFACE_STYLE_FILL_AREA ( #229 ) ;
#25 = FILL_AREA_STYLE ('',( #288 ) ) ;
#26 = AXIS2_PLACEMENT_3D ( 'NONE', #180, #151, #59 ) ;
#27 = SURFACE_STYLE_USAGE ( .BOTH. , #199 ) ;
#28 = VERTEX_POINT ( 'NONE', #241 ) ;
#29 = PRESENTATION_STYLE_ASSIGNMENT (( #27 ) ) ;
#30 = ORIENTED_EDGE ( 'NONE', *, *, #188, .T. ) ;
#31 = EDGE_CURVE ( 'NONE', #108, #194, #267, .T. ) ;
#32 = COLOUR_RGB ( '',0.7921568627450980005, 0.8196078431372548767, 0.9333333333333333481 ) ;
#33 = CARTESIAN_POINT ( 'NONE',  ( -0.1874999999999999722, 0.1875000000000000278, 2.296212748401286493E-17 ) ) ;
#34 = DIRECTION ( 'NONE',  ( -1.224646799147353700E-16, 1.000000000000000000, -0.000000000000000000 ) ) ;
#35 = FACE_OUTER_BOUND ( 'NONE', #344, .T. ) ;
#36 = VECTOR ( 'NONE', #90, 39.37007874015748143 ) ;
#37 = SURFACE_SIDE_STYLE ('',( #304 ) ) ;
#38 = MANIFOLD_SOLID_BREP ( 'Revolve - Tool Body (Straight Shanked)', #202 ) ;
#39 = FACE_OUTER_BOUND ( 'NONE', #3, .T. ) ;
#40 = EDGE_CURVE ( 'NONE', #349, #366, #122, .T. ) ;
#41 = DIRECTION ( 'NONE',  ( 0.000000000000000000, 0.000000000000000000, -1.000000000000000000 ) ) ;
#42 = ORIENTED_EDGE ( 'NONE', *, *, #265, .F. ) ;
#43 = FILL_AREA_STYLE_COLOUR ( '', #287 ) ;
#44 = ORIENTED_EDGE ( 'NONE', *, *, #65, .T. ) ;
#45 = PRESENTATION_LAYER_ASSIGNMENT (  '', '', ( #189 ) ) ;
#46 = SURFACE_STYLE_USAGE ( .BOTH. , #192 ) ;
#47 =( GEOMETRIC_REPRESENTATION_CONTEXT ( 3 ) GLOBAL_UNCERTAINTY_ASSIGNED_CONTEXT ( ( #67 ) ) GLOBAL_UNIT_ASSIGNED_CONTEXT ( ( #261, #48, #225 ) ) REPRESENTATION_CONTEXT ( 'NONE', 'WORKASPACE' ) );
#48 =( NAMED_UNIT ( * ) PLANE_ANGLE_UNIT ( ) SI_UNIT ( $, .RADIAN. ) );
#49 = DIRECTION ( 'NONE',  ( -1.000000000000000000, -1.224646799147353700E-16, 0.000000000000000000 ) ) ;
#50 = FACE_OUTER_BOUND ( 'NONE', #107, .T. ) ;
#51 = STYLED_ITEM ( 'NONE', ( #148 ), #38 ) ;
#52 =( NAMED_UNIT ( * ) SI_UNIT ( $, .STERADIAN. ) SOLID_ANGLE_UNIT ( ) );
#53 = ORIENTED_EDGE ( 'NONE', *, *, #31, .T. ) ;
#54 = ORIENTED_EDGE ( 'NONE', *, *, #40, .F. ) ;
#55 = DIRECTION ( 'NONE',  ( -1.000000000000000000, 0.000000000000000000, 0.000000000000000000 ) ) ;
#56 =( CONVERSION_BASED_UNIT ( 'INCH', #140 ) LENGTH_UNIT ( ) NAMED_UNIT ( #292 ) );
#57 =( CONVERSION_BASED_UNIT ( 'INCH', #183 ) LENGTH_UNIT ( ) NAMED_UNIT ( #370 ) );
#58 = FILL_AREA_STYLE ('',( #207 ) ) ;
#59 = DIRECTION ( 'NONE',  ( 1.000000000000000000, 0.000000000000000000, 0.000000000000000000 ) ) ;
#60 =( LENGTH_UNIT ( ) NAMED_UNIT ( * ) SI_UNIT ( $, .METRE. ) );
#61 = DIRECTION ( 'NONE',  ( 0.000000000000000000, 0.000000000000000000, -1.000000000000000000 ) ) ;
#62 = MECHANICAL_DESIGN_GEOMETRIC_PRESENTATION_REPRESENTATION (  '', ( #51 ), #94 ) ;
#63 =( NAMED_UNIT ( * ) PLANE_ANGLE_UNIT ( ) SI_UNIT ( $, .RADIAN. ) );
#64 = STYLED_ITEM ( 'NONE', ( #215 ), #275 ) ;
#65 = EDGE_CURVE ( 'NONE', #110, #194, #347, .T. ) ;
#66 = CARTESIAN_POINT ( 'NONE',  ( 0.1874999999999999722, 0.1875000000000000278, 0.000000000000000000 ) ) ;
#67 = UNCERTAINTY_MEASURE_WITH_UNIT (LENGTH_MEASURE( 1.000000000000000082E-05 ), #261, 'distance_accuracy_value', 'NONE');
#68 = DIRECTION ( 'NONE',  ( -0.000000000000000000, -1.000000000000000000, -0.000000000000000000 ) ) ;
#69 =( GEOMETRIC_REPRESENTATION_CONTEXT ( 3 ) GLOBAL_UNCERTAINTY_ASSIGNED_CONTEXT ( ( #329 ) ) GLOBAL_UNIT_ASSIGNED_CONTEXT ( ( #164, #126, #96 ) ) REPRESENTATION_CONTEXT ( 'NONE', 'WORKASPACE' ) );
#70 = AXIS2_PLACEMENT_3D ( 'NONE', #269, #121, #12 ) ;
#71 = SURFACE_STYLE_FILL_AREA ( #332 ) ;
#72 = EDGE_LOOP ( 'NONE', ( #112, #350, #42, #44 ) ) ;
#73 = PRESENTATION_STYLE_ASSIGNMENT (( #338 ) ) ;
#74 = CARTESIAN_POINT ( 'NONE',  ( 0.000000000000000000, 0.1875000000000000278, 0.000000000000000000 ) ) ;
#75 = COLOUR_RGB ( '',1.000000000000000000, 0.000000000000000000, 0.000000000000000000 ) ;
#76 = EDGE_LOOP ( 'NONE', ( #80, #53, #281, #221, #17 ) ) ;
#77 = SURFACE_STYLE_USAGE ( .BOTH. , #346 ) ;
#78 = AXIS2_PLACEMENT_3D ( 'NONE', #86, #211, #270 ) ;
#79 = MECHANICAL_DESIGN_GEOMETRIC_PRESENTATION_REPRESENTATION (  '', ( #64 ), #136 ) ;
#80 = ORIENTED_EDGE ( 'NONE', *, *, #320, .T. ) ;
#81 = ADVANCED_FACE ( 'NONE', ( #235 ), #352, .T. ) ;
#82 =( NAMED_UNIT ( * ) PLANE_ANGLE_UNIT ( ) SI_UNIT ( $, .RADIAN. ) );
#83 =( NAMED_UNIT ( * ) SI_UNIT ( $, .STERADIAN. ) SOLID_ANGLE_UNIT ( ) );
#84 = PRESENTATION_LAYER_ASSIGNMENT (  '', '', ( #130 ) ) ;
#85 = DIRECTION ( 'NONE',  ( 0.000000000000000000, 0.000000000000000000, -1.000000000000000000 ) ) ;
#86 = CARTESIAN_POINT ( 'NONE',  ( -1.224646799147353207E-16, 3.500000000000000000, 0.000000000000000000 ) ) ;
#87 = EDGE_CURVE ( 'NONE', #366, #176, #334, .T. ) ;
#88 = DIRECTION ( 'NONE',  ( -0.000000000000000000, -1.000000000000000000, -0.000000000000000000 ) ) ;
#89 = DIRECTION ( 'NONE',  ( 0.000000000000000000, 1.000000000000000000, 0.000000000000000000 ) ) ;
#90 = DIRECTION ( 'NONE',  ( -0.000000000000000000, -1.000000000000000000, -0.000000000000000000 ) ) ;
#91 = CARTESIAN_POINT ( 'NONE',  ( 0.1874999999999996947, 3.500000000000000000, 2.296212748401285260E-17 ) ) ;
#92 = UNCERTAINTY_MEASURE_WITH_UNIT (LENGTH_MEASURE( 1.000000000000000082E-05 ), #154, 'distance_accuracy_value', 'NONE');
#93 = EDGE_CURVE ( 'NONE', #368, #176, #129, .T. ) ;
#94 =( GEOMETRIC_REPRESENTATION_CONTEXT ( 3 ) GLOBAL_UNCERTAINTY_ASSIGNED_CONTEXT ( ( #242 ) ) GLOBAL_UNIT_ASSIGNED_CONTEXT ( ( #234, #206, #83 ) ) REPRESENTATION_CONTEXT ( 'NONE', 'WORKASPACE' ) );
#95 = SURFACE_STYLE_FILL_AREA ( #156 ) ;
#96 =( NAMED_UNIT ( * ) SI_UNIT ( $, .STERADIAN. ) SOLID_ANGLE_UNIT ( ) );
#97 =( NAMED_UNIT ( * ) PLANE_ANGLE_UNIT ( ) SI_UNIT ( $, .RADIAN. ) );
#98 = AXIS2_PLACEMENT_3D ( 'NONE', #74, #133, #173 ) ;
#99 = ADVANCED_FACE ( 'NONE', ( #14 ), #245, .T. ) ;
#100 = ORIENTED_EDGE ( 'NONE', *, *, #314, .T. ) ;
#101 = APPLICATION_PROTOCOL_DEFINITION ( 'draft international standard', 'automotive_design', 1998, #232 ) ;
#102 = LENGTH_MEASURE_WITH_UNIT ( LENGTH_MEASURE( 0.02539999999999999897 ), #220 );
#103 = DIRECTION ( 'NONE',  ( 1.000000000000000000, 0.000000000000000000, 0.000000000000000000 ) ) ;
#104 = ADVANCED_FACE ( 'NONE', ( #363 ), #219, .T. ) ;
#105 = DIMENSIONAL_EXPONENTS ( 1.000000000000000000, 0.000000000000000000, 0.000000000000000000, 0.000000000000000000, 0.000000000000000000, 0.000000000000000000, 0.000000000000000000 ) ;
#106 = CARTESIAN_POINT ( 'NONE',  ( 2.296212748401287109E-17, 0.1875000000000000278, 0.1874999999999999722 ) ) ;
#107 = EDGE_LOOP ( 'NONE', ( #142, #233 ) ) ;
#108 = VERTEX_POINT ( 'NONE', #127 ) ;
#109 = FILL_AREA_STYLE ('',( #291 ) ) ;
#110 = VERTEX_POINT ( 'NONE', #66 ) ;
#111 = VECTOR ( 'NONE', #178, 39.37007874015748143 ) ;
#112 = ORIENTED_EDGE ( 'NONE', *, *, #214, .T. ) ;
#113 = DIMENSIONAL_EXPONENTS ( 1.000000000000000000, 0.000000000000000000, 0.000000000000000000, 0.000000000000000000, 0.000000000000000000, 0.000000000000000000, 0.000000000000000000 ) ;
#114 = CARTESIAN_POINT ( 'NONE',  ( 0.000000000000000000, 1.250000000000000000, 0.000000000000000000 ) ) ;
#115 = DIRECTION ( 'NONE',  ( -0.000000000000000000, -1.000000000000000000, -0.000000000000000000 ) ) ;
#116 = SURFACE_STYLE_USAGE ( .BOTH. , #351 ) ;
#117 = DIRECTION ( 'NONE',  ( 0.000000000000000000, 0.000000000000000000, -1.000000000000000000 ) ) ;
#118 = CIRCLE ( 'NONE', #98, 0.1874999999999999722 ) ;
#119 = DIRECTION ( 'NONE',  ( -0.000000000000000000, -1.000000000000000000, -0.000000000000000000 ) ) ;
#120 = DIRECTION ( 'NONE',  ( -0.000000000000000000, -1.000000000000000000, -0.000000000000000000 ) ) ;
#121 = DIRECTION ( 'NONE',  ( -1.224646799147353700E-16, 1.000000000000000000, -0.000000000000000000 ) ) ;
#122 = LINE ( 'NONE', #91, #111 ) ;
#123 = ADVANCED_FACE ( 'NONE', ( #305 ), #316, .T. ) ;
#124 =( NAMED_UNIT ( * ) SI_UNIT ( $, .STERADIAN. ) SOLID_ANGLE_UNIT ( ) );
#125 =( LENGTH_UNIT ( ) NAMED_UNIT ( * ) SI_UNIT ( $, .METRE. ) );
#126 =( NAMED_UNIT ( * ) PLANE_ANGLE_UNIT ( ) SI_UNIT ( $, .RADIAN. ) );
#127 = CARTESIAN_POINT ( 'NONE',  ( 2.296212748401285877E-17, 1.250000000000000000, 0.1874999999999998335 ) ) ;
#128 = ORIENTED_EDGE ( 'NONE', *, *, #31, .F. ) ;
#129 = LINE ( 'NONE', #247, #172 ) ;
#130 = STYLED_ITEM ( 'NONE', ( #29 ), #123 ) ;
#131 = ORIENTED_EDGE ( 'NONE', *, *, #40, .T. ) ;
#132 = DIMENSIONAL_EXPONENTS ( 1.000000000000000000, 0.000000000000000000, 0.000000000000000000, 0.000000000000000000, 0.000000000000000000, 0.000000000000000000, 0.000000000000000000 ) ;
#133 = DIRECTION ( 'NONE',  ( -0.000000000000000000, -1.000000000000000000, -0.000000000000000000 ) ) ;
#134 = AXIS2_PLACEMENT_3D ( 'NONE', #369, #138, #103 ) ;
#135 =( LENGTH_UNIT ( ) NAMED_UNIT ( * ) SI_UNIT ( $, .METRE. ) );
#136 =( GEOMETRIC_REPRESENTATION_CONTEXT ( 3 ) GLOBAL_UNCERTAINTY_ASSIGNED_CONTEXT ( ( #306 ) ) GLOBAL_UNIT_ASSIGNED_CONTEXT ( ( #56, #82, #271 ) ) REPRESENTATION_CONTEXT ( 'NONE', 'WORKASPACE' ) );
#137 = ORIENTED_EDGE ( 'NONE', *, *, #214, .F. ) ;
#138 = DIRECTION ( 'NONE',  ( 0.000000000000000000, 0.000000000000000000, 1.000000000000000000 ) ) ;
#139 = ORIENTED_EDGE ( 'NONE', *, *, #93, .F. ) ;
#140 = LENGTH_MEASURE_WITH_UNIT ( LENGTH_MEASURE( 0.02539999999999999897 ), #212 );
#141 = AXIS2_PLACEMENT_3D ( 'NONE', #216, #186, #13 ) ;
#142 = ORIENTED_EDGE ( 'NONE', *, *, #320, .F. ) ;
#143 = AXIS2_PLACEMENT_3D ( 'NONE', #114, #298, #299 ) ;
#144 = AXIS2_PLACEMENT_3D ( 'NONE', #147, #328, #327 ) ;
#145 =( NAMED_UNIT ( * ) SI_UNIT ( $, .STERADIAN. ) SOLID_ANGLE_UNIT ( ) );
#146 = CARTESIAN_POINT ( 'NONE',  ( 0.000000000000000000, 0.1875000000000000278, 0.000000000000000000 ) ) ;
#147 = CARTESIAN_POINT ( 'NONE',  ( -2.296212748401286801E-17, 0.1874999999999999722, 0.000000000000000000 ) ) ;
#148 = PRESENTATION_STYLE_ASSIGNMENT (( #356 ) ) ;
#149 = MECHANICAL_DESIGN_GEOMETRIC_PRESENTATION_REPRESENTATION (  '', ( #189 ), #250 ) ;
#150 = AXIS2_PLACEMENT_3D ( 'NONE', #345, #167, #372 ) ;
#151 = DIRECTION ( 'NONE',  ( 0.000000000000000000, 0.000000000000000000, 1.000000000000000000 ) ) ;
#152 = UNCERTAINTY_MEASURE_WITH_UNIT (LENGTH_MEASURE( 1.000000000000000082E-05 ), #57, 'distance_accuracy_value', 'NONE');
#153 = DIRECTION ( 'NONE',  ( 0.000000000000000000, 0.000000000000000000, 1.000000000000000000 ) ) ;
#154 =( CONVERSION_BASED_UNIT ( 'INCH', #158 ) LENGTH_UNIT ( ) NAMED_UNIT ( #132 ) );
#155 =( GEOMETRIC_REPRESENTATION_CONTEXT ( 3 ) GLOBAL_UNCERTAINTY_ASSIGNED_CONTEXT ( ( #276 ) ) GLOBAL_UNIT_ASSIGNED_CONTEXT ( ( #257, #284, #52 ) ) REPRESENTATION_CONTEXT ( 'NONE', 'WORKASPACE' ) );
#156 = FILL_AREA_STYLE ('',( #282 ) ) ;
#157 = ADVANCED_FACE ( 'NONE', ( #39 ), #223, .F. ) ;
#158 = LENGTH_MEASURE_WITH_UNIT ( LENGTH_MEASURE( 0.02539999999999999897 ), #161 );
#159 = ORIENTED_EDGE ( 'NONE', *, *, #93, .T. ) ;
#160 =( NAMED_UNIT ( * ) SI_UNIT ( $, .STERADIAN. ) SOLID_ANGLE_UNIT ( ) );
#161 =( LENGTH_UNIT ( ) NAMED_UNIT ( * ) SI_UNIT ( $, .METRE. ) );
#162 = ORIENTED_EDGE ( 'NONE', *, *, #238, .T. ) ;
#163 = CLOSED_SHELL ( 'NONE', ( #123, #99, #5, #104, #275 ) ) ;
#164 =( CONVERSION_BASED_UNIT ( 'INCH', #102 ) LENGTH_UNIT ( ) NAMED_UNIT ( #285 ) );
#165 = EDGE_CURVE ( 'NONE', #321, #28, #118, .T. ) ;
#166 = PRESENTATION_LAYER_ASSIGNMENT (  '', '', ( #171 ) ) ;
#167 = DIRECTION ( 'NONE',  ( -1.224646799147353700E-16, 1.000000000000000000, -0.000000000000000000 ) ) ;
#168 =( LENGTH_UNIT ( ) NAMED_UNIT ( * ) SI_UNIT ( $, .METRE. ) );
#169 = MANIFOLD_SOLID_BREP ( 'Revolve - Cutting Edge', #163 ) ;
#170 = PLANE ( 'NONE',  #313 ) ;
#171 = STYLED_ITEM ( 'NONE', ( #2 ), #169 ) ;
#172 = VECTOR ( 'NONE', #311, 39.37007874015748143 ) ;
#173 = DIRECTION ( 'NONE',  ( 0.000000000000000000, 0.000000000000000000, -1.000000000000000000 ) ) ;
#174 = ORIENTED_EDGE ( 'NONE', *, *, #165, .T. ) ;
#175 = SURFACE_STYLE_FILL_AREA ( #109 ) ;
#176 = VERTEX_POINT ( 'NONE', #21 ) ;
#177 = CARTESIAN_POINT ( 'NONE',  ( 0.000000000000000000, 1.250000000000000000, -0.1874999999999998335 ) ) ;
#178 = DIRECTION ( 'NONE',  ( -1.224646799147353700E-16, 1.000000000000000000, -0.000000000000000000 ) ) ;
#179 = STYLED_ITEM ( 'NONE', ( #254 ), #104 ) ;
#180 = CARTESIAN_POINT ( 'NONE',  ( -2.296212748401286801E-17, 0.1874999999999999722, 0.000000000000000000 ) ) ;
#181 = CARTESIAN_POINT ( 'NONE',  ( -1.224646799147353207E-16, 3.500000000000000000, 0.000000000000000000 ) ) ;
#182 = FILL_AREA_STYLE ('',( #323 ) ) ;
#183 = LENGTH_MEASURE_WITH_UNIT ( LENGTH_MEASURE( 0.02539999999999999897 ), #60 );
#184 = AXIS2_PLACEMENT_3D ( 'NONE', #11, #336, #222 ) ;
#185 = CARTESIAN_POINT ( 'NONE',  ( -0.1874999999999995837, 1.250000000000000000, 0.000000000000000000 ) ) ;
#186 = DIRECTION ( 'NONE',  ( 1.224646799147353700E-16, -1.000000000000000000, 0.000000000000000000 ) ) ;
#187 = DIRECTION ( 'NONE',  ( -0.000000000000000000, -1.000000000000000000, -0.000000000000000000 ) ) ;
#188 = EDGE_CURVE ( 'NONE', #176, #366, #218, .T. ) ;
#189 = STYLED_ITEM ( 'NONE', ( #208 ), #5 ) ;
#190 = APPLICATION_PROTOCOL_DEFINITION ( 'draft international standard', 'automotive_design', 1998, #239 ) ;
#191 = AXIS2_PLACEMENT_3D ( 'NONE', #359, #120, #117 ) ;
#192 = SURFACE_SIDE_STYLE ('',( #95 ) ) ;
#193 = ORIENTED_EDGE ( 'NONE', *, *, #188, .F. ) ;
#194 = VERTEX_POINT ( 'NONE', #106 ) ;
#195 = VECTOR ( 'NONE', #115, 39.37007874015748143 ) ;
#196 = EDGE_CURVE ( 'NONE', #368, #349, #365, .T. ) ;
#197 = PRESENTATION_LAYER_ASSIGNMENT (  '', '', ( #179 ) ) ;
#198 = CIRCLE ( 'NONE', #256, 0.1874999999999999722 ) ;
#199 = SURFACE_SIDE_STYLE ('',( #24 ) ) ;
#200 = LENGTH_MEASURE_WITH_UNIT ( LENGTH_MEASURE( 0.02539999999999999897 ), #135 );
#201 = ORIENTED_EDGE ( 'NONE', *, *, #265, .T. ) ;
#202 = CLOSED_SHELL ( 'NONE', ( #330, #157, #81, #22 ) ) ;
#203 = AXIS2_PLACEMENT_3D ( 'NONE', #227, #343, #317 ) ;
#204 = ORIENTED_EDGE ( 'NONE', *, *, #339, .F. ) ;
#205 = CARTESIAN_POINT ( 'NONE',  ( 0.000000000000000000, 0.000000000000000000, -0.1874999999999999167 ) ) ;
#206 =( NAMED_UNIT ( * ) PLANE_ANGLE_UNIT ( ) SI_UNIT ( $, .RADIAN. ) );
#207 = FILL_AREA_STYLE_COLOUR ( '', #75 ) ;
#208 = PRESENTATION_STYLE_ASSIGNMENT (( #77 ) ) ;
#209 = CYLINDRICAL_SURFACE ( 'NONE', #315, 0.1874999999999998335 ) ;
#210 = DIMENSIONAL_EXPONENTS ( 1.000000000000000000, 0.000000000000000000, 0.000000000000000000, 0.000000000000000000, 0.000000000000000000, 0.000000000000000000, 0.000000000000000000 ) ;
#211 = DIRECTION ( 'NONE',  ( -1.224646799147353700E-16, 1.000000000000000000, -0.000000000000000000 ) ) ;
#212 =( LENGTH_UNIT ( ) NAMED_UNIT ( * ) SI_UNIT ( $, .METRE. ) );
#213 = DIRECTION ( 'NONE',  ( 0.000000000000000000, -0.000000000000000000, 1.000000000000000000 ) ) ;
#214 = EDGE_CURVE ( 'NONE', #194, #321, #264, .T. ) ;
#215 = PRESENTATION_STYLE_ASSIGNMENT (( #116 ) ) ;
#216 = CARTESIAN_POINT ( 'NONE',  ( 0.1874999999999998335, 3.500000000000000000, 0.000000000000000000 ) ) ;
#217 = COLOUR_RGB ( '',1.000000000000000000, 0.000000000000000000, 0.000000000000000000 ) ;
#218 = CIRCLE ( 'NONE', #150, 0.1874999999999999722 ) ;
#219 = CYLINDRICAL_SURFACE ( 'NONE', #360, 0.1874999999999999167 ) ;
#220 =( LENGTH_UNIT ( ) NAMED_UNIT ( * ) SI_UNIT ( $, .METRE. ) );
#221 = ORIENTED_EDGE ( 'NONE', *, *, #324, .F. ) ;
#222 = DIRECTION ( 'NONE',  ( -1.000000000000000000, 0.000000000000000000, 0.000000000000000000 ) ) ;
#223 = PLANE ( 'NONE',  #371 ) ;
#224 = COLOUR_RGB ( '',0.7921568627450980005, 0.8196078431372548767, 0.9333333333333333481 ) ;
#225 =( NAMED_UNIT ( * ) SI_UNIT ( $, .STERADIAN. ) SOLID_ANGLE_UNIT ( ) );
#226 = MECHANICAL_DESIGN_GEOMETRIC_PRESENTATION_REPRESENTATION (  '', ( #179 ), #69 ) ;
#227 = CARTESIAN_POINT ( 'NONE',  ( 1.530808498934192310E-16, 1.250000000000000000, 0.000000000000000000 ) ) ;
#228 = ADVANCED_BREP_SHAPE_REPRESENTATION ( '83421', ( #169, #38, #303 ), #272 ) ;
#229 = FILL_AREA_STYLE ('',( #277 ) ) ;
#230 = ORIENTED_EDGE ( 'NONE', *, *, #324, .T. ) ;
#231 = VERTEX_POINT ( 'NONE', #177 ) ;
#232 = APPLICATION_CONTEXT ( 'automotive_design' ) ;
#233 = ORIENTED_EDGE ( 'NONE', *, *, #258, .F. ) ;
#234 =( CONVERSION_BASED_UNIT ( 'INCH', #273 ) LENGTH_UNIT ( ) NAMED_UNIT ( #105 ) );
#235 = FACE_OUTER_BOUND ( 'NONE', #263, .T. ) ;
#236 = DIRECTION ( 'NONE',  ( 0.000000000000000000, 0.000000000000000000, -1.000000000000000000 ) ) ;
#237 = CIRCLE ( 'NONE', #70, 0.1874999999999996947 ) ;
#238 = EDGE_CURVE ( 'NONE', #231, #28, #326, .T. ) ;
#239 = APPLICATION_CONTEXT ( 'automotive_design' ) ;
#240 = CARTESIAN_POINT ( 'NONE',  ( 0.1874999999999998335, 1.250000000000000000, 2.296212748401286493E-17 ) ) ;
#241 = CARTESIAN_POINT ( 'NONE',  ( 0.000000000000000000, 0.1875000000000000278, -0.1874999999999999722 ) ) ;
#242 = UNCERTAINTY_MEASURE_WITH_UNIT (LENGTH_MEASURE( 1.000000000000000082E-05 ), #234, 'distance_accuracy_value', 'NONE');
#243 = FACE_OUTER_BOUND ( 'NONE', #290, .T. ) ;
#244 = AXIS2_PLACEMENT_3D ( 'NONE', #286, #8, #322 ) ;
#245 = CYLINDRICAL_SURFACE ( 'NONE', #341, 0.1874999999999999167 ) ;
#246 = CIRCLE ( 'NONE', #144, 0.1874999999999999722 ) ;
#247 = CARTESIAN_POINT ( 'NONE',  ( -0.1874999999999999722, 3.500000000000000000, 0.000000000000000000 ) ) ;
#248 = CARTESIAN_POINT ( 'NONE',  ( 0.000000000000000000, 0.000000000000000000, 0.000000000000000000 ) ) ;
#249 = CARTESIAN_POINT ( 'NONE',  ( 0.000000000000000000, 0.000000000000000000, 0.000000000000000000 ) ) ;
#250 =( GEOMETRIC_REPRESENTATION_CONTEXT ( 3 ) GLOBAL_UNCERTAINTY_ASSIGNED_CONTEXT ( ( #152 ) ) GLOBAL_UNIT_ASSIGNED_CONTEXT ( ( #57, #63, #145 ) ) REPRESENTATION_CONTEXT ( 'NONE', 'WORKASPACE' ) );
#251 = ORIENTED_EDGE ( 'NONE', *, *, #196, .F. ) ;
#252 = CIRCLE ( 'NONE', #143, 0.1874999999999998335 ) ;
#253 =( CONVERSION_BASED_UNIT ( 'INCH', #335 ) LENGTH_UNIT ( ) NAMED_UNIT ( #113 ) );
#254 = PRESENTATION_STYLE_ASSIGNMENT (( #46 ) ) ;
#255 = ORIENTED_EDGE ( 'NONE', *, *, #196, .T. ) ;
#256 = AXIS2_PLACEMENT_3D ( 'NONE', #355, #85, #55 ) ;
#257 =( CONVERSION_BASED_UNIT ( 'INCH', #200 ) LENGTH_UNIT ( ) NAMED_UNIT ( #318 ) );
#258 = EDGE_CURVE ( 'NONE', #108, #231, #252, .T. ) ;
#259 = CARTESIAN_POINT ( 'NONE',  ( 1.530808498934191571E-16, 1.250000000000000000, 0.000000000000000000 ) ) ;
#260 = SURFACE_STYLE_FILL_AREA ( #25 ) ;
#261 =( CONVERSION_BASED_UNIT ( 'INCH', #348 ) LENGTH_UNIT ( ) NAMED_UNIT ( #210 ) );
#262 = ORIENTED_EDGE ( 'NONE', *, *, #165, .F. ) ;
#263 = EDGE_LOOP ( 'NONE', ( #54, #100, #159, #1 ) ) ;
#264 = CIRCLE ( 'NONE', #244, 0.1874999999999999722 ) ;
#265 = EDGE_CURVE ( 'NONE', #110, #279, #198, .T. ) ;
#266 = PRODUCT_DEFINITION_FORMATION_WITH_SPECIFIED_SOURCE ( 'ANY', '', #358, .NOT_KNOWN. ) ;
#267 = LINE ( 'NONE', #294, #195 ) ;
#268 = FACE_OUTER_BOUND ( 'NONE', #312, .T. ) ;
#269 = CARTESIAN_POINT ( 'NONE',  ( 1.530808498934192310E-16, 1.250000000000000000, 0.000000000000000000 ) ) ;
#270 = DIRECTION ( 'NONE',  ( -1.000000000000000000, 0.000000000000000000, 0.000000000000000000 ) ) ;
#271 =( NAMED_UNIT ( * ) SI_UNIT ( $, .STERADIAN. ) SOLID_ANGLE_UNIT ( ) );
#272 =( GEOMETRIC_REPRESENTATION_CONTEXT ( 3 ) GLOBAL_UNCERTAINTY_ASSIGNED_CONTEXT ( ( #15 ) ) GLOBAL_UNIT_ASSIGNED_CONTEXT ( ( #253, #364, #160 ) ) REPRESENTATION_CONTEXT ( 'NONE', 'WORKASPACE' ) );
#273 = LENGTH_MEASURE_WITH_UNIT ( LENGTH_MEASURE( 0.02539999999999999897 ), #7 );
#274 = CARTESIAN_POINT ( 'NONE',  ( 0.000000000000000000, 1.250000000000000000, 0.000000000000000000 ) ) ;
#275 = ADVANCED_FACE ( 'NONE', ( #35 ), #6, .T. ) ;
#276 = UNCERTAINTY_MEASURE_WITH_UNIT (LENGTH_MEASURE( 1.000000000000000082E-05 ), #257, 'distance_accuracy_value', 'NONE');
#277 = FILL_AREA_STYLE_COLOUR ( '', #325 ) ;
#278 = DIRECTION ( 'NONE',  ( 1.000000000000000000, 0.000000000000000000, 0.000000000000000000 ) ) ;
#279 = VERTEX_POINT ( 'NONE', #296 ) ;
#280 = SHAPE_DEFINITION_REPRESENTATION ( #373, #228 ) ;
#281 = ORIENTED_EDGE ( 'NONE', *, *, #65, .F. ) ;
#282 = FILL_AREA_STYLE_COLOUR ( '', #23 ) ;
#283 = AXIS2_PLACEMENT_3D ( 'NONE', #146, #119, #236 ) ;
#284 =( NAMED_UNIT ( * ) PLANE_ANGLE_UNIT ( ) SI_UNIT ( $, .RADIAN. ) );
#285 = DIMENSIONAL_EXPONENTS ( 1.000000000000000000, 0.000000000000000000, 0.000000000000000000, 0.000000000000000000, 0.000000000000000000, 0.000000000000000000, 0.000000000000000000 ) ;
#286 = CARTESIAN_POINT ( 'NONE',  ( 0.000000000000000000, 0.1875000000000000278, 0.000000000000000000 ) ) ;
#287 = COLOUR_RGB ( '',1.000000000000000000, 0.000000000000000000, 0.000000000000000000 ) ;
#288 = FILL_AREA_STYLE_COLOUR ( '', #217 ) ;
#289 = DIRECTION ( 'NONE',  ( -1.224646799147353700E-16, 1.000000000000000000, 0.000000000000000000 ) ) ;
#290 = EDGE_LOOP ( 'NONE', ( #30, #310 ) ) ;
#291 = FILL_AREA_STYLE_COLOUR ( '', #32 ) ;
#292 = DIMENSIONAL_EXPONENTS ( 1.000000000000000000, 0.000000000000000000, 0.000000000000000000, 0.000000000000000000, 0.000000000000000000, 0.000000000000000000, 0.000000000000000000 ) ;
#293 = SURFACE_STYLE_FILL_AREA ( #58 ) ;
#294 = CARTESIAN_POINT ( 'NONE',  ( 2.296212748401286185E-17, 0.000000000000000000, 0.1874999999999999167 ) ) ;
#295 = PRESENTATION_LAYER_ASSIGNMENT (  '', '', ( #51 ) ) ;
#296 = CARTESIAN_POINT ( 'NONE',  ( -1.148106374200643401E-17, 0.000000000000000000, 0.000000000000000000 ) ) ;
#297 = PRODUCT_RELATED_PRODUCT_CATEGORY ( 'part', '', ( #358 ) ) ;
#298 = DIRECTION ( 'NONE',  ( -0.000000000000000000, -1.000000000000000000, -0.000000000000000000 ) ) ;
#299 = DIRECTION ( 'NONE',  ( 0.000000000000000000, 0.000000000000000000, -1.000000000000000000 ) ) ;
#300 = PLANE ( 'NONE',  #141 ) ;
#301 = MECHANICAL_DESIGN_GEOMETRIC_PRESENTATION_REPRESENTATION (  '', ( #18 ), #333 ) ;
#302 = DIRECTION ( 'NONE',  ( -1.000000000000000000, 0.000000000000000000, 0.000000000000000000 ) ) ;
#303 = AXIS2_PLACEMENT_3D ( 'NONE', #248, #153, #278 ) ;
#304 = SURFACE_STYLE_FILL_AREA ( #182 ) ;
#305 = FACE_OUTER_BOUND ( 'NONE', #72, .T. ) ;
#306 = UNCERTAINTY_MEASURE_WITH_UNIT (LENGTH_MEASURE( 1.000000000000000082E-05 ), #56, 'distance_accuracy_value', 'NONE');
#307 = SURFACE_SIDE_STYLE ('',( #71 ) ) ;
#308 = MECHANICAL_DESIGN_GEOMETRIC_PRESENTATION_REPRESENTATION (  '', ( #130 ), #155 ) ;
#309 = PRESENTATION_LAYER_ASSIGNMENT (  '', '', ( #64 ) ) ;
#310 = ORIENTED_EDGE ( 'NONE', *, *, #87, .T. ) ;
#311 = DIRECTION ( 'NONE',  ( -1.224646799147353700E-16, 1.000000000000000000, -0.000000000000000000 ) ) ;
#312 = EDGE_LOOP ( 'NONE', ( #255, #131, #193, #139 ) ) ;
#313 = AXIS2_PLACEMENT_3D ( 'NONE', #274, #89, #213 ) ;
#314 = EDGE_CURVE ( 'NONE', #349, #368, #237, .T. ) ;
#315 = AXIS2_PLACEMENT_3D ( 'NONE', #181, #34, #302 ) ;
#316 = SPHERICAL_SURFACE ( 'NONE', #134, 0.1874999999999999722 ) ;
#317 = DIRECTION ( 'NONE',  ( -1.000000000000000000, 0.000000000000000000, 0.000000000000000000 ) ) ;
#318 = DIMENSIONAL_EXPONENTS ( 1.000000000000000000, 0.000000000000000000, 0.000000000000000000, 0.000000000000000000, 0.000000000000000000, 0.000000000000000000, 0.000000000000000000 ) ;
#319 = ORIENTED_EDGE ( 'NONE', *, *, #314, .F. ) ;
#320 = EDGE_CURVE ( 'NONE', #231, #108, #354, .T. ) ;
#321 = VERTEX_POINT ( 'NONE', #33 ) ;
#322 = DIRECTION ( 'NONE',  ( 0.000000000000000000, 0.000000000000000000, -1.000000000000000000 ) ) ;
#323 = FILL_AREA_STYLE_COLOUR ( '', #224 ) ;
#324 = EDGE_CURVE ( 'NONE', #28, #110, #16, .T. ) ;
#325 = COLOUR_RGB ( '',1.000000000000000000, 0.000000000000000000, 0.000000000000000000 ) ;
#326 = LINE ( 'NONE', #205, #36 ) ;
#327 = DIRECTION ( 'NONE',  ( 1.000000000000000000, 0.000000000000000000, -1.224646799147353207E-16 ) ) ;
#328 = DIRECTION ( 'NONE',  ( 1.224646799147353207E-16, -0.000000000000000000, 1.000000000000000000 ) ) ;
#329 = UNCERTAINTY_MEASURE_WITH_UNIT (LENGTH_MEASURE( 1.000000000000000082E-05 ), #164, 'distance_accuracy_value', 'NONE');
#330 = ADVANCED_FACE ( 'NONE', ( #268 ), #209, .T. ) ;
#331 = CARTESIAN_POINT ( 'NONE',  ( 0.000000000000000000, 0.000000000000000000, 0.000000000000000000 ) ) ;
#332 = FILL_AREA_STYLE ('',( #43 ) ) ;
#333 =( GEOMETRIC_REPRESENTATION_CONTEXT ( 3 ) GLOBAL_UNCERTAINTY_ASSIGNED_CONTEXT ( ( #92 ) ) GLOBAL_UNIT_ASSIGNED_CONTEXT ( ( #154, #97, #124 ) ) REPRESENTATION_CONTEXT ( 'NONE', 'WORKASPACE' ) );
#334 = CIRCLE ( 'NONE', #184, 0.1874999999999999722 ) ;
#335 = LENGTH_MEASURE_WITH_UNIT ( LENGTH_MEASURE( 0.02539999999999999897 ), #125 );
#336 = DIRECTION ( 'NONE',  ( -1.224646799147353700E-16, 1.000000000000000000, -0.000000000000000000 ) ) ;
#337 = EDGE_LOOP ( 'NONE', ( #128, #4, #162, #262, #137 ) ) ;
#338 = SURFACE_STYLE_USAGE ( .BOTH. , #307 ) ;
#339 = EDGE_CURVE ( 'NONE', #321, #279, #246, .T. ) ;
#340 = SURFACE_SIDE_STYLE ('',( #175 ) ) ;
#341 = AXIS2_PLACEMENT_3D ( 'NONE', #249, #187, #361 ) ;
#342 = AXIS2_PLACEMENT_3D ( 'NONE', #9, #88, #61 ) ;
#343 = DIRECTION ( 'NONE',  ( -1.224646799147353700E-16, 1.000000000000000000, -0.000000000000000000 ) ) ;
#344 = EDGE_LOOP ( 'NONE', ( #204, #174, #230, #201 ) ) ;
#345 = CARTESIAN_POINT ( 'NONE',  ( -1.224646799147353207E-16, 3.500000000000000000, 0.000000000000000000 ) ) ;
#346 = SURFACE_SIDE_STYLE ('',( #260 ) ) ;
#347 = CIRCLE ( 'NONE', #191, 0.1874999999999999722 ) ;
#348 = LENGTH_MEASURE_WITH_UNIT ( LENGTH_MEASURE( 0.02539999999999999897 ), #168 );
#349 = VERTEX_POINT ( 'NONE', #240 ) ;
#350 = ORIENTED_EDGE ( 'NONE', *, *, #339, .T. ) ;
#351 = SURFACE_SIDE_STYLE ('',( #293 ) ) ;
#352 = CYLINDRICAL_SURFACE ( 'NONE', #78, 0.1874999999999998335 ) ;
#353 = PRESENTATION_LAYER_ASSIGNMENT (  '', '', ( #18 ) ) ;
#354 = CIRCLE ( 'NONE', #342, 0.1874999999999998335 ) ;
#355 = CARTESIAN_POINT ( 'NONE',  ( -2.296212748401286801E-17, 0.1874999999999999722, 0.000000000000000000 ) ) ;
#356 = SURFACE_STYLE_USAGE ( .BOTH. , #37 ) ;
#357 = CARTESIAN_POINT ( 'NONE',  ( 0.1874999999999998335, 3.500000000000000000, 2.296212748401286493E-17 ) ) ;
#358 = PRODUCT ( '83421', '83421', '', ( #367 ) ) ;
#359 = CARTESIAN_POINT ( 'NONE',  ( 0.000000000000000000, 0.1875000000000000278, 0.000000000000000000 ) ) ;
#360 = AXIS2_PLACEMENT_3D ( 'NONE', #331, #68, #41 ) ;
#361 = DIRECTION ( 'NONE',  ( 0.000000000000000000, 0.000000000000000000, -1.000000000000000000 ) ) ;
#362 = PRODUCT_DEFINITION ( 'UNKNOWN', '', #266, #19 ) ;
#363 = FACE_OUTER_BOUND ( 'NONE', #337, .T. ) ;
#364 =( NAMED_UNIT ( * ) PLANE_ANGLE_UNIT ( ) SI_UNIT ( $, .RADIAN. ) );
#365 = CIRCLE ( 'NONE', #203, 0.1874999999999996947 ) ;
#366 = VERTEX_POINT ( 'NONE', #357 ) ;
#367 = PRODUCT_CONTEXT ( 'NONE', #239, 'mechanical' ) ;
#368 = VERTEX_POINT ( 'NONE', #185 ) ;
#369 = CARTESIAN_POINT ( 'NONE',  ( -2.296212748401286801E-17, 0.1874999999999999722, 0.000000000000000000 ) ) ;
#370 = DIMENSIONAL_EXPONENTS ( 1.000000000000000000, 0.000000000000000000, 0.000000000000000000, 0.000000000000000000, 0.000000000000000000, 0.000000000000000000, 0.000000000000000000 ) ;
#371 = AXIS2_PLACEMENT_3D ( 'NONE', #259, #289, #49 ) ;
#372 = DIRECTION ( 'NONE',  ( -1.000000000000000000, 0.000000000000000000, 0.000000000000000000 ) ) ;
#373 = PRODUCT_DEFINITION_SHAPE ( 'NONE', 'NONE',  #362 ) ;
ENDSEC;
END-ISO-10303-21;
