ISO-10303-21;
HEADER;
FILE_DESCRIPTION (( 'STEP AP214' ),
    '1' );
FILE_NAME ('Micro_DM-375-290.STEP',
    '2021-09-02T16:04:17',
    ( '' ),
    ( '' ),
    'SwSTEP 2.0',
    'SolidWorks 2020',
    '' );
FILE_SCHEMA (( 'AUTOMOTIVE_DESIGN' ));
ENDSEC;

DATA;
#1 = DIRECTION ( 'NONE',  ( -1.000000000000000000, 0.0000000000000000000, 0.0000000000000000000 ) ) ;
#2 = CLOSED_SHELL ( 'NONE', ( #322, #265, #207, #190, #266, #47, #115, #143, #112, #104, #168 ) ) ;
#3 = ORIENTED_EDGE ( 'NONE', *, *, #72, .F. ) ;
#4 = EDGE_LOOP ( 'NONE', ( #240, #101, #3, #309 ) ) ;
#5 = ORIENTED_EDGE ( 'NONE', *, *, #87, .F. ) ;
#6 = ORIENTED_EDGE ( 'NONE', *, *, #294, .T. ) ;
#7 = ORIENTED_EDGE ( 'NONE', *, *, #173, .F. ) ;
#8 = DIRECTION ( 'NONE',  ( -0.0000000000000000000, -0.0000000000000000000, -1.000000000000000000 ) ) ;
#9 = AXIS2_PLACEMENT_3D ( 'NONE', #188, #219, #295 ) ;
#10 = VECTOR ( 'NONE', #255, 39.37007874015748143 ) ;
#11 = CARTESIAN_POINT ( 'NONE',  ( -0.1875000000000000278, 0.0000000000000000000, 2.484999999999999432 ) ) ;
#12 = EDGE_CURVE ( 'NONE', #262, #32, #133, .T. ) ;
#13 = FACE_OUTER_BOUND ( 'NONE', #84, .T. ) ;
#14 = SURFACE_STYLE_USAGE ( .BOTH. , #142 ) ;
#15 = EDGE_CURVE ( 'NONE', #182, #158, #253, .T. ) ;
#16 = CARTESIAN_POINT ( 'NONE',  ( 0.0000000000000000000, 0.0000000000000000000, 1.707404996040164512E-17 ) ) ;
#17 = VECTOR ( 'NONE', #8, 39.37007874015748143 ) ;
#18 = LENGTH_MEASURE_WITH_UNIT ( LENGTH_MEASURE( 0.02539999999999999897 ), #324 );
#19 = EDGE_LOOP ( 'NONE', ( #261, #310, #55, #181 ) ) ;
#20 = DIRECTION ( 'NONE',  ( 0.0000000000000000000, 0.0000000000000000000, 1.000000000000000000 ) ) ;
#21 = UNCERTAINTY_MEASURE_WITH_UNIT (LENGTH_MEASURE( 1.000000000000000082E-05 ), #193, 'distance_accuracy_value', 'NONE');
#22 = DIRECTION ( 'NONE',  ( 1.000000000000000000, 0.0000000000000000000, 0.0000000000000000000 ) ) ;
#23 = SURFACE_STYLE_USAGE ( .BOTH. , #45 ) ;
#24 = ORIENTED_EDGE ( 'NONE', *, *, #196, .T. ) ;
#25 = CARTESIAN_POINT ( 'NONE',  ( -0.1874500000000001443, 0.0000000000000000000, 1.000000000000000000 ) ) ;
#26 = EDGE_LOOP ( 'NONE', ( #123, #230, #214, #76 ) ) ;
#27 = VECTOR ( 'NONE', #69, 39.37007874015748143 ) ;
#28 = COLOUR_RGB ( '',0.7921568627450980005, 0.8196078431372548767, 0.9333333333333333481 ) ;
#29 = EDGE_CURVE ( 'NONE', #50, #187, #102, .T. ) ;
#30 = EDGE_LOOP ( 'NONE', ( #5, #24, #280, #129 ) ) ;
#31 = CARTESIAN_POINT ( 'NONE',  ( -0.1724999999999995981, 0.0000000000000000000, 2.500000000000000000 ) ) ;
#32 = VERTEX_POINT ( 'NONE', #258 ) ;
#33 = AXIS2_PLACEMENT_3D ( 'NONE', #40, #106, #220 ) ;
#34 = DIRECTION ( 'NONE',  ( -1.000000000000000000, 0.0000000000000000000, 0.0000000000000000000 ) ) ;
#35 = CARTESIAN_POINT ( 'NONE',  ( 0.007499999999999999722, 0.0000000000000000000, 1.707404996040164512E-17 ) ) ;
#36 = DIRECTION ( 'NONE',  ( -0.0000000000000000000, 0.0000000000000000000, -1.000000000000000000 ) ) ;
#37 = CIRCLE ( 'NONE', #277, 0.1724999999999995981 ) ;
#38 = DIRECTION ( 'NONE',  ( 0.0000000000000000000, 0.0000000000000000000, 1.000000000000000000 ) ) ;
#39 = FACE_OUTER_BOUND ( 'NONE', #263, .T. ) ;
#40 = CARTESIAN_POINT ( 'NONE',  ( 0.0000000000000000000, 0.0000000000000000000, 0.0000000000000000000 ) ) ;
#41 = EDGE_CURVE ( 'NONE', #158, #32, #85, .T. ) ;
#42 = PLANE ( 'NONE',  #233 ) ;
#43 = AXIS2_PLACEMENT_3D ( 'NONE', #92, #227, #202 ) ;
#44 = CARTESIAN_POINT ( 'NONE',  ( 0.1874500000000001443, 2.295600425001715468E-17, 1.000000000000000000 ) ) ;
#45 = SURFACE_SIDE_STYLE ('',( #148 ) ) ;
#46 = LINE ( 'NONE', #149, #10 ) ;
#47 = ADVANCED_FACE ( 'NONE', ( #39 ), #42, .T. ) ;
#48 = CIRCLE ( 'NONE', #116, 0.1875000000000000278 ) ;
#49 = CARTESIAN_POINT ( 'NONE',  ( 0.1724999999999995981, 2.204364238465233357E-17, 2.500000000000000000 ) ) ;
#50 = VERTEX_POINT ( 'NONE', #61 ) ;
#51 = ORIENTED_EDGE ( 'NONE', *, *, #147, .F. ) ;
#52 = CIRCLE ( 'NONE', #191, 0.1874500000000000055 ) ;
#53 = ORIENTED_EDGE ( 'NONE', *, *, #269, .F. ) ;
#54 = DIMENSIONAL_EXPONENTS ( 1.000000000000000000, 0.0000000000000000000, 0.0000000000000000000, 0.0000000000000000000, 0.0000000000000000000, 0.0000000000000000000, 0.0000000000000000000 ) ;
#55 = ORIENTED_EDGE ( 'NONE', *, *, #269, .T. ) ;
#56 = ORIENTED_EDGE ( 'NONE', *, *, #196, .F. ) ;
#57 = PRODUCT_RELATED_PRODUCT_CATEGORY ( 'part', '', ( #209 ) ) ;
#58 = AXIS2_PLACEMENT_3D ( 'NONE', #163, #113, #88 ) ;
#59 = FACE_OUTER_BOUND ( 'NONE', #78, .T. ) ;
#60 =( NAMED_UNIT ( * ) SI_UNIT ( $, .STERADIAN. ) SOLID_ANGLE_UNIT ( ) );
#61 = CARTESIAN_POINT ( 'NONE',  ( -0.1724999999999995981, 0.0000000000000000000, 2.500000000000000000 ) ) ;
#62 = APPLICATION_PROTOCOL_DEFINITION ( 'draft international standard', 'automotive_design', 1998, #195 ) ;
#63 = DIRECTION ( 'NONE',  ( -1.000000000000000000, 0.0000000000000000000, 0.0000000000000000000 ) ) ;
#64 =( CONVERSION_BASED_UNIT ( 'INCH', #165 ) LENGTH_UNIT ( ) NAMED_UNIT ( #136 ) );
#65 = CARTESIAN_POINT ( 'NONE',  ( 0.0000000000000000000, 0.0000000000000000000, 1.000000000000000000 ) ) ;
#66 = DIRECTION ( 'NONE',  ( -1.000000000000000000, 0.0000000000000000000, 0.0000000000000000000 ) ) ;
#67 =( CONVERSION_BASED_UNIT ( 'INCH', #18 ) LENGTH_UNIT ( ) NAMED_UNIT ( #308 ) );
#68 = LINE ( 'NONE', #298, #126 ) ;
#69 = DIRECTION ( 'NONE',  ( -0.0000000000000000000, -0.0000000000000000000, -1.000000000000000000 ) ) ;
#70 = DIRECTION ( 'NONE',  ( -1.000000000000000000, 0.0000000000000000000, 0.0000000000000000000 ) ) ;
#71 = DIRECTION ( 'NONE',  ( -1.000000000000000000, 0.0000000000000000000, 0.0000000000000000000 ) ) ;
#72 = EDGE_CURVE ( 'NONE', #96, #218, #89, .T. ) ;
#73 = CIRCLE ( 'NONE', #251, 0.1874500000000001443 ) ;
#74 = CYLINDRICAL_SURFACE ( 'NONE', #100, 0.1874500000000000610 ) ;
#75 = CARTESIAN_POINT ( 'NONE',  ( 0.1874500000000000610, 2.295600425001714235E-17, 0.0000000000000000000 ) ) ;
#76 = ORIENTED_EDGE ( 'NONE', *, *, #77, .T. ) ;
#77 = EDGE_CURVE ( 'NONE', #32, #150, #121, .T. ) ;
#78 = EDGE_LOOP ( 'NONE', ( #6, #264 ) ) ;
#79 = UNCERTAINTY_MEASURE_WITH_UNIT (LENGTH_MEASURE( 1.000000000000000082E-05 ), #67, 'distance_accuracy_value', 'NONE');
#80 = AXIS2_PLACEMENT_3D ( 'NONE', #197, #291, #111 ) ;
#81 =( GEOMETRIC_REPRESENTATION_CONTEXT ( 3 ) GLOBAL_UNCERTAINTY_ASSIGNED_CONTEXT ( ( #21 ) ) GLOBAL_UNIT_ASSIGNED_CONTEXT ( ( #193, #145, #60 ) ) REPRESENTATION_CONTEXT ( 'NONE', 'WORKASPACE' ) );
#82 = DIRECTION ( 'NONE',  ( -0.0000000000000000000, -0.0000000000000000000, -1.000000000000000000 ) ) ;
#83 = EDGE_CURVE ( 'NONE', #284, #218, #144, .T. ) ;
#84 = EDGE_LOOP ( 'NONE', ( #56, #238, #105, #51 ) ) ;
#85 = LINE ( 'NONE', #35, #189 ) ;
#86 = CARTESIAN_POINT ( 'NONE',  ( 0.0000000000000000000, 0.0000000000000000000, 0.0000000000000000000 ) ) ;
#87 = EDGE_CURVE ( 'NONE', #306, #50, #239, .T. ) ;
#88 = DIRECTION ( 'NONE',  ( 1.000000000000000000, 0.0000000000000000000, 0.0000000000000000000 ) ) ;
#89 = CIRCLE ( 'NONE', #183, 0.1875000000000000278 ) ;
#90 = AXIS2_PLACEMENT_3D ( 'NONE', #97, #206, #70 ) ;
#91 = CARTESIAN_POINT ( 'NONE',  ( 0.1875000000000000278, 2.296212748401287726E-17, 2.500000000000000000 ) ) ;
#92 = CARTESIAN_POINT ( 'NONE',  ( 0.0000000000000000000, 0.0000000000000000000, 2.500000000000000000 ) ) ;
#93 = CARTESIAN_POINT ( 'NONE',  ( 0.0000000000000000000, 0.0000000000000000000, 2.500000000000000000 ) ) ;
#94 = DIRECTION ( 'NONE',  ( -0.0000000000000000000, -0.0000000000000000000, -1.000000000000000000 ) ) ;
#95 = MECHANICAL_DESIGN_GEOMETRIC_PRESENTATION_REPRESENTATION (  '', ( #160 ), #198 ) ;
#96 = VERTEX_POINT ( 'NONE', #107 ) ;
#97 = CARTESIAN_POINT ( 'NONE',  ( 0.0000000000000000000, 0.0000000000000000000, 2.500000000000000000 ) ) ;
#98 = DIRECTION ( 'NONE',  ( -1.000000000000000000, 0.0000000000000000000, 0.0000000000000000000 ) ) ;
#99 = CARTESIAN_POINT ( 'NONE',  ( -0.007499999999999999722, 9.184850993605147975E-19, 1.707404996040164512E-17 ) ) ;
#100 = AXIS2_PLACEMENT_3D ( 'NONE', #231, #180, #153 ) ;
#101 = ORIENTED_EDGE ( 'NONE', *, *, #83, .T. ) ;
#102 = LINE ( 'NONE', #31, #326 ) ;
#103 = ORIENTED_EDGE ( 'NONE', *, *, #173, .T. ) ;
#104 = ADVANCED_FACE ( 'NONE', ( #274 ), #224, .T. ) ;
#105 = ORIENTED_EDGE ( 'NONE', *, *, #29, .T. ) ;
#106 = DIRECTION ( 'NONE',  ( 0.0000000000000000000, 0.0000000000000000000, 1.000000000000000000 ) ) ;
#107 = CARTESIAN_POINT ( 'NONE',  ( -0.1875000000000000278, 0.0000000000000000000, 1.000000000000000000 ) ) ;
#108 =( NAMED_UNIT ( * ) SI_UNIT ( $, .STERADIAN. ) SOLID_ANGLE_UNIT ( ) );
#109 = CONICAL_SURFACE ( 'NONE', #250, 0.007499999999999999722, 0.7853981633974501664 ) ;
#110 =( GEOMETRIC_REPRESENTATION_CONTEXT ( 3 ) GLOBAL_UNCERTAINTY_ASSIGNED_CONTEXT ( ( #151 ) ) GLOBAL_UNIT_ASSIGNED_CONTEXT ( ( #64, #273, #108 ) ) REPRESENTATION_CONTEXT ( 'NONE', 'WORKASPACE' ) );
#111 = DIRECTION ( 'NONE',  ( 1.000000000000000000, 0.0000000000000000000, 0.0000000000000000000 ) ) ;
#112 = ADVANCED_FACE ( 'NONE', ( #200 ), #109, .T. ) ;
#113 = DIRECTION ( 'NONE',  ( 0.0000000000000000000, 0.0000000000000000000, 1.000000000000000000 ) ) ;
#114 = FACE_OUTER_BOUND ( 'NONE', #4, .T. ) ;
#115 = ADVANCED_FACE ( 'NONE', ( #13 ), #287, .T. ) ;
#116 = AXIS2_PLACEMENT_3D ( 'NONE', #256, #279, #282 ) ;
#117 = DIRECTION ( 'NONE',  ( -1.000000000000000000, 0.0000000000000000000, 0.0000000000000000000 ) ) ;
#118 = FACE_OUTER_BOUND ( 'NONE', #30, .T. ) ;
#119 = ORIENTED_EDGE ( 'NONE', *, *, #15, .F. ) ;
#120 = FILL_AREA_STYLE_COLOUR ( '', #28 ) ;
#121 = CIRCLE ( 'NONE', #170, 0.1874500000000000055 ) ;
#122 = DIRECTION ( 'NONE',  ( 1.000000000000000000, 0.0000000000000000000, 0.0000000000000000000 ) ) ;
#123 = ORIENTED_EDGE ( 'NONE', *, *, #302, .F. ) ;
#124 = DIRECTION ( 'NONE',  ( -0.0000000000000000000, -0.0000000000000000000, -1.000000000000000000 ) ) ;
#125 = PRODUCT_DEFINITION_SHAPE ( 'NONE', 'NONE',  #285 ) ;
#126 = VECTOR ( 'NONE', #174, 39.37007874015748854 ) ;
#127 = ORIENTED_EDGE ( 'NONE', *, *, #41, .F. ) ;
#128 = AXIS2_PLACEMENT_3D ( 'NONE', #315, #167, #63 ) ;
#129 = ORIENTED_EDGE ( 'NONE', *, *, #29, .F. ) ;
#130 = EDGE_LOOP ( 'NONE', ( #7, #325 ) ) ;
#131 = DIRECTION ( 'NONE',  ( -0.0000000000000000000, -0.0000000000000000000, -1.000000000000000000 ) ) ;
#132 = PRESENTATION_LAYER_ASSIGNMENT (  '', '', ( #160 ) ) ;
#133 = LINE ( 'NONE', #75, #159 ) ;
#134 = DIRECTION ( 'NONE',  ( 1.000000000000000000, 0.0000000000000000000, -0.0000000000000000000 ) ) ;
#135 = PRODUCT_CONTEXT ( 'NONE', #195, 'mechanical' ) ;
#136 = DIMENSIONAL_EXPONENTS ( 1.000000000000000000, 0.0000000000000000000, 0.0000000000000000000, 0.0000000000000000000, 0.0000000000000000000, 0.0000000000000000000, 0.0000000000000000000 ) ;
#137 = DIRECTION ( 'NONE',  ( 1.000000000000000000, 0.0000000000000000000, -0.0000000000000000000 ) ) ;
#138 = LENGTH_MEASURE_WITH_UNIT ( LENGTH_MEASURE( 0.02539999999999999897 ), #201 );
#139 = DIRECTION ( 'NONE',  ( -1.000000000000000000, 0.0000000000000000000, 0.0000000000000000000 ) ) ;
#140 = SURFACE_STYLE_FILL_AREA ( #268 ) ;
#141 = CYLINDRICAL_SURFACE ( 'NONE', #313, 0.1875000000000000278 ) ;
#142 = SURFACE_SIDE_STYLE ('',( #140 ) ) ;
#143 = ADVANCED_FACE ( 'NONE', ( #246, #270 ), #275, .T. ) ;
#144 = LINE ( 'NONE', #91, #17 ) ;
#145 =( NAMED_UNIT ( * ) PLANE_ANGLE_UNIT ( ) SI_UNIT ( $, .RADIAN. ) );
#146 = DIRECTION ( 'NONE',  ( -0.0000000000000000000, -0.0000000000000000000, -1.000000000000000000 ) ) ;
#147 = EDGE_CURVE ( 'NONE', #284, #187, #276, .T. ) ;
#148 = SURFACE_STYLE_FILL_AREA ( #278 ) ;
#149 = CARTESIAN_POINT ( 'NONE',  ( -0.1874500000000000610, 0.0000000000000000000, 0.0000000000000000000 ) ) ;
#150 = VERTEX_POINT ( 'NONE', #296 ) ;
#151 = UNCERTAINTY_MEASURE_WITH_UNIT (LENGTH_MEASURE( 1.000000000000000082E-05 ), #64, 'distance_accuracy_value', 'NONE');
#152 = CARTESIAN_POINT ( 'NONE',  ( 0.1875000000000000278, 2.296212748401287726E-17, 1.000000000000000000 ) ) ;
#153 = DIRECTION ( 'NONE',  ( -1.000000000000000000, 0.0000000000000000000, 0.0000000000000000000 ) ) ;
#154 = EDGE_LOOP ( 'NONE', ( #212, #329, #177, #157 ) ) ;
#155 = ORIENTED_EDGE ( 'NONE', *, *, #302, .T. ) ;
#156 = CARTESIAN_POINT ( 'NONE',  ( 0.0000000000000000000, 0.0000000000000000000, 1.707404996040164512E-17 ) ) ;
#157 = ORIENTED_EDGE ( 'NONE', *, *, #162, .F. ) ;
#158 = VERTEX_POINT ( 'NONE', #316 ) ;
#159 = VECTOR ( 'NONE', #82, 39.37007874015748143 ) ;
#160 = STYLED_ITEM ( 'NONE', ( #299 ), #215 ) ;
#161 = DIRECTION ( 'NONE',  ( -0.0000000000000000000, -0.0000000000000000000, -1.000000000000000000 ) ) ;
#162 = EDGE_CURVE ( 'NONE', #218, #96, #178, .T. ) ;
#163 = CARTESIAN_POINT ( 'NONE',  ( 0.0000000000000000000, 0.0000000000000000000, 2.500000000000000000 ) ) ;
#164 = CARTESIAN_POINT ( 'NONE',  ( 0.1874500000000001443, 0.0000000000000000000, 1.000000000000000000 ) ) ;
#165 = LENGTH_MEASURE_WITH_UNIT ( LENGTH_MEASURE( 0.02539999999999999897 ), #223 );
#166 = CIRCLE ( 'NONE', #314, 0.1874500000000001443 ) ;
#167 = DIRECTION ( 'NONE',  ( -0.0000000000000000000, -0.0000000000000000000, -1.000000000000000000 ) ) ;
#168 = ADVANCED_FACE ( 'NONE', ( #59 ), #267, .F. ) ;
#169 = CARTESIAN_POINT ( 'NONE',  ( 0.0000000000000000000, 0.0000000000000000000, 2.500000000000000000 ) ) ;
#170 = AXIS2_PLACEMENT_3D ( 'NONE', #242, #161, #66 ) ;
#171 = VECTOR ( 'NONE', #283, 39.37007874015748143 ) ;
#172 = CARTESIAN_POINT ( 'NONE',  ( 0.0000000000000000000, 0.0000000000000000000, 1.707404996040164512E-17 ) ) ;
#173 = EDGE_CURVE ( 'NONE', #288, #262, #166, .T. ) ;
#174 = DIRECTION ( 'NONE',  ( 0.7071067811865385799, 8.659560562354823157E-17, -0.7071067811865563435 ) ) ;
#175 = PRODUCT_DEFINITION_CONTEXT ( 'detailed design', #321, 'design' ) ;
#176 = CARTESIAN_POINT ( 'NONE',  ( 0.0000000000000000000, 0.0000000000000000000, 0.1799499999999993327 ) ) ;
#177 = ORIENTED_EDGE ( 'NONE', *, *, #199, .T. ) ;
#178 = CIRCLE ( 'NONE', #128, 0.1875000000000000278 ) ;
#179 = CARTESIAN_POINT ( 'NONE',  ( 0.1875000000000000278, 2.296212748401287726E-17, 2.484999999999999432 ) ) ;
#180 = DIRECTION ( 'NONE',  ( -0.0000000000000000000, -0.0000000000000000000, -1.000000000000000000 ) ) ;
#181 = ORIENTED_EDGE ( 'NONE', *, *, #77, .F. ) ;
#182 = VERTEX_POINT ( 'NONE', #245 ) ;
#183 = AXIS2_PLACEMENT_3D ( 'NONE', #65, #248, #194 ) ;
#184 = ORIENTED_EDGE ( 'NONE', *, *, #237, .T. ) ;
#185 = AXIS2_PLACEMENT_3D ( 'NONE', #257, #124, #1 ) ;
#186 = ORIENTED_EDGE ( 'NONE', *, *, #213, .F. ) ;
#187 = VERTEX_POINT ( 'NONE', #11 ) ;
#188 = CARTESIAN_POINT ( 'NONE',  ( 0.0000000000000000000, 0.0000000000000000000, 2.500000000000000000 ) ) ;
#189 = VECTOR ( 'NONE', #297, 39.37007874015748143 ) ;
#190 = ADVANCED_FACE ( 'NONE', ( #114 ), #141, .T. ) ;
#191 = AXIS2_PLACEMENT_3D ( 'NONE', #176, #94, #252 ) ;
#192 = CARTESIAN_POINT ( 'NONE',  ( 0.0000000000000000000, 0.0000000000000000000, 0.0000000000000000000 ) ) ;
#193 =( CONVERSION_BASED_UNIT ( 'INCH', #138 ) LENGTH_UNIT ( ) NAMED_UNIT ( #54 ) );
#194 = DIRECTION ( 'NONE',  ( -1.000000000000000000, 0.0000000000000000000, 0.0000000000000000000 ) ) ;
#195 = APPLICATION_CONTEXT ( 'automotive_design' ) ;
#196 = EDGE_CURVE ( 'NONE', #306, #284, #68, .T. ) ;
#197 = CARTESIAN_POINT ( 'NONE',  ( 0.0000000000000000000, 0.0000000000000000000, 2.484999999999999432 ) ) ;
#198 =( GEOMETRIC_REPRESENTATION_CONTEXT ( 3 ) GLOBAL_UNCERTAINTY_ASSIGNED_CONTEXT ( ( #79 ) ) GLOBAL_UNIT_ASSIGNED_CONTEXT ( ( #67, #323, #301 ) ) REPRESENTATION_CONTEXT ( 'NONE', 'WORKASPACE' ) );
#199 = EDGE_CURVE ( 'NONE', #187, #96, #228, .T. ) ;
#200 = FACE_OUTER_BOUND ( 'NONE', #26, .T. ) ;
#201 =( LENGTH_UNIT ( ) NAMED_UNIT ( * ) SI_UNIT ( $, .METRE. ) );
#202 = DIRECTION ( 'NONE',  ( -1.000000000000000000, 0.0000000000000000000, 0.0000000000000000000 ) ) ;
#203 = AXIS2_PLACEMENT_3D ( 'NONE', #192, #293, #137 ) ;
#204 = CONICAL_SURFACE ( 'NONE', #221, 0.007499999999999999722, 0.7853981633974501664 ) ;
#205 = CARTESIAN_POINT ( 'NONE',  ( -0.1875000000000000278, 0.0000000000000000000, 2.500000000000000000 ) ) ;
#206 = DIRECTION ( 'NONE',  ( -0.0000000000000000000, -0.0000000000000000000, -1.000000000000000000 ) ) ;
#207 = ADVANCED_FACE ( 'NONE', ( #118 ), #300, .T. ) ;
#208 = DIRECTION ( 'NONE',  ( -0.0000000000000000000, -0.0000000000000000000, -1.000000000000000000 ) ) ;
#209 = PRODUCT ( 'Micro_DM-375-290', 'Micro_DM-375-290', '', ( #135 ) ) ;
#210 = LINE ( 'NONE', #99, #171 ) ;
#211 = MECHANICAL_DESIGN_GEOMETRIC_PRESENTATION_REPRESENTATION (  '', ( #292 ), #110 ) ;
#212 = ORIENTED_EDGE ( 'NONE', *, *, #83, .F. ) ;
#213 = EDGE_CURVE ( 'NONE', #150, #32, #52, .T. ) ;
#214 = ORIENTED_EDGE ( 'NONE', *, *, #41, .T. ) ;
#215 = MANIFOLD_SOLID_BREP ( 'Cut-Revolve4', #2 ) ;
#216 = ORIENTED_EDGE ( 'NONE', *, *, #87, .T. ) ;
#217 = EDGE_LOOP ( 'NONE', ( #286, #241 ) ) ;
#218 = VERTEX_POINT ( 'NONE', #152 ) ;
#219 = DIRECTION ( 'NONE',  ( 0.0000000000000000000, 0.0000000000000000000, -1.000000000000000000 ) ) ;
#220 = DIRECTION ( 'NONE',  ( 1.000000000000000000, 0.0000000000000000000, 0.0000000000000000000 ) ) ;
#221 = AXIS2_PLACEMENT_3D ( 'NONE', #172, #20, #122 ) ;
#222 = DIRECTION ( 'NONE',  ( -1.000000000000000000, 0.0000000000000000000, 0.0000000000000000000 ) ) ;
#223 =( LENGTH_UNIT ( ) NAMED_UNIT ( * ) SI_UNIT ( $, .METRE. ) );
#224 = CYLINDRICAL_SURFACE ( 'NONE', #319, 0.1874500000000000610 ) ;
#225 = CARTESIAN_POINT ( 'NONE',  ( 0.0000000000000000000, 0.0000000000000000000, 2.500000000000000000 ) ) ;
#226 = APPLICATION_PROTOCOL_DEFINITION ( 'draft international standard', 'automotive_design', 1998, #321 ) ;
#227 = DIRECTION ( 'NONE',  ( 0.0000000000000000000, 0.0000000000000000000, -1.000000000000000000 ) ) ;
#228 = LINE ( 'NONE', #205, #27 ) ;
#229 = FACE_OUTER_BOUND ( 'NONE', #154, .T. ) ;
#230 = ORIENTED_EDGE ( 'NONE', *, *, #294, .F. ) ;
#231 = CARTESIAN_POINT ( 'NONE',  ( 0.0000000000000000000, 0.0000000000000000000, 0.0000000000000000000 ) ) ;
#232 = EDGE_CURVE ( 'NONE', #187, #284, #48, .T. ) ;
#233 = AXIS2_PLACEMENT_3D ( 'NONE', #169, #38, #134 ) ;
#234 = ORIENTED_EDGE ( 'NONE', *, *, #12, .T. ) ;
#235 = ADVANCED_BREP_SHAPE_REPRESENTATION ( 'Micro_DM-375-290', ( #215, #33 ), #81 ) ;
#236 = EDGE_LOOP ( 'NONE', ( #103, #234, #186, #53 ) ) ;
#237 = EDGE_CURVE ( 'NONE', #50, #306, #37, .T. ) ;
#238 = ORIENTED_EDGE ( 'NONE', *, *, #237, .F. ) ;
#239 = CIRCLE ( 'NONE', #58, 0.1724999999999995981 ) ;
#240 = ORIENTED_EDGE ( 'NONE', *, *, #232, .T. ) ;
#241 = ORIENTED_EDGE ( 'NONE', *, *, #162, .T. ) ;
#242 = CARTESIAN_POINT ( 'NONE',  ( 0.0000000000000000000, 0.0000000000000000000, 0.1799499999999993327 ) ) ;
#243 = CARTESIAN_POINT ( 'NONE',  ( 0.0000000000000000000, 0.0000000000000000000, 1.000000000000000000 ) ) ;
#244 = COLOUR_RGB ( '',0.7921568627450980005, 0.8196078431372548767, 0.9333333333333333481 ) ;
#245 = CARTESIAN_POINT ( 'NONE',  ( -0.007499999999999999722, 1.193724467468882453E-17, 1.707404996040164512E-17 ) ) ;
#246 = FACE_BOUND ( 'NONE', #130, .T. ) ;
#247 = FILL_AREA_STYLE_COLOUR ( '', #244 ) ;
#248 = DIRECTION ( 'NONE',  ( -0.0000000000000000000, -0.0000000000000000000, -1.000000000000000000 ) ) ;
#249 = SHAPE_DEFINITION_REPRESENTATION ( #125, #235 ) ;
#250 = AXIS2_PLACEMENT_3D ( 'NONE', #16, #317, #318 ) ;
#251 = AXIS2_PLACEMENT_3D ( 'NONE', #328, #208, #71 ) ;
#252 = DIRECTION ( 'NONE',  ( -1.000000000000000000, 0.0000000000000000000, 0.0000000000000000000 ) ) ;
#253 = CIRCLE ( 'NONE', #281, 0.007499999999999999722 ) ;
#254 = PRESENTATION_LAYER_ASSIGNMENT (  '', '', ( #292 ) ) ;
#255 = DIRECTION ( 'NONE',  ( -0.0000000000000000000, -0.0000000000000000000, -1.000000000000000000 ) ) ;
#256 = CARTESIAN_POINT ( 'NONE',  ( 0.0000000000000000000, 0.0000000000000000000, 2.484999999999999432 ) ) ;
#257 = CARTESIAN_POINT ( 'NONE',  ( 0.0000000000000000000, 0.0000000000000000000, 1.707404996040164512E-17 ) ) ;
#258 = CARTESIAN_POINT ( 'NONE',  ( 0.1874499999999999778, 0.0000000000000000000, 0.1799499999999993327 ) ) ;
#259 = AXIS2_PLACEMENT_3D ( 'NONE', #164, #36, #117 ) ;
#260 = PRODUCT_DEFINITION_FORMATION_WITH_SPECIFIED_SOURCE ( 'ANY', '', #209, .NOT_KNOWN. ) ;
#261 = ORIENTED_EDGE ( 'NONE', *, *, #12, .F. ) ;
#262 = VERTEX_POINT ( 'NONE', #44 ) ;
#263 = EDGE_LOOP ( 'NONE', ( #184, #216 ) ) ;
#264 = ORIENTED_EDGE ( 'NONE', *, *, #15, .T. ) ;
#265 = ADVANCED_FACE ( 'NONE', ( #304 ), #204, .T. ) ;
#266 = ADVANCED_FACE ( 'NONE', ( #229 ), #327, .T. ) ;
#267 = PLANE ( 'NONE',  #203 ) ;
#268 = FILL_AREA_STYLE ('',( #247 ) ) ;
#269 = EDGE_CURVE ( 'NONE', #288, #150, #46, .T. ) ;
#270 = FACE_OUTER_BOUND ( 'NONE', #217, .T. ) ;
#271 = EDGE_CURVE ( 'NONE', #262, #288, #73, .T. ) ;
#272 = DIRECTION ( 'NONE',  ( -0.0000000000000000000, -0.0000000000000000000, -1.000000000000000000 ) ) ;
#273 =( NAMED_UNIT ( * ) PLANE_ANGLE_UNIT ( ) SI_UNIT ( $, .RADIAN. ) );
#274 = FACE_OUTER_BOUND ( 'NONE', #19, .T. ) ;
#275 = PLANE ( 'NONE',  #259 ) ;
#276 = CIRCLE ( 'NONE', #80, 0.1875000000000000278 ) ;
#277 = AXIS2_PLACEMENT_3D ( 'NONE', #93, #303, #22 ) ;
#278 = FILL_AREA_STYLE ('',( #120 ) ) ;
#279 = DIRECTION ( 'NONE',  ( 0.0000000000000000000, 0.0000000000000000000, -1.000000000000000000 ) ) ;
#280 = ORIENTED_EDGE ( 'NONE', *, *, #232, .F. ) ;
#281 = AXIS2_PLACEMENT_3D ( 'NONE', #156, #131, #34 ) ;
#282 = DIRECTION ( 'NONE',  ( 1.000000000000000000, 0.0000000000000000000, 0.0000000000000000000 ) ) ;
#283 = DIRECTION ( 'NONE',  ( -0.7071067811865487940, 8.659560562354948882E-17, 0.7071067811865462405 ) ) ;
#284 = VERTEX_POINT ( 'NONE', #179 ) ;
#285 = PRODUCT_DEFINITION ( 'UNKNOWN', '', #260, #175 ) ;
#286 = ORIENTED_EDGE ( 'NONE', *, *, #72, .T. ) ;
#287 = CONICAL_SURFACE ( 'NONE', #9, 0.1724999999999995981, 0.7853981633974357335 ) ;
#288 = VERTEX_POINT ( 'NONE', #25 ) ;
#289 = EDGE_LOOP ( 'NONE', ( #119, #155, #290, #127 ) ) ;
#290 = ORIENTED_EDGE ( 'NONE', *, *, #213, .T. ) ;
#291 = DIRECTION ( 'NONE',  ( 0.0000000000000000000, 0.0000000000000000000, -1.000000000000000000 ) ) ;
#292 = STYLED_ITEM ( 'NONE', ( #312 ), #235 ) ;
#293 = DIRECTION ( 'NONE',  ( 0.0000000000000000000, 0.0000000000000000000, 1.000000000000000000 ) ) ;
#294 = EDGE_CURVE ( 'NONE', #158, #182, #320, .T. ) ;
#295 = DIRECTION ( 'NONE',  ( -1.000000000000000000, 0.0000000000000000000, 0.0000000000000000000 ) ) ;
#296 = CARTESIAN_POINT ( 'NONE',  ( -0.1874499999999999778, 2.295600425001713619E-17, 0.1799499999999993327 ) ) ;
#297 = DIRECTION ( 'NONE',  ( 0.7071067811865487940, 0.0000000000000000000, 0.7071067811865462405 ) ) ;
#298 = CARTESIAN_POINT ( 'NONE',  ( 0.1724999999999995981, 2.112515728529179297E-17, 2.500000000000000000 ) ) ;
#299 = PRESENTATION_STYLE_ASSIGNMENT (( #23 ) ) ;
#300 = CONICAL_SURFACE ( 'NONE', #43, 0.1724999999999995981, 0.7853981633974357335 ) ;
#301 =( NAMED_UNIT ( * ) SI_UNIT ( $, .STERADIAN. ) SOLID_ANGLE_UNIT ( ) );
#302 = EDGE_CURVE ( 'NONE', #182, #150, #210, .T. ) ;
#303 = DIRECTION ( 'NONE',  ( 0.0000000000000000000, 0.0000000000000000000, 1.000000000000000000 ) ) ;
#304 = FACE_OUTER_BOUND ( 'NONE', #289, .T. ) ;
#305 = FACE_OUTER_BOUND ( 'NONE', #236, .T. ) ;
#306 = VERTEX_POINT ( 'NONE', #49 ) ;
#307 = DIRECTION ( 'NONE',  ( -0.7071067811865385799, 0.0000000000000000000, -0.7071067811865563435 ) ) ;
#308 = DIMENSIONAL_EXPONENTS ( 1.000000000000000000, 0.0000000000000000000, 0.0000000000000000000, 0.0000000000000000000, 0.0000000000000000000, 0.0000000000000000000, 0.0000000000000000000 ) ;
#309 = ORIENTED_EDGE ( 'NONE', *, *, #199, .F. ) ;
#310 = ORIENTED_EDGE ( 'NONE', *, *, #271, .T. ) ;
#311 = DIRECTION ( 'NONE',  ( -0.0000000000000000000, -0.0000000000000000000, -1.000000000000000000 ) ) ;
#312 = PRESENTATION_STYLE_ASSIGNMENT (( #14 ) ) ;
#313 = AXIS2_PLACEMENT_3D ( 'NONE', #225, #146, #98 ) ;
#314 = AXIS2_PLACEMENT_3D ( 'NONE', #243, #272, #139 ) ;
#315 = CARTESIAN_POINT ( 'NONE',  ( 0.0000000000000000000, 0.0000000000000000000, 1.000000000000000000 ) ) ;
#316 = CARTESIAN_POINT ( 'NONE',  ( 0.007499999999999999722, 0.0000000000000000000, 1.707404996040164512E-17 ) ) ;
#317 = DIRECTION ( 'NONE',  ( 0.0000000000000000000, 0.0000000000000000000, 1.000000000000000000 ) ) ;
#318 = DIRECTION ( 'NONE',  ( 1.000000000000000000, 0.0000000000000000000, 0.0000000000000000000 ) ) ;
#319 = AXIS2_PLACEMENT_3D ( 'NONE', #86, #311, #222 ) ;
#320 = CIRCLE ( 'NONE', #185, 0.007499999999999999722 ) ;
#321 = APPLICATION_CONTEXT ( 'automotive_design' ) ;
#322 = ADVANCED_FACE ( 'NONE', ( #305 ), #74, .T. ) ;
#323 =( NAMED_UNIT ( * ) PLANE_ANGLE_UNIT ( ) SI_UNIT ( $, .RADIAN. ) );
#324 =( LENGTH_UNIT ( ) NAMED_UNIT ( * ) SI_UNIT ( $, .METRE. ) );
#325 = ORIENTED_EDGE ( 'NONE', *, *, #271, .F. ) ;
#326 = VECTOR ( 'NONE', #307, 39.37007874015748854 ) ;
#327 = CYLINDRICAL_SURFACE ( 'NONE', #90, 0.1875000000000000278 ) ;
#328 = CARTESIAN_POINT ( 'NONE',  ( 0.0000000000000000000, 0.0000000000000000000, 1.000000000000000000 ) ) ;
#329 = ORIENTED_EDGE ( 'NONE', *, *, #147, .T. ) ;
ENDSEC;
END-ISO-10303-21;
