ISO-10303-21;
HEADER;
FILE_DESCRIPTION (( 'STEP AP214' ),
    '1' );
FILE_NAME ('59812.STEP',
    '2023-07-12T13:05:51',
    ( '' ),
    ( '' ),
    'SwSTEP 2.0',
    'SolidWorks 2023',
    '' );
FILE_SCHEMA (( 'AUTOMOTIVE_DESIGN' ));
ENDSEC;

DATA;
#1 = DIRECTION ( 'NONE',  ( 0.000000000000000000, 0.000000000000000000, 1.000000000000000000 ) ) ;
#2 = DIMENSIONAL_EXPONENTS ( 1.000000000000000000, 0.000000000000000000, 0.000000000000000000, 0.000000000000000000, 0.000000000000000000, 0.000000000000000000, 0.000000000000000000 ) ;
#3 = AXIS2_PLACEMENT_3D ( 'NONE', #131, #135, #276 ) ;
#4 = EDGE_CURVE ( 'NONE', #164, #162, #277, .T. ) ;
#5 =( NAMED_UNIT ( * ) PLANE_ANGLE_UNIT ( ) SI_UNIT ( $, .RADIAN. ) );
#6 =( NAMED_UNIT ( * ) SI_UNIT ( $, .STERADIAN. ) SOLID_ANGLE_UNIT ( ) );
#7 = ORIENTED_EDGE ( 'NONE', *, *, #261, .T. ) ;
#8 = SURFACE_SIDE_STYLE ('',( #254 ) ) ;
#9 = AXIS2_PLACEMENT_3D ( 'NONE', #300, #89, #285 ) ;
#10 = VERTEX_POINT ( 'NONE', #209 ) ;
#11 = DIRECTION ( 'NONE',  ( -1.000000000000000000, 0.000000000000000000, 0.000000000000000000 ) ) ;
#12 = ORIENTED_EDGE ( 'NONE', *, *, #54, .T. ) ;
#13 = PRODUCT_DEFINITION_SHAPE ( 'NONE', 'NONE',  #80 ) ;
#14 = DIRECTION ( 'NONE',  ( 0.000000000000000000, 0.000000000000000000, -1.000000000000000000 ) ) ;
#15 = STYLED_ITEM ( 'NONE', ( #153 ), #233 ) ;
#16 = COLOUR_RGB ( '',1.000000000000000000, 0.000000000000000000, 0.000000000000000000 ) ;
#17 = FILL_AREA_STYLE_COLOUR ( '', #306 ) ;
#18 = PRESENTATION_LAYER_ASSIGNMENT (  '', '', ( #65 ) ) ;
#19 = ADVANCED_BREP_SHAPE_REPRESENTATION ( '59812', ( #123, #233, #179 ), #263 ) ;
#20 = DIRECTION ( 'NONE',  ( -1.253832859147201654E-16, 1.000000000000000000, -0.000000000000000000 ) ) ;
#21 =( CONVERSION_BASED_UNIT ( 'INCH', #85 ) LENGTH_UNIT ( ) NAMED_UNIT ( #34 ) );
#22 = CARTESIAN_POINT ( 'NONE',  ( 0.000000000000000000, 0.000000000000000000, 0.000000000000000000 ) ) ;
#23 = CARTESIAN_POINT ( 'NONE',  ( 6.123233995736772199E-17, 2.500000000000000000, 0.000000000000000000 ) ) ;
#24 =( NAMED_UNIT ( * ) PLANE_ANGLE_UNIT ( ) SI_UNIT ( $, .RADIAN. ) );
#25 = VERTEX_POINT ( 'NONE', #235 ) ;
#26 =( CONVERSION_BASED_UNIT ( 'INCH', #222 ) LENGTH_UNIT ( ) NAMED_UNIT ( #206 ) );
#27 = CARTESIAN_POINT ( 'NONE',  ( 0.000000000000000000, 0.000000000000000000, 0.02999999999999999889 ) ) ;
#28 = CARTESIAN_POINT ( 'NONE',  ( 0.1249999999999999445, 0.07971446496184123043, 1.530808498934189660E-17 ) ) ;
#29 = ORIENTED_EDGE ( 'NONE', *, *, #114, .F. ) ;
#30 =( CONVERSION_BASED_UNIT ( 'INCH', #161 ) LENGTH_UNIT ( ) NAMED_UNIT ( #157 ) );
#31 = FACE_OUTER_BOUND ( 'NONE', #105, .T. ) ;
#32 = CIRCLE ( 'NONE', #302, 0.02999999999999999889 ) ;
#33 = EDGE_LOOP ( 'NONE', ( #53, #29 ) ) ;
#34 = DIMENSIONAL_EXPONENTS ( 1.000000000000000000, 0.000000000000000000, 0.000000000000000000, 0.000000000000000000, 0.000000000000000000, 0.000000000000000000, 0.000000000000000000 ) ;
#35 = LINE ( 'NONE', #111, #234 ) ;
#36 = DIRECTION ( 'NONE',  ( -1.000000000000000000, 0.000000000000000000, 0.000000000000000000 ) ) ;
#37 = PRESENTATION_LAYER_ASSIGNMENT (  '', '', ( #286 ) ) ;
#38 = FACE_OUTER_BOUND ( 'NONE', #78, .T. ) ;
#39 =( CONVERSION_BASED_UNIT ( 'INCH', #305 ) LENGTH_UNIT ( ) NAMED_UNIT ( #290 ) );
#40 = PRESENTATION_STYLE_ASSIGNMENT (( #172 ) ) ;
#41 = PRODUCT_DEFINITION_CONTEXT ( 'detailed design', #136, 'design' ) ;
#42 =( NAMED_UNIT ( * ) SI_UNIT ( $, .STERADIAN. ) SOLID_ANGLE_UNIT ( ) );
#43 = MECHANICAL_DESIGN_GEOMETRIC_PRESENTATION_REPRESENTATION (  '', ( #119 ), #91 ) ;
#44 = SURFACE_SIDE_STYLE ('',( #88 ) ) ;
#45 = AXIS2_PLACEMENT_3D ( 'NONE', #273, #258, #36 ) ;
#46 = SURFACE_STYLE_USAGE ( .BOTH. , #271 ) ;
#47 = ORIENTED_EDGE ( 'NONE', *, *, #114, .T. ) ;
#48 = DIRECTION ( 'NONE',  ( 0.000000000000000000, 0.000000000000000000, -1.000000000000000000 ) ) ;
#49 = MECHANICAL_DESIGN_GEOMETRIC_PRESENTATION_REPRESENTATION (  '', ( #15 ), #52 ) ;
#50 =( NAMED_UNIT ( * ) SI_UNIT ( $, .STERADIAN. ) SOLID_ANGLE_UNIT ( ) );
#51 = SURFACE_SIDE_STYLE ('',( #196 ) ) ;
#52 =( GEOMETRIC_REPRESENTATION_CONTEXT ( 3 ) GLOBAL_UNCERTAINTY_ASSIGNED_CONTEXT ( ( #192 ) ) GLOBAL_UNIT_ASSIGNED_CONTEXT ( ( #30, #5, #229 ) ) REPRESENTATION_CONTEXT ( 'NONE', 'WORKASPACE' ) );
#53 = ORIENTED_EDGE ( 'NONE', *, *, #125, .F. ) ;
#54 = EDGE_CURVE ( 'NONE', #294, #73, #133, .T. ) ;
#55 = CARTESIAN_POINT ( 'NONE',  ( 0.000000000000000000, 0.000000000000000000, 0.000000000000000000 ) ) ;
#56 = LINE ( 'NONE', #211, #240 ) ;
#57 =( GEOMETRIC_REPRESENTATION_CONTEXT ( 3 ) GLOBAL_UNCERTAINTY_ASSIGNED_CONTEXT ( ( #138 ) ) GLOBAL_UNIT_ASSIGNED_CONTEXT ( ( #39, #24, #173 ) ) REPRESENTATION_CONTEXT ( 'NONE', 'WORKASPACE' ) );
#58 = DIRECTION ( 'NONE',  ( 0.000000000000000000, 0.000000000000000000, -1.000000000000000000 ) ) ;
#59 = CARTESIAN_POINT ( 'NONE',  ( 0.000000000000000000, 0.07971446496184131369, 0.000000000000000000 ) ) ;
#60 = PLANE ( 'NONE',  #146 ) ;
#61 = DIRECTION ( 'NONE',  ( 1.000000000000000000, 1.253832859147201654E-16, 0.000000000000000000 ) ) ;
#62 = PRODUCT_DEFINITION_FORMATION_WITH_SPECIFIED_SOURCE ( 'ANY', '', #264, .NOT_KNOWN. ) ;
#63 = SURFACE_STYLE_FILL_AREA ( #142 ) ;
#64 =( CONVERSION_BASED_UNIT ( 'INCH', #265 ) LENGTH_UNIT ( ) NAMED_UNIT ( #102 ) );
#65 = STYLED_ITEM ( 'NONE', ( #279 ), #144 ) ;
#66 = CONICAL_SURFACE ( 'NONE', #215, 0.02999999999999999889, 0.8726646259971664321 ) ;
#67 = CARTESIAN_POINT ( 'NONE',  ( 0.000000000000000000, 0.000000000000000000, 0.000000000000000000 ) ) ;
#68 =( NAMED_UNIT ( * ) PLANE_ANGLE_UNIT ( ) SI_UNIT ( $, .RADIAN. ) );
#69 = LINE ( 'NONE', #95, #223 ) ;
#70 = CIRCLE ( 'NONE', #289, 0.1249999999999999861 ) ;
#71 = UNCERTAINTY_MEASURE_WITH_UNIT (LENGTH_MEASURE( 1.000000000000000082E-05 ), #75, 'distance_accuracy_value', 'NONE');
#72 = DIRECTION ( 'NONE',  ( -1.253832859147201654E-16, 1.000000000000000000, -0.000000000000000000 ) ) ;
#73 = VERTEX_POINT ( 'NONE', #230 ) ;
#74 = AXIS2_PLACEMENT_3D ( 'NONE', #156, #72, #288 ) ;
#75 =( CONVERSION_BASED_UNIT ( 'INCH', #129 ) LENGTH_UNIT ( ) NAMED_UNIT ( #2 ) );
#76 = EDGE_LOOP ( 'NONE', ( #280, #127, #203, #149 ) ) ;
#77 = CARTESIAN_POINT ( 'NONE',  ( 0.000000000000000000, 0.000000000000000000, 0.000000000000000000 ) ) ;
#78 = EDGE_LOOP ( 'NONE', ( #299, #296, #108, #213 ) ) ;
#79 = ORIENTED_EDGE ( 'NONE', *, *, #152, .T. ) ;
#80 = PRODUCT_DEFINITION ( 'UNKNOWN', '', #62, #41 ) ;
#81 = AXIS2_PLACEMENT_3D ( 'NONE', #22, #126, #244 ) ;
#82 = EDGE_CURVE ( 'NONE', #162, #164, #239, .T. ) ;
#83 = ORIENTED_EDGE ( 'NONE', *, *, #110, .F. ) ;
#84 = EDGE_CURVE ( 'NONE', #188, #10, #32, .T. ) ;
#85 = LENGTH_MEASURE_WITH_UNIT ( LENGTH_MEASURE( 0.02539999999999999897 ), #262 );
#86 = FILL_AREA_STYLE_COLOUR ( '', #195 ) ;
#87 = DIRECTION ( 'NONE',  ( 0.000000000000000000, -0.000000000000000000, 1.000000000000000000 ) ) ;
#88 = SURFACE_STYLE_FILL_AREA ( #303 ) ;
#89 = DIRECTION ( 'NONE',  ( -0.000000000000000000, -1.000000000000000000, -0.000000000000000000 ) ) ;
#90 = CARTESIAN_POINT ( 'NONE',  ( 0.000000000000000000, 0.07971446496184131369, 0.000000000000000000 ) ) ;
#91 =( GEOMETRIC_REPRESENTATION_CONTEXT ( 3 ) GLOBAL_UNCERTAINTY_ASSIGNED_CONTEXT ( ( #183 ) ) GLOBAL_UNIT_ASSIGNED_CONTEXT ( ( #64, #194, #42 ) ) REPRESENTATION_CONTEXT ( 'NONE', 'WORKASPACE' ) );
#92 = STYLED_ITEM ( 'NONE', ( #103 ), #238 ) ;
#93 = ORIENTED_EDGE ( 'NONE', *, *, #84, .T. ) ;
#94 = APPLICATION_PROTOCOL_DEFINITION ( 'draft international standard', 'automotive_design', 1998, #252 ) ;
#95 = CARTESIAN_POINT ( 'NONE',  ( 0.000000000000000000, 0.000000000000000000, 0.02999999999999999889 ) ) ;
#96 =( NAMED_UNIT ( * ) PLANE_ANGLE_UNIT ( ) SI_UNIT ( $, .RADIAN. ) );
#97 = EDGE_LOOP ( 'NONE', ( #93, #297 ) ) ;
#98 = ADVANCED_FACE ( 'NONE', ( #237 ), #165, .T. ) ;
#99 = CLOSED_SHELL ( 'NONE', ( #167, #122, #144, #238 ) ) ;
#100 = CONICAL_SURFACE ( 'NONE', #81, 0.02999999999999999889, 0.8726646259971664321 ) ;
#101 = FILL_AREA_STYLE_COLOUR ( '', #216 ) ;
#102 = DIMENSIONAL_EXPONENTS ( 1.000000000000000000, 0.000000000000000000, 0.000000000000000000, 0.000000000000000000, 0.000000000000000000, 0.000000000000000000, 0.000000000000000000 ) ;
#103 = PRESENTATION_STYLE_ASSIGNMENT (( #107 ) ) ;
#104 = FILL_AREA_STYLE ('',( #228 ) ) ;
#105 = EDGE_LOOP ( 'NONE', ( #169, #109 ) ) ;
#106 = COLOUR_RGB ( '',0.7921568627450980005, 0.8196078431372548767, 0.9333333333333333481 ) ;
#107 = SURFACE_STYLE_USAGE ( .BOTH. , #8 ) ;
#108 = ORIENTED_EDGE ( 'NONE', *, *, #307, .T. ) ;
#109 = ORIENTED_EDGE ( 'NONE', *, *, #54, .F. ) ;
#110 = EDGE_CURVE ( 'NONE', #294, #162, #35, .T. ) ;
#111 = CARTESIAN_POINT ( 'NONE',  ( 0.1249999999999998473, 2.500000000000000000, 1.530808498934188736E-17 ) ) ;
#112 = PRESENTATION_LAYER_ASSIGNMENT (  '', '', ( #92 ) ) ;
#113 = DIRECTION ( 'NONE',  ( -1.253832859147201654E-16, 1.000000000000000000, 0.000000000000000000 ) ) ;
#114 = EDGE_CURVE ( 'NONE', #158, #25, #70, .T. ) ;
#115 = UNCERTAINTY_MEASURE_WITH_UNIT (LENGTH_MEASURE( 1.000000000000000082E-05 ), #26, 'distance_accuracy_value', 'NONE');
#116 = PRESENTATION_STYLE_ASSIGNMENT (( #304 ) ) ;
#117 = FACE_OUTER_BOUND ( 'NONE', #33, .T. ) ;
#118 = ADVANCED_FACE ( 'NONE', ( #31 ), #132, .F. ) ;
#119 = STYLED_ITEM ( 'NONE', ( #40 ), #122 ) ;
#120 = CARTESIAN_POINT ( 'NONE',  ( 1.530808498934191201E-17, 0.07971446496184131369, -0.1249999999999999861 ) ) ;
#121 = FILL_AREA_STYLE ('',( #143 ) ) ;
#122 = ADVANCED_FACE ( 'NONE', ( #117 ), #170, .T. ) ;
#123 = MANIFOLD_SOLID_BREP ( 'Revolve - Cutting Edge', #99 ) ;
#124 = CLOSED_SHELL ( 'NONE', ( #281, #118, #98, #140 ) ) ;
#125 = EDGE_CURVE ( 'NONE', #25, #158, #166, .T. ) ;
#126 = DIRECTION ( 'NONE',  ( 0.000000000000000000, 1.000000000000000000, 0.000000000000000000 ) ) ;
#127 = ORIENTED_EDGE ( 'NONE', *, *, #110, .T. ) ;
#128 =( CONVERSION_BASED_UNIT ( 'INCH', #163 ) LENGTH_UNIT ( ) NAMED_UNIT ( #182 ) );
#129 = LENGTH_MEASURE_WITH_UNIT ( LENGTH_MEASURE( 0.02539999999999999897 ), #309 );
#130 = MECHANICAL_DESIGN_GEOMETRIC_PRESENTATION_REPRESENTATION (  '', ( #286 ), #159 ) ;
#131 = CARTESIAN_POINT ( 'NONE',  ( 6.123233995736772199E-17, 2.500000000000000000, 0.000000000000000000 ) ) ;
#132 = PLANE ( 'NONE',  #247 ) ;
#133 = CIRCLE ( 'NONE', #210, 0.1249999999999996114 ) ;
#134 = DIRECTION ( 'NONE',  ( -0.000000000000000000, -1.000000000000000000, -0.000000000000000000 ) ) ;
#135 = DIRECTION ( 'NONE',  ( -1.253832859147201654E-16, 1.000000000000000000, -0.000000000000000000 ) ) ;
#136 = APPLICATION_CONTEXT ( 'automotive_design' ) ;
#137 = CARTESIAN_POINT ( 'NONE',  ( 6.123233995736772199E-17, 2.500000000000000000, 0.000000000000000000 ) ) ;
#138 = UNCERTAINTY_MEASURE_WITH_UNIT (LENGTH_MEASURE( 1.000000000000000082E-05 ), #39, 'distance_accuracy_value', 'NONE');
#139 = CIRCLE ( 'NONE', #292, 0.02999999999999999889 ) ;
#140 = ADVANCED_FACE ( 'NONE', ( #174 ), #60, .F. ) ;
#141 =( LENGTH_UNIT ( ) NAMED_UNIT ( * ) SI_UNIT ( $, .METRE. ) );
#142 = FILL_AREA_STYLE ('',( #17 ) ) ;
#143 = FILL_AREA_STYLE_COLOUR ( '', #106 ) ;
#144 = ADVANCED_FACE ( 'NONE', ( #38 ), #100, .T. ) ;
#145 = UNCERTAINTY_MEASURE_WITH_UNIT (LENGTH_MEASURE( 1.000000000000000082E-05 ), #21, 'distance_accuracy_value', 'NONE');
#146 = AXIS2_PLACEMENT_3D ( 'NONE', #283, #267, #61 ) ;
#147 = SURFACE_STYLE_USAGE ( .BOTH. , #44 ) ;
#148 =( LENGTH_UNIT ( ) NAMED_UNIT ( * ) SI_UNIT ( $, .METRE. ) );
#149 = ORIENTED_EDGE ( 'NONE', *, *, #152, .F. ) ;
#150 = PRESENTATION_LAYER_ASSIGNMENT (  '', '', ( #119 ) ) ;
#151 = CYLINDRICAL_SURFACE ( 'NONE', #186, 0.1249999999999997780 ) ;
#152 = EDGE_CURVE ( 'NONE', #73, #164, #197, .T. ) ;
#153 = PRESENTATION_STYLE_ASSIGNMENT (( #46 ) ) ;
#154 = DIRECTION ( 'NONE',  ( -1.000000000000000000, 0.000000000000000000, 0.000000000000000000 ) ) ;
#155 = DIRECTION ( 'NONE',  ( -0.000000000000000000, -1.000000000000000000, -0.000000000000000000 ) ) ;
#156 = CARTESIAN_POINT ( 'NONE',  ( 3.646956931923187038E-16, 0.07971446496184120267, 0.000000000000000000 ) ) ;
#157 = DIMENSIONAL_EXPONENTS ( 1.000000000000000000, 0.000000000000000000, 0.000000000000000000, 0.000000000000000000, 0.000000000000000000, 0.000000000000000000, 0.000000000000000000 ) ;
#158 = VERTEX_POINT ( 'NONE', #120 ) ;
#159 =( GEOMETRIC_REPRESENTATION_CONTEXT ( 3 ) GLOBAL_UNCERTAINTY_ASSIGNED_CONTEXT ( ( #71 ) ) GLOBAL_UNIT_ASSIGNED_CONTEXT ( ( #75, #205, #50 ) ) REPRESENTATION_CONTEXT ( 'NONE', 'WORKASPACE' ) );
#160 =( GEOMETRIC_REPRESENTATION_CONTEXT ( 3 ) GLOBAL_UNCERTAINTY_ASSIGNED_CONTEXT ( ( #272 ) ) GLOBAL_UNIT_ASSIGNED_CONTEXT ( ( #128, #96, #202 ) ) REPRESENTATION_CONTEXT ( 'NONE', 'WORKASPACE' ) );
#161 = LENGTH_MEASURE_WITH_UNIT ( LENGTH_MEASURE( 0.02539999999999999897 ), #249 );
#162 = VERTEX_POINT ( 'NONE', #201 ) ;
#163 = LENGTH_MEASURE_WITH_UNIT ( LENGTH_MEASURE( 0.02539999999999999897 ), #207 );
#164 = VERTEX_POINT ( 'NONE', #175 ) ;
#165 = CYLINDRICAL_SURFACE ( 'NONE', #184, 0.1249999999999997780 ) ;
#166 = CIRCLE ( 'NONE', #9, 0.1249999999999999861 ) ;
#167 = ADVANCED_FACE ( 'NONE', ( #287 ), #66, .T. ) ;
#168 = DIRECTION ( 'NONE',  ( -1.253832859147201654E-16, 1.000000000000000000, -0.000000000000000000 ) ) ;
#169 = ORIENTED_EDGE ( 'NONE', *, *, #231, .F. ) ;
#170 = PLANE ( 'NONE',  #190 ) ;
#171 = MECHANICAL_DESIGN_GEOMETRIC_PRESENTATION_REPRESENTATION (  '', ( #257 ), #278 ) ;
#172 = SURFACE_STYLE_USAGE ( .BOTH. , #260 ) ;
#173 =( NAMED_UNIT ( * ) SI_UNIT ( $, .STERADIAN. ) SOLID_ANGLE_UNIT ( ) );
#174 = FACE_OUTER_BOUND ( 'NONE', #185, .T. ) ;
#175 = CARTESIAN_POINT ( 'NONE',  ( -0.1249999999999998612, 2.500000000000000000, 0.000000000000000000 ) ) ;
#176 = DIRECTION ( 'NONE',  ( 1.000000000000000000, 0.000000000000000000, 0.000000000000000000 ) ) ;
#177 = PRESENTATION_LAYER_ASSIGNMENT (  '', '', ( #257 ) ) ;
#178 = FACE_OUTER_BOUND ( 'NONE', #97, .T. ) ;
#179 = AXIS2_PLACEMENT_3D ( 'NONE', #246, #1, #176 ) ;
#180 = SHAPE_DEFINITION_REPRESENTATION ( #13, #19 ) ;
#181 = FILL_AREA_STYLE ('',( #101 ) ) ;
#182 = DIMENSIONAL_EXPONENTS ( 1.000000000000000000, 0.000000000000000000, 0.000000000000000000, 0.000000000000000000, 0.000000000000000000, 0.000000000000000000, 0.000000000000000000 ) ;
#183 = UNCERTAINTY_MEASURE_WITH_UNIT (LENGTH_MEASURE( 1.000000000000000082E-05 ), #64, 'distance_accuracy_value', 'NONE');
#184 = AXIS2_PLACEMENT_3D ( 'NONE', #137, #168, #11 ) ;
#185 = EDGE_LOOP ( 'NONE', ( #236, #193 ) ) ;
#186 = AXIS2_PLACEMENT_3D ( 'NONE', #23, #226, #154 ) ;
#187 = DIRECTION ( 'NONE',  ( 0.000000000000000000, -1.000000000000000000, -0.000000000000000000 ) ) ;
#188 = VERTEX_POINT ( 'NONE', #27 ) ;
#189 = ORIENTED_EDGE ( 'NONE', *, *, #307, .F. ) ;
#190 = AXIS2_PLACEMENT_3D ( 'NONE', #90, #282, #87 ) ;
#191 = DIRECTION ( 'NONE',  ( -1.253832859147201654E-16, 1.000000000000000000, -0.000000000000000000 ) ) ;
#192 = UNCERTAINTY_MEASURE_WITH_UNIT (LENGTH_MEASURE( 1.000000000000000082E-05 ), #30, 'distance_accuracy_value', 'NONE');
#193 = ORIENTED_EDGE ( 'NONE', *, *, #82, .T. ) ;
#194 =( NAMED_UNIT ( * ) PLANE_ANGLE_UNIT ( ) SI_UNIT ( $, .RADIAN. ) );
#195 = COLOUR_RGB ( '',1.000000000000000000, 0.000000000000000000, 0.000000000000000000 ) ;
#196 = SURFACE_STYLE_FILL_AREA ( #301 ) ;
#197 = LINE ( 'NONE', #270, #243 ) ;
#198 = PRESENTATION_LAYER_ASSIGNMENT (  '', '', ( #15 ) ) ;
#199 = AXIS2_PLACEMENT_3D ( 'NONE', #77, #187, #274 ) ;
#200 = PRODUCT_CONTEXT ( 'NONE', #252, 'mechanical' ) ;
#201 = CARTESIAN_POINT ( 'NONE',  ( 0.1249999999999999861, 2.500000000000000000, 1.530808498934189660E-17 ) ) ;
#202 =( NAMED_UNIT ( * ) SI_UNIT ( $, .STERADIAN. ) SOLID_ANGLE_UNIT ( ) );
#203 = ORIENTED_EDGE ( 'NONE', *, *, #4, .F. ) ;
#204 = MECHANICAL_DESIGN_GEOMETRIC_PRESENTATION_REPRESENTATION (  '', ( #65 ), #57 ) ;
#205 =( NAMED_UNIT ( * ) PLANE_ANGLE_UNIT ( ) SI_UNIT ( $, .RADIAN. ) );
#206 = DIMENSIONAL_EXPONENTS ( 1.000000000000000000, 0.000000000000000000, 0.000000000000000000, 0.000000000000000000, 0.000000000000000000, 0.000000000000000000, 0.000000000000000000 ) ;
#207 =( LENGTH_UNIT ( ) NAMED_UNIT ( * ) SI_UNIT ( $, .METRE. ) );
#208 = DIRECTION ( 'NONE',  ( 0.000000000000000000, 0.000000000000000000, 1.000000000000000000 ) ) ;
#209 = CARTESIAN_POINT ( 'NONE',  ( 9.491012693391986370E-18, 0.000000000000000000, -0.02999999999999999889 ) ) ;
#210 = AXIS2_PLACEMENT_3D ( 'NONE', #232, #191, #275 ) ;
#211 = CARTESIAN_POINT ( 'NONE',  ( 3.673940397442059190E-18, 0.000000000000000000, -0.02999999999999999889 ) ) ;
#212 = ORIENTED_EDGE ( 'NONE', *, *, #269, .F. ) ;
#213 = ORIENTED_EDGE ( 'NONE', *, *, #125, .T. ) ;
#214 = DIRECTION ( 'NONE',  ( -0.000000000000000000, -1.000000000000000000, -0.000000000000000000 ) ) ;
#215 = AXIS2_PLACEMENT_3D ( 'NONE', #67, #251, #208 ) ;
#216 = COLOUR_RGB ( '',0.7921568627450980005, 0.8196078431372548767, 0.9333333333333333481 ) ;
#217 = DIRECTION ( 'NONE',  ( -1.000000000000000000, -1.253832859147201654E-16, 0.000000000000000000 ) ) ;
#218 = SURFACE_STYLE_FILL_AREA ( #121 ) ;
#219 = SURFACE_STYLE_USAGE ( .BOTH. , #51 ) ;
#220 =( NAMED_UNIT ( * ) SI_UNIT ( $, .STERADIAN. ) SOLID_ANGLE_UNIT ( ) );
#221 = SURFACE_SIDE_STYLE ('',( #218 ) ) ;
#222 = LENGTH_MEASURE_WITH_UNIT ( LENGTH_MEASURE( 0.02539999999999999897 ), #148 );
#223 = VECTOR ( 'NONE', #248, 39.37007874015748143 ) ;
#224 = APPLICATION_PROTOCOL_DEFINITION ( 'draft international standard', 'automotive_design', 1998, #136 ) ;
#225 = PLANE ( 'NONE',  #199 ) ;
#226 = DIRECTION ( 'NONE',  ( -1.253832859147201654E-16, 1.000000000000000000, -0.000000000000000000 ) ) ;
#227 = SURFACE_STYLE_FILL_AREA ( #181 ) ;
#228 = FILL_AREA_STYLE_COLOUR ( '', #16 ) ;
#229 =( NAMED_UNIT ( * ) SI_UNIT ( $, .STERADIAN. ) SOLID_ANGLE_UNIT ( ) );
#230 = CARTESIAN_POINT ( 'NONE',  ( -0.1249999999999992506, 0.07971446496184118879, 0.000000000000000000 ) ) ;
#231 = EDGE_CURVE ( 'NONE', #73, #294, #293, .T. ) ;
#232 = CARTESIAN_POINT ( 'NONE',  ( 3.646956931923187038E-16, 0.07971446496184120267, 0.000000000000000000 ) ) ;
#233 = MANIFOLD_SOLID_BREP ( 'Revolve - Tool Body (Tipped Off)', #124 ) ;
#234 = VECTOR ( 'NONE', #255, 39.37007874015748143 ) ;
#235 = CARTESIAN_POINT ( 'NONE',  ( 0.000000000000000000, 0.07971446496184131369, 0.1249999999999999861 ) ) ;
#236 = ORIENTED_EDGE ( 'NONE', *, *, #4, .T. ) ;
#237 = FACE_OUTER_BOUND ( 'NONE', #256, .T. ) ;
#238 = ADVANCED_FACE ( 'NONE', ( #178 ), #225, .T. ) ;
#239 = CIRCLE ( 'NONE', #45, 0.1249999999999999306 ) ;
#240 = VECTOR ( 'NONE', #295, 39.37007874015748143 ) ;
#241 =( LENGTH_UNIT ( ) NAMED_UNIT ( * ) SI_UNIT ( $, .METRE. ) );
#242 = PRODUCT_RELATED_PRODUCT_CATEGORY ( 'part', '', ( #264 ) ) ;
#243 = VECTOR ( 'NONE', #20, 39.37007874015748143 ) ;
#244 = DIRECTION ( 'NONE',  ( 0.000000000000000000, 0.000000000000000000, 1.000000000000000000 ) ) ;
#245 = PRESENTATION_STYLE_ASSIGNMENT (( #147 ) ) ;
#246 = CARTESIAN_POINT ( 'NONE',  ( 0.000000000000000000, 0.000000000000000000, 0.000000000000000000 ) ) ;
#247 = AXIS2_PLACEMENT_3D ( 'NONE', #298, #113, #217 ) ;
#248 = DIRECTION ( 'NONE',  ( 0.000000000000000000, 0.6427876096865380307, 0.7660444431189791237 ) ) ;
#249 =( LENGTH_UNIT ( ) NAMED_UNIT ( * ) SI_UNIT ( $, .METRE. ) );
#250 = CARTESIAN_POINT ( 'NONE',  ( 0.000000000000000000, 0.000000000000000000, 0.000000000000000000 ) ) ;
#251 = DIRECTION ( 'NONE',  ( 0.000000000000000000, 1.000000000000000000, 0.000000000000000000 ) ) ;
#252 = APPLICATION_CONTEXT ( 'automotive_design' ) ;
#253 = EDGE_LOOP ( 'NONE', ( #212, #7, #47, #189 ) ) ;
#254 = SURFACE_STYLE_FILL_AREA ( #104 ) ;
#255 = DIRECTION ( 'NONE',  ( -1.253832859147201654E-16, 1.000000000000000000, -0.000000000000000000 ) ) ;
#256 = EDGE_LOOP ( 'NONE', ( #83, #12, #79, #259 ) ) ;
#257 = STYLED_ITEM ( 'NONE', ( #116 ), #123 ) ;
#258 = DIRECTION ( 'NONE',  ( -1.253832859147201654E-16, 1.000000000000000000, -0.000000000000000000 ) ) ;
#259 = ORIENTED_EDGE ( 'NONE', *, *, #82, .F. ) ;
#260 = SURFACE_SIDE_STYLE ('',( #63 ) ) ;
#261 = EDGE_CURVE ( 'NONE', #10, #158, #56, .T. ) ;
#262 =( LENGTH_UNIT ( ) NAMED_UNIT ( * ) SI_UNIT ( $, .METRE. ) );
#263 =( GEOMETRIC_REPRESENTATION_CONTEXT ( 3 ) GLOBAL_UNCERTAINTY_ASSIGNED_CONTEXT ( ( #115 ) ) GLOBAL_UNIT_ASSIGNED_CONTEXT ( ( #26, #68, #6 ) ) REPRESENTATION_CONTEXT ( 'NONE', 'WORKASPACE' ) );
#264 = PRODUCT ( '59812', '59812', '', ( #200 ) ) ;
#265 = LENGTH_MEASURE_WITH_UNIT ( LENGTH_MEASURE( 0.02539999999999999897 ), #241 );
#266 = COLOUR_RGB ( '',1.000000000000000000, 0.000000000000000000, 0.000000000000000000 ) ;
#267 = DIRECTION ( 'NONE',  ( 1.253832859147201654E-16, -1.000000000000000000, 0.000000000000000000 ) ) ;
#268 = FILL_AREA_STYLE_COLOUR ( '', #266 ) ;
#269 = EDGE_CURVE ( 'NONE', #10, #188, #139, .T. ) ;
#270 = CARTESIAN_POINT ( 'NONE',  ( -0.1249999999999997086, 2.500000000000000000, 0.000000000000000000 ) ) ;
#271 = SURFACE_SIDE_STYLE ('',( #227 ) ) ;
#272 = UNCERTAINTY_MEASURE_WITH_UNIT (LENGTH_MEASURE( 1.000000000000000082E-05 ), #128, 'distance_accuracy_value', 'NONE');
#273 = CARTESIAN_POINT ( 'NONE',  ( 6.123233995736772199E-17, 2.500000000000000000, 0.000000000000000000 ) ) ;
#274 = DIRECTION ( 'NONE',  ( 0.000000000000000000, 0.000000000000000000, -1.000000000000000000 ) ) ;
#275 = DIRECTION ( 'NONE',  ( -1.000000000000000000, -1.365923996832135800E-16, 0.000000000000000000 ) ) ;
#276 = DIRECTION ( 'NONE',  ( -1.000000000000000000, 0.000000000000000000, 0.000000000000000000 ) ) ;
#277 = CIRCLE ( 'NONE', #3, 0.1249999999999999306 ) ;
#278 =( GEOMETRIC_REPRESENTATION_CONTEXT ( 3 ) GLOBAL_UNCERTAINTY_ASSIGNED_CONTEXT ( ( #145 ) ) GLOBAL_UNIT_ASSIGNED_CONTEXT ( ( #21, #284, #220 ) ) REPRESENTATION_CONTEXT ( 'NONE', 'WORKASPACE' ) );
#279 = PRESENTATION_STYLE_ASSIGNMENT (( #219 ) ) ;
#280 = ORIENTED_EDGE ( 'NONE', *, *, #231, .T. ) ;
#281 = ADVANCED_FACE ( 'NONE', ( #291 ), #151, .T. ) ;
#282 = DIRECTION ( 'NONE',  ( 0.000000000000000000, 1.000000000000000000, 0.000000000000000000 ) ) ;
#283 = CARTESIAN_POINT ( 'NONE',  ( 0.1250000000000000000, 2.500000000000000000, 0.000000000000000000 ) ) ;
#284 =( NAMED_UNIT ( * ) PLANE_ANGLE_UNIT ( ) SI_UNIT ( $, .RADIAN. ) );
#285 = DIRECTION ( 'NONE',  ( 0.000000000000000000, 0.000000000000000000, -1.000000000000000000 ) ) ;
#286 = STYLED_ITEM ( 'NONE', ( #245 ), #167 ) ;
#287 = FACE_OUTER_BOUND ( 'NONE', #253, .T. ) ;
#288 = DIRECTION ( 'NONE',  ( -1.000000000000000000, -1.365923996832135800E-16, 0.000000000000000000 ) ) ;
#289 = AXIS2_PLACEMENT_3D ( 'NONE', #59, #214, #14 ) ;
#290 = DIMENSIONAL_EXPONENTS ( 1.000000000000000000, 0.000000000000000000, 0.000000000000000000, 0.000000000000000000, 0.000000000000000000, 0.000000000000000000, 0.000000000000000000 ) ;
#291 = FACE_OUTER_BOUND ( 'NONE', #76, .T. ) ;
#292 = AXIS2_PLACEMENT_3D ( 'NONE', #250, #155, #48 ) ;
#293 = CIRCLE ( 'NONE', #74, 0.1249999999999996114 ) ;
#294 = VERTEX_POINT ( 'NONE', #28 ) ;
#295 = DIRECTION ( 'NONE',  ( 9.381338752702743107E-17, 0.6427876096865380307, -0.7660444431189791237 ) ) ;
#296 = ORIENTED_EDGE ( 'NONE', *, *, #84, .F. ) ;
#297 = ORIENTED_EDGE ( 'NONE', *, *, #269, .T. ) ;
#298 = CARTESIAN_POINT ( 'NONE',  ( 3.646956931923186545E-16, 0.07971446496184131369, 0.000000000000000000 ) ) ;
#299 = ORIENTED_EDGE ( 'NONE', *, *, #261, .F. ) ;
#300 = CARTESIAN_POINT ( 'NONE',  ( 0.000000000000000000, 0.07971446496184131369, 0.000000000000000000 ) ) ;
#301 = FILL_AREA_STYLE ('',( #86 ) ) ;
#302 = AXIS2_PLACEMENT_3D ( 'NONE', #55, #134, #58 ) ;
#303 = FILL_AREA_STYLE ('',( #268 ) ) ;
#304 = SURFACE_STYLE_USAGE ( .BOTH. , #221 ) ;
#305 = LENGTH_MEASURE_WITH_UNIT ( LENGTH_MEASURE( 0.02539999999999999897 ), #141 );
#306 = COLOUR_RGB ( '',1.000000000000000000, 0.000000000000000000, 0.000000000000000000 ) ;
#307 = EDGE_CURVE ( 'NONE', #188, #25, #69, .T. ) ;
#308 = MECHANICAL_DESIGN_GEOMETRIC_PRESENTATION_REPRESENTATION (  '', ( #92 ), #160 ) ;
#309 =( LENGTH_UNIT ( ) NAMED_UNIT ( * ) SI_UNIT ( $, .METRE. ) );
ENDSEC;
END-ISO-10303-21;
