ISO-10303-21;
HEADER;
FILE_DESCRIPTION (( 'STEP AP214' ),
    '1' );
FILE_NAME ('12182.STEP',
    '2023-06-30T21:51:02',
    ( '' ),
    ( '' ),
    'SwSTEP 2.0',
    'SolidWorks 2023',
    '' );
FILE_SCHEMA (( 'AUTOMOTIVE_DESIGN' ));
ENDSEC;

DATA;
#1 = DIMENSIONAL_EXPONENTS ( 1.000000000000000000, 0.000000000000000000, 0.000000000000000000, 0.000000000000000000, 0.000000000000000000, 0.000000000000000000, 0.000000000000000000 ) ;
#2 = DIRECTION ( 'NONE',  ( -0.000000000000000000, -1.000000000000000000, -0.000000000000000000 ) ) ;
#3 = MECHANICAL_DESIGN_GEOMETRIC_PRESENTATION_REPRESENTATION (  '', ( #240 ), #45 ) ;
#4 = DIRECTION ( 'NONE',  ( -1.224646799147353207E-16, 1.000000000000000000, -0.000000000000000000 ) ) ;
#5 = ADVANCED_FACE ( 'NONE', ( #229 ), #349, .T. ) ;
#6 = COLOUR_RGB ( '',1.000000000000000000, 0.000000000000000000, 0.000000000000000000 ) ;
#7 = DIRECTION ( 'NONE',  ( -1.224646799147353207E-16, 1.000000000000000000, -0.000000000000000000 ) ) ;
#8 = DIRECTION ( 'NONE',  ( -1.000000000000000000, 0.000000000000000000, 0.000000000000000000 ) ) ;
#9 = ORIENTED_EDGE ( 'NONE', *, *, #120, .F. ) ;
#10 = ORIENTED_EDGE ( 'NONE', *, *, #138, .T. ) ;
#11 = AXIS2_PLACEMENT_3D ( 'NONE', #141, #4, #52 ) ;
#12 = VERTEX_POINT ( 'NONE', #58 ) ;
#13 =( NAMED_UNIT ( * ) SI_UNIT ( $, .STERADIAN. ) SOLID_ANGLE_UNIT ( ) );
#14 = VERTEX_POINT ( 'NONE', #150 ) ;
#15 = FACE_OUTER_BOUND ( 'NONE', #302, .T. ) ;
#16 = FACE_OUTER_BOUND ( 'NONE', #231, .T. ) ;
#17 = STYLED_ITEM ( 'NONE', ( #106 ), #368 ) ;
#18 = LINE ( 'NONE', #285, #254 ) ;
#19 = COLOUR_RGB ( '',0.7921568627450980005, 0.8196078431372548767, 0.9333333333333333481 ) ;
#20 = CARTESIAN_POINT ( 'NONE',  ( 1.913510623667738539E-17, 0.000000000000000000, 0.1562499999999999445 ) ) ;
#21 = SURFACE_STYLE_FILL_AREA ( #156 ) ;
#22 = SURFACE_SIDE_STYLE ('',( #272 ) ) ;
#23 = CIRCLE ( 'NONE', #62, 0.1562499999999999722 ) ;
#24 =( CONVERSION_BASED_UNIT ( 'INCH', #251 ) LENGTH_UNIT ( ) NAMED_UNIT ( #202 ) );
#25 = DIMENSIONAL_EXPONENTS ( 1.000000000000000000, 0.000000000000000000, 0.000000000000000000, 0.000000000000000000, 0.000000000000000000, 0.000000000000000000, 0.000000000000000000 ) ;
#26 = DIRECTION ( 'NONE',  ( -1.224646799147353207E-16, 1.000000000000000000, -0.000000000000000000 ) ) ;
#27 = PRESENTATION_LAYER_ASSIGNMENT (  '', '', ( #17 ) ) ;
#28 =( GEOMETRIC_REPRESENTATION_CONTEXT ( 3 ) GLOBAL_UNCERTAINTY_ASSIGNED_CONTEXT ( ( #367 ) ) GLOBAL_UNIT_ASSIGNED_CONTEXT ( ( #371, #369, #337 ) ) REPRESENTATION_CONTEXT ( 'NONE', 'WORKASPACE' ) );
#29 = EDGE_CURVE ( 'NONE', #89, #354, #263, .T. ) ;
#30 = AXIS2_PLACEMENT_3D ( 'NONE', #101, #82, #248 ) ;
#31 = CARTESIAN_POINT ( 'NONE',  ( 0.000000000000000000, 0.000000000000000000, 0.000000000000000000 ) ) ;
#32 = ORIENTED_EDGE ( 'NONE', *, *, #223, .F. ) ;
#33 = ORIENTED_EDGE ( 'NONE', *, *, #83, .F. ) ;
#34 = DIRECTION ( 'NONE',  ( -1.000000000000000000, -1.224646799147353207E-16, 0.000000000000000000 ) ) ;
#35 = EDGE_LOOP ( 'NONE', ( #182, #60 ) ) ;
#36 = LINE ( 'NONE', #276, #167 ) ;
#37 = MECHANICAL_DESIGN_GEOMETRIC_PRESENTATION_REPRESENTATION (  '', ( #17 ), #265 ) ;
#38 = ORIENTED_EDGE ( 'NONE', *, *, #120, .T. ) ;
#39 = UNCERTAINTY_MEASURE_WITH_UNIT (LENGTH_MEASURE( 1.000000000000000082E-05 ), #24, 'distance_accuracy_value', 'NONE');
#40 = CYLINDRICAL_SURFACE ( 'NONE', #258, 0.1562499999999998612 ) ;
#41 = ORIENTED_EDGE ( 'NONE', *, *, #198, .T. ) ;
#42 = DIRECTION ( 'NONE',  ( 1.000000000000000000, 1.224646799147353207E-16, 0.000000000000000000 ) ) ;
#43 =( GEOMETRIC_REPRESENTATION_CONTEXT ( 3 ) GLOBAL_UNCERTAINTY_ASSIGNED_CONTEXT ( ( #153 ) ) GLOBAL_UNIT_ASSIGNED_CONTEXT ( ( #370, #152, #13 ) ) REPRESENTATION_CONTEXT ( 'NONE', 'WORKASPACE' ) );
#44 = PRESENTATION_STYLE_ASSIGNMENT (( #316 ) ) ;
#45 =( GEOMETRIC_REPRESENTATION_CONTEXT ( 3 ) GLOBAL_UNCERTAINTY_ASSIGNED_CONTEXT ( ( #328 ) ) GLOBAL_UNIT_ASSIGNED_CONTEXT ( ( #341, #344, #86 ) ) REPRESENTATION_CONTEXT ( 'NONE', 'WORKASPACE' ) );
#46 = SURFACE_SIDE_STYLE ('',( #21 ) ) ;
#47 = SURFACE_STYLE_USAGE ( .BOTH. , #46 ) ;
#48 =( LENGTH_UNIT ( ) NAMED_UNIT ( * ) SI_UNIT ( $, .METRE. ) );
#49 = COLOUR_RGB ( '',0.7921568627450980005, 0.8196078431372548767, 0.9333333333333333481 ) ;
#50 = SPHERICAL_SURFACE ( 'NONE', #100, 0.1562500000000000278 ) ;
#51 = AXIS2_PLACEMENT_3D ( 'NONE', #114, #72, #110 ) ;
#52 = DIRECTION ( 'NONE',  ( -1.000000000000000000, 0.000000000000000000, 0.000000000000000000 ) ) ;
#53 = FILL_AREA_STYLE_COLOUR ( '', #227 ) ;
#54 = CARTESIAN_POINT ( 'NONE',  ( -0.1562500000000000278, 0.1562500000000000833, 1.913510623667739463E-17 ) ) ;
#55 = ORIENTED_EDGE ( 'NONE', *, *, #287, .T. ) ;
#56 = AXIS2_PLACEMENT_3D ( 'NONE', #31, #299, #326 ) ;
#57 = ORIENTED_EDGE ( 'NONE', *, *, #336, .F. ) ;
#58 = CARTESIAN_POINT ( 'NONE',  ( 0.000000000000000000, 0.8125000000000000000, -0.1562499999999999167 ) ) ;
#59 = FACE_OUTER_BOUND ( 'NONE', #171, .T. ) ;
#60 = ORIENTED_EDGE ( 'NONE', *, *, #213, .F. ) ;
#61 = STYLED_ITEM ( 'NONE', ( #132 ), #66 ) ;
#62 = AXIS2_PLACEMENT_3D ( 'NONE', #224, #26, #319 ) ;
#63 = DIRECTION ( 'NONE',  ( 0.000000000000000000, 0.000000000000000000, -1.000000000000000000 ) ) ;
#64 = LINE ( 'NONE', #20, #91 ) ;
#65 = DIRECTION ( 'NONE',  ( -0.000000000000000000, -1.000000000000000000, -0.000000000000000000 ) ) ;
#66 = ADVANCED_FACE ( 'NONE', ( #124 ), #73, .T. ) ;
#67 = LENGTH_MEASURE_WITH_UNIT ( LENGTH_MEASURE( 0.02539999999999999897 ), #281 );
#68 = PLANE ( 'NONE',  #170 ) ;
#69 = SURFACE_STYLE_FILL_AREA ( #334 ) ;
#70 = DIRECTION ( 'NONE',  ( -0.000000000000000000, -1.000000000000000000, -0.000000000000000000 ) ) ;
#71 = DIRECTION ( 'NONE',  ( -1.224646799147353207E-16, 1.000000000000000000, -0.000000000000000000 ) ) ;
#72 = DIRECTION ( 'NONE',  ( 0.000000000000000000, 0.000000000000000000, 1.000000000000000000 ) ) ;
#73 = CYLINDRICAL_SURFACE ( 'NONE', #169, 0.1562499999999999445 ) ;
#74 = MANIFOLD_SOLID_BREP ( 'Revolve - Tool Body (Straight Shanked)', #291 ) ;
#75 = DIRECTION ( 'NONE',  ( 1.000000000000000000, 0.000000000000000000, 0.000000000000000000 ) ) ;
#76 = DIMENSIONAL_EXPONENTS ( 1.000000000000000000, 0.000000000000000000, 0.000000000000000000, 0.000000000000000000, 0.000000000000000000, 0.000000000000000000, 0.000000000000000000 ) ;
#77 =( CONVERSION_BASED_UNIT ( 'INCH', #241 ) LENGTH_UNIT ( ) NAMED_UNIT ( #1 ) );
#78 = CIRCLE ( 'NONE', #346, 0.1562499999999997780 ) ;
#79 = MECHANICAL_DESIGN_GEOMETRIC_PRESENTATION_REPRESENTATION (  '', ( #193 ), #323 ) ;
#80 =( NAMED_UNIT ( * ) SI_UNIT ( $, .STERADIAN. ) SOLID_ANGLE_UNIT ( ) );
#81 = DIMENSIONAL_EXPONENTS ( 1.000000000000000000, 0.000000000000000000, 0.000000000000000000, 0.000000000000000000, 0.000000000000000000, 0.000000000000000000, 0.000000000000000000 ) ;
#82 = DIRECTION ( 'NONE',  ( -0.000000000000000000, -1.000000000000000000, -0.000000000000000000 ) ) ;
#83 = EDGE_CURVE ( 'NONE', #327, #228, #321, .T. ) ;
#84 = CARTESIAN_POINT ( 'NONE',  ( 1.454268073987481856E-16, 0.8125000000000001110, 0.000000000000000000 ) ) ;
#85 = SURFACE_STYLE_FILL_AREA ( #314 ) ;
#86 =( NAMED_UNIT ( * ) SI_UNIT ( $, .STERADIAN. ) SOLID_ANGLE_UNIT ( ) );
#87 = SHAPE_DEFINITION_REPRESENTATION ( #118, #107 ) ;
#88 = ADVANCED_FACE ( 'NONE', ( #239 ), #102, .T. ) ;
#89 = VERTEX_POINT ( 'NONE', #54 ) ;
#90 = ORIENTED_EDGE ( 'NONE', *, *, #264, .T. ) ;
#91 = VECTOR ( 'NONE', #362, 39.37007874015748143 ) ;
#92 = CARTESIAN_POINT ( 'NONE',  ( 1.454268073987481856E-16, 0.8125000000000000000, 0.000000000000000000 ) ) ;
#93 = FILL_AREA_STYLE ('',( #53 ) ) ;
#94 = PRODUCT_RELATED_PRODUCT_CATEGORY ( 'part', '', ( #148 ) ) ;
#95 = VERTEX_POINT ( 'NONE', #294 ) ;
#96 = ORIENTED_EDGE ( 'NONE', *, *, #83, .T. ) ;
#97 = LENGTH_MEASURE_WITH_UNIT ( LENGTH_MEASURE( 0.02539999999999999897 ), #244 );
#98 = ORIENTED_EDGE ( 'NONE', *, *, #372, .T. ) ;
#99 =( GEOMETRIC_REPRESENTATION_CONTEXT ( 3 ) GLOBAL_UNCERTAINTY_ASSIGNED_CONTEXT ( ( #186 ) ) GLOBAL_UNIT_ASSIGNED_CONTEXT ( ( #192, #307, #311 ) ) REPRESENTATION_CONTEXT ( 'NONE', 'WORKASPACE' ) );
#100 = AXIS2_PLACEMENT_3D ( 'NONE', #290, #166, #304 ) ;
#101 = CARTESIAN_POINT ( 'NONE',  ( 0.000000000000000000, 0.1562500000000000833, 0.000000000000000000 ) ) ;
#102 = CYLINDRICAL_SURFACE ( 'NONE', #56, 0.1562499999999999445 ) ;
#103 = FILL_AREA_STYLE_COLOUR ( '', #151 ) ;
#104 = DIRECTION ( 'NONE',  ( 0.000000000000000000, 0.000000000000000000, -1.000000000000000000 ) ) ;
#105 = FILL_AREA_STYLE_COLOUR ( '', #225 ) ;
#106 = PRESENTATION_STYLE_ASSIGNMENT (( #246 ) ) ;
#107 = ADVANCED_BREP_SHAPE_REPRESENTATION ( '12182', ( #195, #74, #292 ), #318 ) ;
#108 = FILL_AREA_STYLE_COLOUR ( '', #134 ) ;
#109 = DIRECTION ( 'NONE',  ( -0.000000000000000000, -1.000000000000000000, -0.000000000000000000 ) ) ;
#110 = DIRECTION ( 'NONE',  ( 1.000000000000000000, 0.000000000000000000, 0.000000000000000000 ) ) ;
#111 = CLOSED_SHELL ( 'NONE', ( #188, #66, #368, #88, #297 ) ) ;
#112 = SURFACE_SIDE_STYLE ('',( #85 ) ) ;
#113 = LENGTH_MEASURE_WITH_UNIT ( LENGTH_MEASURE( 0.02539999999999999897 ), #308 );
#114 = CARTESIAN_POINT ( 'NONE',  ( -1.913510623667739771E-17, 0.1562500000000000278, 0.000000000000000000 ) ) ;
#115 = CARTESIAN_POINT ( 'NONE',  ( 1.913510623667738231E-17, 0.8125000000000000000, 0.1562499999999999167 ) ) ;
#116 = VECTOR ( 'NONE', #238, 39.37007874015748143 ) ;
#117 = CARTESIAN_POINT ( 'NONE',  ( -1.913510623667739771E-17, 0.1562500000000000278, 0.000000000000000000 ) ) ;
#118 = PRODUCT_DEFINITION_SHAPE ( 'NONE', 'NONE',  #161 ) ;
#119 = ORIENTED_EDGE ( 'NONE', *, *, #138, .F. ) ;
#120 = EDGE_CURVE ( 'NONE', #14, #354, #340, .T. ) ;
#121 = DIRECTION ( 'NONE',  ( -1.000000000000000000, 0.000000000000000000, 0.000000000000000000 ) ) ;
#122 = APPLICATION_CONTEXT ( 'automotive_design' ) ;
#123 =( NAMED_UNIT ( * ) SI_UNIT ( $, .STERADIAN. ) SOLID_ANGLE_UNIT ( ) );
#124 = FACE_OUTER_BOUND ( 'NONE', #325, .T. ) ;
#125 = ORIENTED_EDGE ( 'NONE', *, *, #233, .F. ) ;
#126 = SURFACE_STYLE_USAGE ( .BOTH. , #22 ) ;
#127 = MECHANICAL_DESIGN_GEOMETRIC_PRESENTATION_REPRESENTATION (  '', ( #211 ), #43 ) ;
#128 =( GEOMETRIC_REPRESENTATION_CONTEXT ( 3 ) GLOBAL_UNCERTAINTY_ASSIGNED_CONTEXT ( ( #269 ) ) GLOBAL_UNIT_ASSIGNED_CONTEXT ( ( #137, #230, #123 ) ) REPRESENTATION_CONTEXT ( 'NONE', 'WORKASPACE' ) );
#129 = CARTESIAN_POINT ( 'NONE',  ( -0.1562499999999996392, 0.8125000000000001110, 0.000000000000000000 ) ) ;
#130 = PRESENTATION_STYLE_ASSIGNMENT (( #126 ) ) ;
#131 = ADVANCED_FACE ( 'NONE', ( #59 ), #351, .F. ) ;
#132 = PRESENTATION_STYLE_ASSIGNMENT (( #184 ) ) ;
#133 =( LENGTH_UNIT ( ) NAMED_UNIT ( * ) SI_UNIT ( $, .METRE. ) );
#134 = COLOUR_RGB ( '',1.000000000000000000, 0.000000000000000000, 0.000000000000000000 ) ;
#135 = CARTESIAN_POINT ( 'NONE',  ( 1.454268073987481856E-16, 0.8125000000000001110, 0.000000000000000000 ) ) ;
#136 =( CONVERSION_BASED_UNIT ( 'INCH', #113 ) LENGTH_UNIT ( ) NAMED_UNIT ( #140 ) );
#137 =( CONVERSION_BASED_UNIT ( 'INCH', #200 ) LENGTH_UNIT ( ) NAMED_UNIT ( #76 ) );
#138 = EDGE_CURVE ( 'NONE', #228, #352, #232, .T. ) ;
#139 = DIRECTION ( 'NONE',  ( -1.224646799147353207E-16, 1.000000000000000000, -0.000000000000000000 ) ) ;
#140 = DIMENSIONAL_EXPONENTS ( 1.000000000000000000, 0.000000000000000000, 0.000000000000000000, 0.000000000000000000, 0.000000000000000000, 0.000000000000000000, 0.000000000000000000 ) ;
#141 = CARTESIAN_POINT ( 'NONE',  ( -6.123233995736766036E-17, 2.500000000000000000, 0.000000000000000000 ) ) ;
#142 = CIRCLE ( 'NONE', #350, 0.1562500000000000000 ) ;
#143 = PRESENTATION_LAYER_ASSIGNMENT (  '', '', ( #61 ) ) ;
#144 = AXIS2_PLACEMENT_3D ( 'NONE', #135, #159, #365 ) ;
#145 = AXIS2_PLACEMENT_3D ( 'NONE', #168, #260, #8 ) ;
#146 = ORIENTED_EDGE ( 'NONE', *, *, #191, .F. ) ;
#147 = ADVANCED_FACE ( 'NONE', ( #16 ), #40, .T. ) ;
#148 = PRODUCT ( '12182', '12182', '', ( #220 ) ) ;
#149 = ORIENTED_EDGE ( 'NONE', *, *, #213, .T. ) ;
#150 = CARTESIAN_POINT ( 'NONE',  ( 0.1562500000000000000, 0.1562500000000000833, 0.000000000000000000 ) ) ;
#151 = COLOUR_RGB ( '',1.000000000000000000, 0.000000000000000000, 0.000000000000000000 ) ;
#152 =( NAMED_UNIT ( * ) PLANE_ANGLE_UNIT ( ) SI_UNIT ( $, .RADIAN. ) );
#153 = UNCERTAINTY_MEASURE_WITH_UNIT (LENGTH_MEASURE( 1.000000000000000082E-05 ), #370, 'distance_accuracy_value', 'NONE');
#154 = ORIENTED_EDGE ( 'NONE', *, *, #309, .F. ) ;
#155 = DIRECTION ( 'NONE',  ( -1.000000000000000000, 0.000000000000000000, 0.000000000000000000 ) ) ;
#156 = FILL_AREA_STYLE ('',( #108 ) ) ;
#157 = APPLICATION_CONTEXT ( 'automotive_design' ) ;
#158 = FILL_AREA_STYLE_COLOUR ( '', #6 ) ;
#159 = DIRECTION ( 'NONE',  ( -1.224646799147353207E-16, 1.000000000000000000, -0.000000000000000000 ) ) ;
#160 = CARTESIAN_POINT ( 'NONE',  ( 0.000000000000000000, 0.1562500000000000833, 0.000000000000000000 ) ) ;
#161 = PRODUCT_DEFINITION ( 'UNKNOWN', '', #358, #206 ) ;
#162 = SURFACE_STYLE_USAGE ( .BOTH. , #187 ) ;
#163 = SURFACE_SIDE_STYLE ('',( #69 ) ) ;
#164 = PRESENTATION_LAYER_ASSIGNMENT (  '', '', ( #283 ) ) ;
#165 = CIRCLE ( 'NONE', #11, 0.1562499999999999722 ) ;
#166 = DIRECTION ( 'NONE',  ( 0.000000000000000000, 0.000000000000000000, 1.000000000000000000 ) ) ;
#167 = VECTOR ( 'NONE', #237, 39.37007874015748143 ) ;
#168 = CARTESIAN_POINT ( 'NONE',  ( -1.913510623667739771E-17, 0.1562500000000000278, 0.000000000000000000 ) ) ;
#169 = AXIS2_PLACEMENT_3D ( 'NONE', #303, #242, #190 ) ;
#170 = AXIS2_PLACEMENT_3D ( 'NONE', #279, #185, #42 ) ;
#171 = EDGE_LOOP ( 'NONE', ( #177, #33 ) ) ;
#172 = AXIS2_PLACEMENT_3D ( 'NONE', #92, #204, #34 ) ;
#173 = ORIENTED_EDGE ( 'NONE', *, *, #309, .T. ) ;
#174 = VERTEX_POINT ( 'NONE', #270 ) ;
#175 = EDGE_CURVE ( 'NONE', #12, #207, #313, .T. ) ;
#176 = MECHANICAL_DESIGN_GEOMETRIC_PRESENTATION_REPRESENTATION (  '', ( #283 ), #99 ) ;
#177 = ORIENTED_EDGE ( 'NONE', *, *, #372, .F. ) ;
#178 = AXIS2_PLACEMENT_3D ( 'NONE', #333, #109, #288 ) ;
#179 = CARTESIAN_POINT ( 'NONE',  ( 0.000000000000000000, 0.1562500000000000833, 0.000000000000000000 ) ) ;
#180 = UNCERTAINTY_MEASURE_WITH_UNIT (LENGTH_MEASURE( 1.000000000000000082E-05 ), #77, 'distance_accuracy_value', 'NONE');
#181 = DIRECTION ( 'NONE',  ( -1.224646799147353207E-16, 1.000000000000000000, -0.000000000000000000 ) ) ;
#182 = ORIENTED_EDGE ( 'NONE', *, *, #175, .F. ) ;
#183 = FACE_OUTER_BOUND ( 'NONE', #295, .T. ) ;
#184 = SURFACE_STYLE_USAGE ( .BOTH. , #245 ) ;
#185 = DIRECTION ( 'NONE',  ( 1.224646799147353207E-16, -1.000000000000000000, 0.000000000000000000 ) ) ;
#186 = UNCERTAINTY_MEASURE_WITH_UNIT (LENGTH_MEASURE( 1.000000000000000082E-05 ), #192, 'distance_accuracy_value', 'NONE');
#187 = SURFACE_SIDE_STYLE ('',( #278 ) ) ;
#188 = ADVANCED_FACE ( 'NONE', ( #301 ), #50, .T. ) ;
#189 = SURFACE_STYLE_FILL_AREA ( #305 ) ;
#190 = DIRECTION ( 'NONE',  ( 0.000000000000000000, 0.000000000000000000, -1.000000000000000000 ) ) ;
#191 = EDGE_CURVE ( 'NONE', #95, #14, #360, .T. ) ;
#192 =( CONVERSION_BASED_UNIT ( 'INCH', #282 ) LENGTH_UNIT ( ) NAMED_UNIT ( #81 ) );
#193 = STYLED_ITEM ( 'NONE', ( #44 ), #188 ) ;
#194 = DIRECTION ( 'NONE',  ( 0.000000000000000000, 0.000000000000000000, 1.000000000000000000 ) ) ;
#195 = MANIFOLD_SOLID_BREP ( 'Revolve - Cutting Edge', #111 ) ;
#196 = SURFACE_SIDE_STYLE ('',( #277 ) ) ;
#197 = CARTESIAN_POINT ( 'NONE',  ( 0.000000000000000000, 0.000000000000000000, 0.000000000000000000 ) ) ;
#198 = EDGE_CURVE ( 'NONE', #327, #174, #18, .T. ) ;
#199 = AXIS2_PLACEMENT_3D ( 'NONE', #117, #266, #201 ) ;
#200 = LENGTH_MEASURE_WITH_UNIT ( LENGTH_MEASURE( 0.02539999999999999897 ), #271 );
#201 = DIRECTION ( 'NONE',  ( 1.000000000000000000, 0.000000000000000000, -1.224646799147353207E-16 ) ) ;
#202 = DIMENSIONAL_EXPONENTS ( 1.000000000000000000, 0.000000000000000000, 0.000000000000000000, 0.000000000000000000, 0.000000000000000000, 0.000000000000000000, 0.000000000000000000 ) ;
#203 = ORIENTED_EDGE ( 'NONE', *, *, #29, .F. ) ;
#204 = DIRECTION ( 'NONE',  ( -1.224646799147353207E-16, 1.000000000000000000, 0.000000000000000000 ) ) ;
#205 = EDGE_LOOP ( 'NONE', ( #262, #96, #10, #234 ) ) ;
#206 = PRODUCT_DEFINITION_CONTEXT ( 'detailed design', #157, 'design' ) ;
#207 = VERTEX_POINT ( 'NONE', #115 ) ;
#208 = AXIS2_PLACEMENT_3D ( 'NONE', #355, #7, #121 ) ;
#209 = CARTESIAN_POINT ( 'NONE',  ( -6.123233995736766036E-17, 2.500000000000000000, 0.000000000000000000 ) ) ;
#210 = ORIENTED_EDGE ( 'NONE', *, *, #233, .T. ) ;
#211 = STYLED_ITEM ( 'NONE', ( #130 ), #297 ) ;
#212 = PRESENTATION_LAYER_ASSIGNMENT (  '', '', ( #193 ) ) ;
#213 = EDGE_CURVE ( 'NONE', #207, #12, #306, .T. ) ;
#214 = FACE_OUTER_BOUND ( 'NONE', #35, .T. ) ;
#215 = CIRCLE ( 'NONE', #252, 0.1562500000000000000 ) ;
#216 = EDGE_CURVE ( 'NONE', #174, #352, #23, .T. ) ;
#217 = CARTESIAN_POINT ( 'NONE',  ( 0.000000000000000000, 0.8125000000000000000, 0.000000000000000000 ) ) ;
#218 =( LENGTH_UNIT ( ) NAMED_UNIT ( * ) SI_UNIT ( $, .METRE. ) );
#219 = DIMENSIONAL_EXPONENTS ( 1.000000000000000000, 0.000000000000000000, 0.000000000000000000, 0.000000000000000000, 0.000000000000000000, 0.000000000000000000, 0.000000000000000000 ) ;
#220 = PRODUCT_CONTEXT ( 'NONE', #122, 'mechanical' ) ;
#221 = PRESENTATION_LAYER_ASSIGNMENT (  '', '', ( #240 ) ) ;
#222 = APPLICATION_PROTOCOL_DEFINITION ( 'draft international standard', 'automotive_design', 1998, #157 ) ;
#223 = EDGE_CURVE ( 'NONE', #352, #174, #165, .T. ) ;
#224 = CARTESIAN_POINT ( 'NONE',  ( -6.123233995736766036E-17, 2.500000000000000000, 0.000000000000000000 ) ) ;
#225 = COLOUR_RGB ( '',1.000000000000000000, 0.000000000000000000, 0.000000000000000000 ) ;
#226 = STYLED_ITEM ( 'NONE', ( #274 ), #88 ) ;
#227 = COLOUR_RGB ( '',1.000000000000000000, 0.000000000000000000, 0.000000000000000000 ) ;
#228 = VERTEX_POINT ( 'NONE', #129 ) ;
#229 = FACE_OUTER_BOUND ( 'NONE', #205, .T. ) ;
#230 =( NAMED_UNIT ( * ) PLANE_ANGLE_UNIT ( ) SI_UNIT ( $, .RADIAN. ) );
#231 = EDGE_LOOP ( 'NONE', ( #98, #41, #32, #119 ) ) ;
#232 = LINE ( 'NONE', #353, #116 ) ;
#233 = EDGE_CURVE ( 'NONE', #12, #95, #36, .T. ) ;
#234 = ORIENTED_EDGE ( 'NONE', *, *, #216, .F. ) ;
#235 = UNCERTAINTY_MEASURE_WITH_UNIT (LENGTH_MEASURE( 1.000000000000000082E-05 ), #136, 'distance_accuracy_value', 'NONE');
#236 = EDGE_LOOP ( 'NONE', ( #55, #331, #9, #173 ) ) ;
#237 = DIRECTION ( 'NONE',  ( -0.000000000000000000, -1.000000000000000000, -0.000000000000000000 ) ) ;
#238 = DIRECTION ( 'NONE',  ( -1.224646799147353207E-16, 1.000000000000000000, -0.000000000000000000 ) ) ;
#239 = FACE_OUTER_BOUND ( 'NONE', #300, .T. ) ;
#240 = STYLED_ITEM ( 'NONE', ( #256 ), #195 ) ;
#241 = LENGTH_MEASURE_WITH_UNIT ( LENGTH_MEASURE( 0.02539999999999999897 ), #218 );
#242 = DIRECTION ( 'NONE',  ( -0.000000000000000000, -1.000000000000000000, -0.000000000000000000 ) ) ;
#243 = CARTESIAN_POINT ( 'NONE',  ( -9.567553118338698857E-18, 0.000000000000000000, 0.000000000000000000 ) ) ;
#244 =( LENGTH_UNIT ( ) NAMED_UNIT ( * ) SI_UNIT ( $, .METRE. ) );
#245 = SURFACE_SIDE_STYLE ('',( #189 ) ) ;
#246 = SURFACE_STYLE_USAGE ( .BOTH. , #163 ) ;
#247 = SPHERICAL_SURFACE ( 'NONE', #51, 0.1562500000000000278 ) ;
#248 = DIRECTION ( 'NONE',  ( 0.000000000000000000, 0.000000000000000000, -1.000000000000000000 ) ) ;
#249 =( NAMED_UNIT ( * ) SI_UNIT ( $, .STERADIAN. ) SOLID_ANGLE_UNIT ( ) );
#250 =( LENGTH_UNIT ( ) NAMED_UNIT ( * ) SI_UNIT ( $, .METRE. ) );
#251 = LENGTH_MEASURE_WITH_UNIT ( LENGTH_MEASURE( 0.02539999999999999897 ), #133 );
#252 = AXIS2_PLACEMENT_3D ( 'NONE', #332, #65, #104 ) ;
#253 =( NAMED_UNIT ( * ) PLANE_ANGLE_UNIT ( ) SI_UNIT ( $, .RADIAN. ) );
#254 = VECTOR ( 'NONE', #139, 39.37007874015748143 ) ;
#255 =( NAMED_UNIT ( * ) PLANE_ANGLE_UNIT ( ) SI_UNIT ( $, .RADIAN. ) );
#256 = PRESENTATION_STYLE_ASSIGNMENT (( #363 ) ) ;
#257 = PRESENTATION_LAYER_ASSIGNMENT (  '', '', ( #211 ) ) ;
#258 = AXIS2_PLACEMENT_3D ( 'NONE', #209, #181, #155 ) ;
#259 = ORIENTED_EDGE ( 'NONE', *, *, #264, .F. ) ;
#260 = DIRECTION ( 'NONE',  ( 0.000000000000000000, 0.000000000000000000, -1.000000000000000000 ) ) ;
#261 = ORIENTED_EDGE ( 'NONE', *, *, #191, .T. ) ;
#262 = ORIENTED_EDGE ( 'NONE', *, *, #198, .F. ) ;
#263 = CIRCLE ( 'NONE', #199, 0.1562500000000000278 ) ;
#264 = EDGE_CURVE ( 'NONE', #89, #95, #215, .T. ) ;
#265 =( GEOMETRIC_REPRESENTATION_CONTEXT ( 3 ) GLOBAL_UNCERTAINTY_ASSIGNED_CONTEXT ( ( #235 ) ) GLOBAL_UNIT_ASSIGNED_CONTEXT ( ( #136, #312, #80 ) ) REPRESENTATION_CONTEXT ( 'NONE', 'WORKASPACE' ) );
#266 = DIRECTION ( 'NONE',  ( 1.224646799147353207E-16, -0.000000000000000000, 1.000000000000000000 ) ) ;
#267 = VERTEX_POINT ( 'NONE', #268 ) ;
#268 = CARTESIAN_POINT ( 'NONE',  ( 1.913510623667739463E-17, 0.1562500000000000833, 0.1562500000000000000 ) ) ;
#269 = UNCERTAINTY_MEASURE_WITH_UNIT (LENGTH_MEASURE( 1.000000000000000082E-05 ), #137, 'distance_accuracy_value', 'NONE');
#270 = CARTESIAN_POINT ( 'NONE',  ( 0.1562499999999999167, 2.500000000000000000, 1.913510623667738231E-17 ) ) ;
#271 =( LENGTH_UNIT ( ) NAMED_UNIT ( * ) SI_UNIT ( $, .METRE. ) );
#272 = SURFACE_STYLE_FILL_AREA ( #280 ) ;
#273 = LENGTH_MEASURE_WITH_UNIT ( LENGTH_MEASURE( 0.02539999999999999897 ), #250 );
#274 = PRESENTATION_STYLE_ASSIGNMENT (( #47 ) ) ;
#275 = CARTESIAN_POINT ( 'NONE',  ( -0.1562500000000000278, 2.500000000000000000, 0.000000000000000000 ) ) ;
#276 = CARTESIAN_POINT ( 'NONE',  ( 0.000000000000000000, 0.000000000000000000, -0.1562499999999999445 ) ) ;
#277 = SURFACE_STYLE_FILL_AREA ( #93 ) ;
#278 = SURFACE_STYLE_FILL_AREA ( #361 ) ;
#279 = CARTESIAN_POINT ( 'NONE',  ( 0.1562499999999999167, 2.500000000000000000, 0.000000000000000000 ) ) ;
#280 = FILL_AREA_STYLE ('',( #158 ) ) ;
#281 =( LENGTH_UNIT ( ) NAMED_UNIT ( * ) SI_UNIT ( $, .METRE. ) );
#282 = LENGTH_MEASURE_WITH_UNIT ( LENGTH_MEASURE( 0.02539999999999999897 ), #48 );
#283 = STYLED_ITEM ( 'NONE', ( #310 ), #74 ) ;
#284 = DIMENSIONAL_EXPONENTS ( 1.000000000000000000, 0.000000000000000000, 0.000000000000000000, 0.000000000000000000, 0.000000000000000000, 0.000000000000000000, 0.000000000000000000 ) ;
#285 = CARTESIAN_POINT ( 'NONE',  ( 0.1562499999999998057, 2.500000000000000000, 1.913510623667737923E-17 ) ) ;
#286 = DIRECTION ( 'NONE',  ( 0.000000000000000000, 1.000000000000000000, 0.000000000000000000 ) ) ;
#287 = EDGE_CURVE ( 'NONE', #267, #89, #339, .T. ) ;
#288 = DIRECTION ( 'NONE',  ( 0.000000000000000000, 0.000000000000000000, -1.000000000000000000 ) ) ;
#289 = CARTESIAN_POINT ( 'NONE',  ( 0.1562499999999999167, 0.8125000000000001110, 1.913510623667738231E-17 ) ) ;
#290 = CARTESIAN_POINT ( 'NONE',  ( -1.913510623667739771E-17, 0.1562500000000000278, 0.000000000000000000 ) ) ;
#291 = CLOSED_SHELL ( 'NONE', ( #147, #131, #5, #348 ) ) ;
#292 = AXIS2_PLACEMENT_3D ( 'NONE', #197, #194, #75 ) ;
#293 = AXIS2_PLACEMENT_3D ( 'NONE', #359, #330, #63 ) ;
#294 = CARTESIAN_POINT ( 'NONE',  ( 0.000000000000000000, 0.1562500000000000833, -0.1562500000000000000 ) ) ;
#295 = EDGE_LOOP ( 'NONE', ( #298, #296 ) ) ;
#296 = ORIENTED_EDGE ( 'NONE', *, *, #216, .T. ) ;
#297 = ADVANCED_FACE ( 'NONE', ( #15 ), #247, .T. ) ;
#298 = ORIENTED_EDGE ( 'NONE', *, *, #223, .T. ) ;
#299 = DIRECTION ( 'NONE',  ( -0.000000000000000000, -1.000000000000000000, -0.000000000000000000 ) ) ;
#300 = EDGE_LOOP ( 'NONE', ( #57, #149, #210, #259, #320 ) ) ;
#301 = FACE_OUTER_BOUND ( 'NONE', #236, .T. ) ;
#302 = EDGE_LOOP ( 'NONE', ( #203, #90, #261, #38 ) ) ;
#303 = CARTESIAN_POINT ( 'NONE',  ( 0.000000000000000000, 0.000000000000000000, 0.000000000000000000 ) ) ;
#304 = DIRECTION ( 'NONE',  ( 1.000000000000000000, 0.000000000000000000, 0.000000000000000000 ) ) ;
#305 = FILL_AREA_STYLE ('',( #105 ) ) ;
#306 = CIRCLE ( 'NONE', #178, 0.1562499999999999167 ) ;
#307 =( NAMED_UNIT ( * ) PLANE_ANGLE_UNIT ( ) SI_UNIT ( $, .RADIAN. ) );
#308 =( LENGTH_UNIT ( ) NAMED_UNIT ( * ) SI_UNIT ( $, .METRE. ) );
#309 = EDGE_CURVE ( 'NONE', #14, #267, #142, .T. ) ;
#310 = PRESENTATION_STYLE_ASSIGNMENT (( #162 ) ) ;
#311 =( NAMED_UNIT ( * ) SI_UNIT ( $, .STERADIAN. ) SOLID_ANGLE_UNIT ( ) );
#312 =( NAMED_UNIT ( * ) PLANE_ANGLE_UNIT ( ) SI_UNIT ( $, .RADIAN. ) );
#313 = CIRCLE ( 'NONE', #293, 0.1562499999999999167 ) ;
#314 = FILL_AREA_STYLE ('',( #373 ) ) ;
#315 = PRESENTATION_LAYER_ASSIGNMENT (  '', '', ( #226 ) ) ;
#316 = SURFACE_STYLE_USAGE ( .BOTH. , #196 ) ;
#317 =( NAMED_UNIT ( * ) SI_UNIT ( $, .STERADIAN. ) SOLID_ANGLE_UNIT ( ) );
#318 =( GEOMETRIC_REPRESENTATION_CONTEXT ( 3 ) GLOBAL_UNCERTAINTY_ASSIGNED_CONTEXT ( ( #39 ) ) GLOBAL_UNIT_ASSIGNED_CONTEXT ( ( #24, #255, #249 ) ) REPRESENTATION_CONTEXT ( 'NONE', 'WORKASPACE' ) );
#319 = DIRECTION ( 'NONE',  ( -1.000000000000000000, 0.000000000000000000, 0.000000000000000000 ) ) ;
#320 = ORIENTED_EDGE ( 'NONE', *, *, #287, .F. ) ;
#321 = CIRCLE ( 'NONE', #144, 0.1562499999999997780 ) ;
#322 = AXIS2_PLACEMENT_3D ( 'NONE', #217, #286, #342 ) ;
#323 =( GEOMETRIC_REPRESENTATION_CONTEXT ( 3 ) GLOBAL_UNCERTAINTY_ASSIGNED_CONTEXT ( ( #180 ) ) GLOBAL_UNIT_ASSIGNED_CONTEXT ( ( #77, #253, #317 ) ) REPRESENTATION_CONTEXT ( 'NONE', 'WORKASPACE' ) );
#324 = ORIENTED_EDGE ( 'NONE', *, *, #336, .T. ) ;
#325 = EDGE_LOOP ( 'NONE', ( #347, #324, #154, #146, #125 ) ) ;
#326 = DIRECTION ( 'NONE',  ( 0.000000000000000000, 0.000000000000000000, -1.000000000000000000 ) ) ;
#327 = VERTEX_POINT ( 'NONE', #289 ) ;
#328 = UNCERTAINTY_MEASURE_WITH_UNIT (LENGTH_MEASURE( 1.000000000000000082E-05 ), #341, 'distance_accuracy_value', 'NONE');
#329 = AXIS2_PLACEMENT_3D ( 'NONE', #179, #70, #356 ) ;
#330 = DIRECTION ( 'NONE',  ( -0.000000000000000000, -1.000000000000000000, -0.000000000000000000 ) ) ;
#331 = ORIENTED_EDGE ( 'NONE', *, *, #29, .T. ) ;
#332 = CARTESIAN_POINT ( 'NONE',  ( 0.000000000000000000, 0.1562500000000000833, 0.000000000000000000 ) ) ;
#333 = CARTESIAN_POINT ( 'NONE',  ( 0.000000000000000000, 0.8125000000000000000, 0.000000000000000000 ) ) ;
#334 = FILL_AREA_STYLE ('',( #103 ) ) ;
#335 = FILL_AREA_STYLE_COLOUR ( '', #49 ) ;
#336 = EDGE_CURVE ( 'NONE', #207, #267, #64, .T. ) ;
#337 =( NAMED_UNIT ( * ) SI_UNIT ( $, .STERADIAN. ) SOLID_ANGLE_UNIT ( ) );
#338 = DIRECTION ( 'NONE',  ( -1.000000000000000000, 0.000000000000000000, 0.000000000000000000 ) ) ;
#339 = CIRCLE ( 'NONE', #329, 0.1562500000000000000 ) ;
#340 = CIRCLE ( 'NONE', #145, 0.1562500000000000278 ) ;
#341 =( CONVERSION_BASED_UNIT ( 'INCH', #273 ) LENGTH_UNIT ( ) NAMED_UNIT ( #284 ) );
#342 = DIRECTION ( 'NONE',  ( 0.000000000000000000, -0.000000000000000000, 1.000000000000000000 ) ) ;
#343 = DIRECTION ( 'NONE',  ( 0.000000000000000000, 0.000000000000000000, -1.000000000000000000 ) ) ;
#344 =( NAMED_UNIT ( * ) PLANE_ANGLE_UNIT ( ) SI_UNIT ( $, .RADIAN. ) );
#345 = APPLICATION_PROTOCOL_DEFINITION ( 'draft international standard', 'automotive_design', 1998, #122 ) ;
#346 = AXIS2_PLACEMENT_3D ( 'NONE', #84, #71, #338 ) ;
#347 = ORIENTED_EDGE ( 'NONE', *, *, #175, .T. ) ;
#348 = ADVANCED_FACE ( 'NONE', ( #183 ), #68, .F. ) ;
#349 = CYLINDRICAL_SURFACE ( 'NONE', #208, 0.1562499999999998612 ) ;
#350 = AXIS2_PLACEMENT_3D ( 'NONE', #160, #2, #343 ) ;
#351 = PLANE ( 'NONE',  #172 ) ;
#352 = VERTEX_POINT ( 'NONE', #275 ) ;
#353 = CARTESIAN_POINT ( 'NONE',  ( -0.1562499999999999445, 2.500000000000000000, 0.000000000000000000 ) ) ;
#354 = VERTEX_POINT ( 'NONE', #243 ) ;
#355 = CARTESIAN_POINT ( 'NONE',  ( -6.123233995736766036E-17, 2.500000000000000000, 0.000000000000000000 ) ) ;
#356 = DIRECTION ( 'NONE',  ( 0.000000000000000000, 0.000000000000000000, -1.000000000000000000 ) ) ;
#357 = MECHANICAL_DESIGN_GEOMETRIC_PRESENTATION_REPRESENTATION (  '', ( #61 ), #28 ) ;
#358 = PRODUCT_DEFINITION_FORMATION_WITH_SPECIFIED_SOURCE ( 'ANY', '', #148, .NOT_KNOWN. ) ;
#359 = CARTESIAN_POINT ( 'NONE',  ( 0.000000000000000000, 0.8125000000000000000, 0.000000000000000000 ) ) ;
#360 = CIRCLE ( 'NONE', #30, 0.1562500000000000000 ) ;
#361 = FILL_AREA_STYLE ('',( #335 ) ) ;
#362 = DIRECTION ( 'NONE',  ( -0.000000000000000000, -1.000000000000000000, -0.000000000000000000 ) ) ;
#363 = SURFACE_STYLE_USAGE ( .BOTH. , #112 ) ;
#364 = MECHANICAL_DESIGN_GEOMETRIC_PRESENTATION_REPRESENTATION (  '', ( #226 ), #128 ) ;
#365 = DIRECTION ( 'NONE',  ( -1.000000000000000000, 0.000000000000000000, 0.000000000000000000 ) ) ;
#366 = PLANE ( 'NONE',  #322 ) ;
#367 = UNCERTAINTY_MEASURE_WITH_UNIT (LENGTH_MEASURE( 1.000000000000000082E-05 ), #371, 'distance_accuracy_value', 'NONE');
#368 = ADVANCED_FACE ( 'NONE', ( #214 ), #366, .T. ) ;
#369 =( NAMED_UNIT ( * ) PLANE_ANGLE_UNIT ( ) SI_UNIT ( $, .RADIAN. ) );
#370 =( CONVERSION_BASED_UNIT ( 'INCH', #97 ) LENGTH_UNIT ( ) NAMED_UNIT ( #25 ) );
#371 =( CONVERSION_BASED_UNIT ( 'INCH', #67 ) LENGTH_UNIT ( ) NAMED_UNIT ( #219 ) );
#372 = EDGE_CURVE ( 'NONE', #228, #327, #78, .T. ) ;
#373 = FILL_AREA_STYLE_COLOUR ( '', #19 ) ;
ENDSEC;
END-ISO-10303-21;
