ISO-10303-21;
HEADER;
FILE_DESCRIPTION (( 'STEP AP214' ),
    '1' );
FILE_NAME ('24347.STEP',
    '2023-06-22T17:09:41',
    ( '' ),
    ( '' ),
    'SwSTEP 2.0',
    'SolidWorks 2023',
    '' );
FILE_SCHEMA (( 'AUTOMOTIVE_DESIGN' ));
ENDSEC;

DATA;
#1 = PRESENTATION_STYLE_ASSIGNMENT (( #29 ) ) ;
#2 = LINE ( 'NONE', #109, #295 ) ;
#3 = STYLED_ITEM ( 'NONE', ( #1 ), #21 ) ;
#4 = DIMENSIONAL_EXPONENTS ( 1.000000000000000000, 0.000000000000000000, 0.000000000000000000, 0.000000000000000000, 0.000000000000000000, 0.000000000000000000, 0.000000000000000000 ) ;
#5 = FILL_AREA_STYLE ('',( #78 ) ) ;
#6 = LENGTH_MEASURE_WITH_UNIT ( LENGTH_MEASURE( 0.02539999999999999897 ), #63 );
#7 = AXIS2_PLACEMENT_3D ( 'NONE', #147, #234, #26 ) ;
#8 = PRESENTATION_LAYER_ASSIGNMENT (  '', '', ( #167 ) ) ;
#9 = STYLED_ITEM ( 'NONE', ( #294 ), #282 ) ;
#10 = CARTESIAN_POINT ( 'NONE',  ( 4.686749320818301603E-34, 2.000000000000000000, 0.000000000000000000 ) ) ;
#11 = APPLICATION_PROTOCOL_DEFINITION ( 'draft international standard', 'automotive_design', 1998, #43 ) ;
#12 = ORIENTED_EDGE ( 'NONE', *, *, #47, .F. ) ;
#13 = DIRECTION ( 'NONE',  ( 0.000000000000000000, 0.000000000000000000, -1.000000000000000000 ) ) ;
#14 = LENGTH_MEASURE_WITH_UNIT ( LENGTH_MEASURE( 0.02539999999999999897 ), #141 );
#15 = MANIFOLD_SOLID_BREP ( 'Revolve - Cutting Edge', #214 ) ;
#16 =( CONVERSION_BASED_UNIT ( 'INCH', #14 ) LENGTH_UNIT ( ) NAMED_UNIT ( #128 ) );
#17 = MECHANICAL_DESIGN_GEOMETRIC_PRESENTATION_REPRESENTATION (  '', ( #149 ), #27 ) ;
#18 = DIRECTION ( 'NONE',  ( 1.000000000000000000, 6.123233995736763571E-17, 0.000000000000000000 ) ) ;
#19 = EDGE_LOOP ( 'NONE', ( #185, #225, #122, #287 ) ) ;
#20 = SURFACE_STYLE_USAGE ( .BOTH. , #56 ) ;
#21 = ADVANCED_FACE ( 'NONE', ( #58 ), #52, .T. ) ;
#22 =( NAMED_UNIT ( * ) SI_UNIT ( $, .STERADIAN. ) SOLID_ANGLE_UNIT ( ) );
#23 = CARTESIAN_POINT ( 'NONE',  ( 0.000000000000000000, 2.000000000000000000, 0.000000000000000000 ) ) ;
#24 =( NAMED_UNIT ( * ) PLANE_ANGLE_UNIT ( ) SI_UNIT ( $, .RADIAN. ) );
#25 = AXIS2_PLACEMENT_3D ( 'NONE', #172, #283, #192 ) ;
#26 = DIRECTION ( 'NONE',  ( -1.000000000000000000, 0.000000000000000000, 0.000000000000000000 ) ) ;
#27 =( GEOMETRIC_REPRESENTATION_CONTEXT ( 3 ) GLOBAL_UNCERTAINTY_ASSIGNED_CONTEXT ( ( #74 ) ) GLOBAL_UNIT_ASSIGNED_CONTEXT ( ( #241, #113, #22 ) ) REPRESENTATION_CONTEXT ( 'NONE', 'WORKASPACE' ) );
#28 = ORIENTED_EDGE ( 'NONE', *, *, #161, .T. ) ;
#29 = SURFACE_STYLE_USAGE ( .BOTH. , #309 ) ;
#30 = VERTEX_POINT ( 'NONE', #305 ) ;
#31 = DIMENSIONAL_EXPONENTS ( 1.000000000000000000, 0.000000000000000000, 0.000000000000000000, 0.000000000000000000, 0.000000000000000000, 0.000000000000000000, 0.000000000000000000 ) ;
#32 = SURFACE_STYLE_USAGE ( .BOTH. , #239 ) ;
#33 = PRODUCT ( '24347', '24347', '', ( #249 ) ) ;
#34 = DIMENSIONAL_EXPONENTS ( 1.000000000000000000, 0.000000000000000000, 0.000000000000000000, 0.000000000000000000, 0.000000000000000000, 0.000000000000000000, 0.000000000000000000 ) ;
#35 = EDGE_CURVE ( 'NONE', #210, #144, #155, .T. ) ;
#36 = CARTESIAN_POINT ( 'NONE',  ( -0.2500000000000000555, 2.000000000000000000, 0.000000000000000000 ) ) ;
#37 = AXIS2_PLACEMENT_3D ( 'NONE', #10, #292, #133 ) ;
#38 =( GEOMETRIC_REPRESENTATION_CONTEXT ( 3 ) GLOBAL_UNCERTAINTY_ASSIGNED_CONTEXT ( ( #289 ) ) GLOBAL_UNIT_ASSIGNED_CONTEXT ( ( #274, #165, #198 ) ) REPRESENTATION_CONTEXT ( 'NONE', 'WORKASPACE' ) );
#39 = DIRECTION ( 'NONE',  ( -6.123233995736763571E-17, 1.000000000000000000, -0.000000000000000000 ) ) ;
#40 = SHAPE_DEFINITION_REPRESENTATION ( #55, #152 ) ;
#41 = CARTESIAN_POINT ( 'NONE',  ( 0.000000000000000000, 0.000000000000000000, -0.2500000000000000000 ) ) ;
#42 = DIRECTION ( 'NONE',  ( -0.000000000000000000, -1.000000000000000000, -0.000000000000000000 ) ) ;
#43 = APPLICATION_CONTEXT ( 'automotive_design' ) ;
#44 = DIRECTION ( 'NONE',  ( -0.000000000000000000, -1.000000000000000000, -0.000000000000000000 ) ) ;
#45 =( NAMED_UNIT ( * ) SI_UNIT ( $, .STERADIAN. ) SOLID_ANGLE_UNIT ( ) );
#46 = ORIENTED_EDGE ( 'NONE', *, *, #35, .F. ) ;
#47 = EDGE_CURVE ( 'NONE', #144, #210, #123, .T. ) ;
#48 = COLOUR_RGB ( '',1.000000000000000000, 0.000000000000000000, 0.000000000000000000 ) ;
#49 = COLOUR_RGB ( '',1.000000000000000000, 0.000000000000000000, 0.000000000000000000 ) ;
#50 = CARTESIAN_POINT ( 'NONE',  ( 0.000000000000000000, 0.000000000000000000, -0.2500000000000000000 ) ) ;
#51 = PRESENTATION_LAYER_ASSIGNMENT (  '', '', ( #149 ) ) ;
#52 = CYLINDRICAL_SURFACE ( 'NONE', #278, 0.2500000000000000000 ) ;
#53 = ORIENTED_EDGE ( 'NONE', *, *, #253, .T. ) ;
#54 = DIRECTION ( 'NONE',  ( 0.000000000000000000, 0.000000000000000000, -1.000000000000000000 ) ) ;
#55 = PRODUCT_DEFINITION_SHAPE ( 'NONE', 'NONE',  #105 ) ;
#56 = SURFACE_SIDE_STYLE ('',( #236 ) ) ;
#57 = MECHANICAL_DESIGN_GEOMETRIC_PRESENTATION_REPRESENTATION (  '', ( #167 ), #275 ) ;
#58 = FACE_OUTER_BOUND ( 'NONE', #173, .T. ) ;
#59 =( GEOMETRIC_REPRESENTATION_CONTEXT ( 3 ) GLOBAL_UNCERTAINTY_ASSIGNED_CONTEXT ( ( #119 ) ) GLOBAL_UNIT_ASSIGNED_CONTEXT ( ( #16, #160, #45 ) ) REPRESENTATION_CONTEXT ( 'NONE', 'WORKASPACE' ) );
#60 = FILL_AREA_STYLE ('',( #104 ) ) ;
#61 = LENGTH_MEASURE_WITH_UNIT ( LENGTH_MEASURE( 0.02539999999999999897 ), #89 );
#62 = VERTEX_POINT ( 'NONE', #36 ) ;
#63 =( LENGTH_UNIT ( ) NAMED_UNIT ( * ) SI_UNIT ( $, .METRE. ) );
#64 = MECHANICAL_DESIGN_GEOMETRIC_PRESENTATION_REPRESENTATION (  '', ( #3 ), #162 ) ;
#65 = CARTESIAN_POINT ( 'NONE',  ( 3.061616997868383018E-17, 0.000000000000000000, 0.2500000000000000000 ) ) ;
#66 = EDGE_LOOP ( 'NONE', ( #235, #293, #46, #231 ) ) ;
#67 = CARTESIAN_POINT ( 'NONE',  ( 0.000000000000000000, 0.000000000000000000, 0.000000000000000000 ) ) ;
#68 =( NAMED_UNIT ( * ) PLANE_ANGLE_UNIT ( ) SI_UNIT ( $, .RADIAN. ) );
#69 = AXIS2_PLACEMENT_3D ( 'NONE', #245, #42, #271 ) ;
#70 = MECHANICAL_DESIGN_GEOMETRIC_PRESENTATION_REPRESENTATION (  '', ( #9 ), #59 ) ;
#71 = VERTEX_POINT ( 'NONE', #223 ) ;
#72 = CARTESIAN_POINT ( 'NONE',  ( 0.2500000000000000555, 2.000000000000000000, 3.061616997868384867E-17 ) ) ;
#73 = SURFACE_STYLE_FILL_AREA ( #178 ) ;
#74 = UNCERTAINTY_MEASURE_WITH_UNIT (LENGTH_MEASURE( 1.000000000000000082E-05 ), #241, 'distance_accuracy_value', 'NONE');
#75 = AXIS2_PLACEMENT_3D ( 'NONE', #179, #181, #277 ) ;
#76 = VERTEX_POINT ( 'NONE', #65 ) ;
#77 = CARTESIAN_POINT ( 'NONE',  ( -1.224646799147352714E-16, 4.000000000000000000, 0.000000000000000000 ) ) ;
#78 = FILL_AREA_STYLE_COLOUR ( '', #216 ) ;
#79 = ORIENTED_EDGE ( 'NONE', *, *, #97, .F. ) ;
#80 = CIRCLE ( 'NONE', #112, 0.2500000000000000000 ) ;
#81 = LENGTH_MEASURE_WITH_UNIT ( LENGTH_MEASURE( 0.02539999999999999897 ), #187 );
#82 = PLANE ( 'NONE',  #270 ) ;
#83 =( LENGTH_UNIT ( ) NAMED_UNIT ( * ) SI_UNIT ( $, .METRE. ) );
#84 = FACE_OUTER_BOUND ( 'NONE', #255, .T. ) ;
#85 = DIRECTION ( 'NONE',  ( 0.000000000000000000, 0.000000000000000000, -1.000000000000000000 ) ) ;
#86 = SURFACE_SIDE_STYLE ('',( #110 ) ) ;
#87 = CLOSED_SHELL ( 'NONE', ( #139, #126, #209, #217 ) ) ;
#88 = FACE_OUTER_BOUND ( 'NONE', #19, .T. ) ;
#89 =( LENGTH_UNIT ( ) NAMED_UNIT ( * ) SI_UNIT ( $, .METRE. ) );
#90 = DIRECTION ( 'NONE',  ( -0.000000000000000000, -1.000000000000000000, -0.000000000000000000 ) ) ;
#91 = EDGE_CURVE ( 'NONE', #71, #286, #190, .T. ) ;
#92 = ORIENTED_EDGE ( 'NONE', *, *, #91, .F. ) ;
#93 = PRESENTATION_LAYER_ASSIGNMENT (  '', '', ( #211 ) ) ;
#94 = PRODUCT_DEFINITION_FORMATION_WITH_SPECIFIED_SOURCE ( 'ANY', '', #33, .NOT_KNOWN. ) ;
#95 = DIRECTION ( 'NONE',  ( -6.123233995736763571E-17, 1.000000000000000000, -0.000000000000000000 ) ) ;
#96 = DIRECTION ( 'NONE',  ( 0.000000000000000000, 1.000000000000000000, 0.000000000000000000 ) ) ;
#97 = EDGE_CURVE ( 'NONE', #204, #144, #2, .T. ) ;
#98 = CARTESIAN_POINT ( 'NONE',  ( 0.000000000000000000, 2.000000000000000000, 0.000000000000000000 ) ) ;
#99 = COLOUR_RGB ( '',1.000000000000000000, 0.000000000000000000, 0.000000000000000000 ) ;
#100 = UNCERTAINTY_MEASURE_WITH_UNIT (LENGTH_MEASURE( 1.000000000000000082E-05 ), #212, 'distance_accuracy_value', 'NONE');
#101 = DIRECTION ( 'NONE',  ( 1.000000000000000000, 0.000000000000000000, 0.000000000000000000 ) ) ;
#102 =( LENGTH_UNIT ( ) NAMED_UNIT ( * ) SI_UNIT ( $, .METRE. ) );
#103 = AXIS2_PLACEMENT_3D ( 'NONE', #267, #95, #134 ) ;
#104 = FILL_AREA_STYLE_COLOUR ( '', #49 ) ;
#105 = PRODUCT_DEFINITION ( 'UNKNOWN', '', #94, #175 ) ;
#106 = VECTOR ( 'NONE', #205, 39.37007874015748143 ) ;
#107 = SURFACE_STYLE_FILL_AREA ( #232 ) ;
#108 = FILL_AREA_STYLE ('',( #290 ) ) ;
#109 = CARTESIAN_POINT ( 'NONE',  ( 0.2499999999999999722, 4.000000000000000000, 3.061616997868384251E-17 ) ) ;
#110 = SURFACE_STYLE_FILL_AREA ( #5 ) ;
#111 = CIRCLE ( 'NONE', #132, 0.2500000000000000555 ) ;
#112 = AXIS2_PLACEMENT_3D ( 'NONE', #304, #171, #85 ) ;
#113 =( NAMED_UNIT ( * ) PLANE_ANGLE_UNIT ( ) SI_UNIT ( $, .RADIAN. ) );
#114 = DIRECTION ( 'NONE',  ( -0.000000000000000000, -1.000000000000000000, -0.000000000000000000 ) ) ;
#115 = ORIENTED_EDGE ( 'NONE', *, *, #186, .T. ) ;
#116 = EDGE_CURVE ( 'NONE', #62, #204, #148, .T. ) ;
#117 = FILL_AREA_STYLE_COLOUR ( '', #199 ) ;
#118 = DIRECTION ( 'NONE',  ( 0.000000000000000000, 0.000000000000000000, -1.000000000000000000 ) ) ;
#119 = UNCERTAINTY_MEASURE_WITH_UNIT (LENGTH_MEASURE( 1.000000000000000082E-05 ), #16, 'distance_accuracy_value', 'NONE');
#120 = PRESENTATION_STYLE_ASSIGNMENT (( #207 ) ) ;
#121 = ORIENTED_EDGE ( 'NONE', *, *, #174, .F. ) ;
#122 = ORIENTED_EDGE ( 'NONE', *, *, #91, .T. ) ;
#123 = CIRCLE ( 'NONE', #103, 0.2500000000000001665 ) ;
#124 = ORIENTED_EDGE ( 'NONE', *, *, #174, .T. ) ;
#125 = PRESENTATION_STYLE_ASSIGNMENT (( #20 ) ) ;
#126 = ADVANCED_FACE ( 'NONE', ( #137 ), #195, .F. ) ;
#127 = DIRECTION ( 'NONE',  ( -0.000000000000000000, -1.000000000000000000, -0.000000000000000000 ) ) ;
#128 = DIMENSIONAL_EXPONENTS ( 1.000000000000000000, 0.000000000000000000, 0.000000000000000000, 0.000000000000000000, 0.000000000000000000, 0.000000000000000000, 0.000000000000000000 ) ;
#129 =( NAMED_UNIT ( * ) SI_UNIT ( $, .STERADIAN. ) SOLID_ANGLE_UNIT ( ) );
#130 =( NAMED_UNIT ( * ) PLANE_ANGLE_UNIT ( ) SI_UNIT ( $, .RADIAN. ) );
#131 = PRESENTATION_STYLE_ASSIGNMENT (( #32 ) ) ;
#132 = AXIS2_PLACEMENT_3D ( 'NONE', #251, #196, #247 ) ;
#133 = DIRECTION ( 'NONE',  ( -1.000000000000000000, -6.123233995736763571E-17, 0.000000000000000000 ) ) ;
#134 = DIRECTION ( 'NONE',  ( -1.000000000000000000, 0.000000000000000000, 0.000000000000000000 ) ) ;
#135 = PRODUCT_RELATED_PRODUCT_CATEGORY ( 'part', '', ( #33 ) ) ;
#136 = DIRECTION ( 'NONE',  ( -6.123233995736763571E-17, 1.000000000000000000, -0.000000000000000000 ) ) ;
#137 = FACE_OUTER_BOUND ( 'NONE', #183, .T. ) ;
#138 = UNCERTAINTY_MEASURE_WITH_UNIT (LENGTH_MEASURE( 1.000000000000000082E-05 ), #279, 'distance_accuracy_value', 'NONE');
#139 = ADVANCED_FACE ( 'NONE', ( #218 ), #188, .T. ) ;
#140 = FILL_AREA_STYLE_COLOUR ( '', #307 ) ;
#141 =( LENGTH_UNIT ( ) NAMED_UNIT ( * ) SI_UNIT ( $, .METRE. ) );
#142 = CARTESIAN_POINT ( 'NONE',  ( 0.2500000000000000555, 4.000000000000000000, 0.000000000000000000 ) ) ;
#143 = CARTESIAN_POINT ( 'NONE',  ( -0.2500000000000002220, 4.000000000000000000, 0.000000000000000000 ) ) ;
#144 = VERTEX_POINT ( 'NONE', #176 ) ;
#145 = SURFACE_STYLE_FILL_AREA ( #237 ) ;
#146 = DIMENSIONAL_EXPONENTS ( 1.000000000000000000, 0.000000000000000000, 0.000000000000000000, 0.000000000000000000, 0.000000000000000000, 0.000000000000000000, 0.000000000000000000 ) ;
#147 = CARTESIAN_POINT ( 'NONE',  ( -1.224646799147352714E-16, 4.000000000000000000, 0.000000000000000000 ) ) ;
#148 = CIRCLE ( 'NONE', #259, 0.2500000000000000555 ) ;
#149 = STYLED_ITEM ( 'NONE', ( #154 ), #227 ) ;
#150 = ORIENTED_EDGE ( 'NONE', *, *, #253, .F. ) ;
#151 = SURFACE_STYLE_FILL_AREA ( #108 ) ;
#152 = ADVANCED_BREP_SHAPE_REPRESENTATION ( '24347', ( #15, #227, #200 ), #38 ) ;
#153 = APPLICATION_CONTEXT ( 'automotive_design' ) ;
#154 = PRESENTATION_STYLE_ASSIGNMENT (( #285 ) ) ;
#155 = CIRCLE ( 'NONE', #7, 0.2500000000000001665 ) ;
#156 = ADVANCED_FACE ( 'NONE', ( #88 ), #268, .T. ) ;
#157 = EDGE_LOOP ( 'NONE', ( #121, #303 ) ) ;
#158 = AXIS2_PLACEMENT_3D ( 'NONE', #67, #44, #118 ) ;
#159 = LENGTH_MEASURE_WITH_UNIT ( LENGTH_MEASURE( 0.02539999999999999897 ), #182 );
#160 =( NAMED_UNIT ( * ) PLANE_ANGLE_UNIT ( ) SI_UNIT ( $, .RADIAN. ) );
#161 = EDGE_CURVE ( 'NONE', #204, #62, #111, .T. ) ;
#162 =( GEOMETRIC_REPRESENTATION_CONTEXT ( 3 ) GLOBAL_UNCERTAINTY_ASSIGNED_CONTEXT ( ( #138 ) ) GLOBAL_UNIT_ASSIGNED_CONTEXT ( ( #279, #233, #164 ) ) REPRESENTATION_CONTEXT ( 'NONE', 'WORKASPACE' ) );
#163 = MECHANICAL_DESIGN_GEOMETRIC_PRESENTATION_REPRESENTATION (  '', ( #254 ), #189 ) ;
#164 =( NAMED_UNIT ( * ) SI_UNIT ( $, .STERADIAN. ) SOLID_ANGLE_UNIT ( ) );
#165 =( NAMED_UNIT ( * ) PLANE_ANGLE_UNIT ( ) SI_UNIT ( $, .RADIAN. ) );
#166 = LINE ( 'NONE', #260, #222 ) ;
#167 = STYLED_ITEM ( 'NONE', ( #120 ), #15 ) ;
#168 = PRESENTATION_LAYER_ASSIGNMENT (  '', '', ( #9 ) ) ;
#169 = LENGTH_MEASURE_WITH_UNIT ( LENGTH_MEASURE( 0.02539999999999999897 ), #83 );
#170 = AXIS2_PLACEMENT_3D ( 'NONE', #98, #203, #13 ) ;
#171 = DIRECTION ( 'NONE',  ( -0.000000000000000000, -1.000000000000000000, -0.000000000000000000 ) ) ;
#172 = CARTESIAN_POINT ( 'NONE',  ( -1.224646799147352714E-16, 4.000000000000000000, 0.000000000000000000 ) ) ;
#173 = EDGE_LOOP ( 'NONE', ( #124, #248, #150, #92 ) ) ;
#174 = EDGE_CURVE ( 'NONE', #71, #30, #246, .T. ) ;
#175 = PRODUCT_DEFINITION_CONTEXT ( 'detailed design', #43, 'design' ) ;
#176 = CARTESIAN_POINT ( 'NONE',  ( 0.2500000000000000555, 4.000000000000000000, 3.061616997868384867E-17 ) ) ;
#177 =( GEOMETRIC_REPRESENTATION_CONTEXT ( 3 ) GLOBAL_UNCERTAINTY_ASSIGNED_CONTEXT ( ( #242 ) ) GLOBAL_UNIT_ASSIGNED_CONTEXT ( ( #265, #24, #221 ) ) REPRESENTATION_CONTEXT ( 'NONE', 'WORKASPACE' ) );
#178 = FILL_AREA_STYLE ('',( #117 ) ) ;
#179 = CARTESIAN_POINT ( 'NONE',  ( 0.000000000000000000, 0.000000000000000000, 0.000000000000000000 ) ) ;
#180 = DIRECTION ( 'NONE',  ( 0.000000000000000000, 0.000000000000000000, -1.000000000000000000 ) ) ;
#181 = DIRECTION ( 'NONE',  ( 0.000000000000000000, -1.000000000000000000, -0.000000000000000000 ) ) ;
#182 =( LENGTH_UNIT ( ) NAMED_UNIT ( * ) SI_UNIT ( $, .METRE. ) );
#183 = EDGE_LOOP ( 'NONE', ( #308, #299 ) ) ;
#184 = DIRECTION ( 'NONE',  ( 6.123233995736763571E-17, -1.000000000000000000, 0.000000000000000000 ) ) ;
#185 = ORIENTED_EDGE ( 'NONE', *, *, #300, .F. ) ;
#186 = EDGE_CURVE ( 'NONE', #76, #286, #206, .T. ) ;
#187 =( LENGTH_UNIT ( ) NAMED_UNIT ( * ) SI_UNIT ( $, .METRE. ) );
#188 = CYLINDRICAL_SURFACE ( 'NONE', #25, 0.2500000000000001110 ) ;
#189 =( GEOMETRIC_REPRESENTATION_CONTEXT ( 3 ) GLOBAL_UNCERTAINTY_ASSIGNED_CONTEXT ( ( #100 ) ) GLOBAL_UNIT_ASSIGNED_CONTEXT ( ( #212, #130, #256 ) ) REPRESENTATION_CONTEXT ( 'NONE', 'WORKASPACE' ) );
#190 = LINE ( 'NONE', #41, #220 ) ;
#191 = EDGE_CURVE ( 'NONE', #30, #71, #284, .T. ) ;
#192 = DIRECTION ( 'NONE',  ( -1.000000000000000000, 0.000000000000000000, 0.000000000000000000 ) ) ;
#193 = LINE ( 'NONE', #143, #106 ) ;
#194 = EDGE_LOOP ( 'NONE', ( #53, #115 ) ) ;
#195 = PLANE ( 'NONE',  #37 ) ;
#196 = DIRECTION ( 'NONE',  ( -6.123233995736763571E-17, 1.000000000000000000, -0.000000000000000000 ) ) ;
#197 = SURFACE_STYLE_USAGE ( .BOTH. , #243 ) ;
#198 =( NAMED_UNIT ( * ) SI_UNIT ( $, .STERADIAN. ) SOLID_ANGLE_UNIT ( ) );
#199 = COLOUR_RGB ( '',0.7921568627450980005, 0.8196078431372548767, 0.9333333333333333481 ) ;
#200 = AXIS2_PLACEMENT_3D ( 'NONE', #202, #298, #101 ) ;
#201 = SURFACE_SIDE_STYLE ('',( #73 ) ) ;
#202 = CARTESIAN_POINT ( 'NONE',  ( 0.000000000000000000, 0.000000000000000000, 0.000000000000000000 ) ) ;
#203 = DIRECTION ( 'NONE',  ( -0.000000000000000000, -1.000000000000000000, -0.000000000000000000 ) ) ;
#204 = VERTEX_POINT ( 'NONE', #72 ) ;
#205 = DIRECTION ( 'NONE',  ( -6.123233995736763571E-17, 1.000000000000000000, -0.000000000000000000 ) ) ;
#206 = CIRCLE ( 'NONE', #158, 0.2500000000000000000 ) ;
#207 = SURFACE_STYLE_USAGE ( .BOTH. , #201 ) ;
#208 = DIRECTION ( 'NONE',  ( -1.000000000000000000, 0.000000000000000000, 0.000000000000000000 ) ) ;
#209 = ADVANCED_FACE ( 'NONE', ( #84 ), #229, .T. ) ;
#210 = VERTEX_POINT ( 'NONE', #301 ) ;
#211 = STYLED_ITEM ( 'NONE', ( #131 ), #156 ) ;
#212 =( CONVERSION_BASED_UNIT ( 'INCH', #169 ) LENGTH_UNIT ( ) NAMED_UNIT ( #238 ) );
#213 = CARTESIAN_POINT ( 'NONE',  ( 1.516480271171051896E-32, 2.000000000000000000, 0.000000000000000000 ) ) ;
#214 = CLOSED_SHELL ( 'NONE', ( #21, #262, #156, #282 ) ) ;
#215 = MECHANICAL_DESIGN_GEOMETRIC_PRESENTATION_REPRESENTATION (  '', ( #211 ), #177 ) ;
#216 = COLOUR_RGB ( '',0.7921568627450980005, 0.8196078431372548767, 0.9333333333333333481 ) ;
#217 = ADVANCED_FACE ( 'NONE', ( #280 ), #82, .F. ) ;
#218 = FACE_OUTER_BOUND ( 'NONE', #66, .T. ) ;
#219 = DIRECTION ( 'NONE',  ( -1.000000000000000000, 0.000000000000000000, 0.000000000000000000 ) ) ;
#220 = VECTOR ( 'NONE', #90, 39.37007874015748143 ) ;
#221 =( NAMED_UNIT ( * ) SI_UNIT ( $, .STERADIAN. ) SOLID_ANGLE_UNIT ( ) );
#222 = VECTOR ( 'NONE', #224, 39.37007874015748143 ) ;
#223 = CARTESIAN_POINT ( 'NONE',  ( 0.000000000000000000, 2.000000000000000000, -0.2500000000000000555 ) ) ;
#224 = DIRECTION ( 'NONE',  ( -0.000000000000000000, -1.000000000000000000, -0.000000000000000000 ) ) ;
#225 = ORIENTED_EDGE ( 'NONE', *, *, #191, .T. ) ;
#226 =( CONVERSION_BASED_UNIT ( 'INCH', #276 ) LENGTH_UNIT ( ) NAMED_UNIT ( #244 ) );
#227 = MANIFOLD_SOLID_BREP ( 'Revolve - Tool Body (Straight Shanked)', #87 ) ;
#228 = ORIENTED_EDGE ( 'NONE', *, *, #272, .T. ) ;
#229 = CYLINDRICAL_SURFACE ( 'NONE', #250, 0.2500000000000001110 ) ;
#230 = ORIENTED_EDGE ( 'NONE', *, *, #47, .T. ) ;
#231 = ORIENTED_EDGE ( 'NONE', *, *, #272, .F. ) ;
#232 = FILL_AREA_STYLE ('',( #261 ) ) ;
#233 =( NAMED_UNIT ( * ) PLANE_ANGLE_UNIT ( ) SI_UNIT ( $, .RADIAN. ) );
#234 = DIRECTION ( 'NONE',  ( -6.123233995736763571E-17, 1.000000000000000000, -0.000000000000000000 ) ) ;
#235 = ORIENTED_EDGE ( 'NONE', *, *, #116, .T. ) ;
#236 = SURFACE_STYLE_FILL_AREA ( #60 ) ;
#237 = FILL_AREA_STYLE ('',( #140 ) ) ;
#238 = DIMENSIONAL_EXPONENTS ( 1.000000000000000000, 0.000000000000000000, 0.000000000000000000, 0.000000000000000000, 0.000000000000000000, 0.000000000000000000, 0.000000000000000000 ) ;
#239 = SURFACE_SIDE_STYLE ('',( #151 ) ) ;
#240 = DIRECTION ( 'NONE',  ( 0.000000000000000000, -0.000000000000000000, 1.000000000000000000 ) ) ;
#241 =( CONVERSION_BASED_UNIT ( 'INCH', #61 ) LENGTH_UNIT ( ) NAMED_UNIT ( #34 ) );
#242 = UNCERTAINTY_MEASURE_WITH_UNIT (LENGTH_MEASURE( 1.000000000000000082E-05 ), #265, 'distance_accuracy_value', 'NONE');
#243 = SURFACE_SIDE_STYLE ('',( #107 ) ) ;
#244 = DIMENSIONAL_EXPONENTS ( 1.000000000000000000, 0.000000000000000000, 0.000000000000000000, 0.000000000000000000, 0.000000000000000000, 0.000000000000000000, 0.000000000000000000 ) ;
#245 = CARTESIAN_POINT ( 'NONE',  ( 0.000000000000000000, 2.000000000000000000, 0.000000000000000000 ) ) ;
#246 = CIRCLE ( 'NONE', #170, 0.2500000000000000555 ) ;
#247 = DIRECTION ( 'NONE',  ( -1.000000000000000000, 0.000000000000000000, 0.000000000000000000 ) ) ;
#248 = ORIENTED_EDGE ( 'NONE', *, *, #300, .T. ) ;
#249 = PRODUCT_CONTEXT ( 'NONE', #153, 'mechanical' ) ;
#250 = AXIS2_PLACEMENT_3D ( 'NONE', #77, #258, #208 ) ;
#251 = CARTESIAN_POINT ( 'NONE',  ( 1.516480271171051896E-32, 2.000000000000000000, 0.000000000000000000 ) ) ;
#252 = FACE_OUTER_BOUND ( 'NONE', #194, .T. ) ;
#253 = EDGE_CURVE ( 'NONE', #286, #76, #80, .T. ) ;
#254 = STYLED_ITEM ( 'NONE', ( #125 ), #262 ) ;
#255 = EDGE_LOOP ( 'NONE', ( #79, #28, #228, #12 ) ) ;
#256 =( NAMED_UNIT ( * ) SI_UNIT ( $, .STERADIAN. ) SOLID_ANGLE_UNIT ( ) );
#257 = CARTESIAN_POINT ( 'NONE',  ( 0.000000000000000000, 0.000000000000000000, 0.000000000000000000 ) ) ;
#258 = DIRECTION ( 'NONE',  ( -6.123233995736763571E-17, 1.000000000000000000, -0.000000000000000000 ) ) ;
#259 = AXIS2_PLACEMENT_3D ( 'NONE', #213, #39, #219 ) ;
#260 = CARTESIAN_POINT ( 'NONE',  ( 3.061616997868383018E-17, 0.000000000000000000, 0.2500000000000000000 ) ) ;
#261 = FILL_AREA_STYLE_COLOUR ( '', #99 ) ;
#262 = ADVANCED_FACE ( 'NONE', ( #263 ), #281, .T. ) ;
#263 = FACE_OUTER_BOUND ( 'NONE', #157, .T. ) ;
#264 = UNCERTAINTY_MEASURE_WITH_UNIT (LENGTH_MEASURE( 1.000000000000000082E-05 ), #226, 'distance_accuracy_value', 'NONE');
#265 =( CONVERSION_BASED_UNIT ( 'INCH', #6 ) LENGTH_UNIT ( ) NAMED_UNIT ( #146 ) );
#266 = AXIS2_PLACEMENT_3D ( 'NONE', #23, #96, #240 ) ;
#267 = CARTESIAN_POINT ( 'NONE',  ( -1.224646799147352714E-16, 4.000000000000000000, 0.000000000000000000 ) ) ;
#268 = CYLINDRICAL_SURFACE ( 'NONE', #302, 0.2500000000000000000 ) ;
#269 = CARTESIAN_POINT ( 'NONE',  ( 0.000000000000000000, 0.000000000000000000, 0.000000000000000000 ) ) ;
#270 = AXIS2_PLACEMENT_3D ( 'NONE', #142, #184, #18 ) ;
#271 = DIRECTION ( 'NONE',  ( 0.000000000000000000, 0.000000000000000000, -1.000000000000000000 ) ) ;
#272 = EDGE_CURVE ( 'NONE', #62, #210, #193, .T. ) ;
#273 = APPLICATION_PROTOCOL_DEFINITION ( 'draft international standard', 'automotive_design', 1998, #153 ) ;
#274 =( CONVERSION_BASED_UNIT ( 'INCH', #159 ) LENGTH_UNIT ( ) NAMED_UNIT ( #31 ) );
#275 =( GEOMETRIC_REPRESENTATION_CONTEXT ( 3 ) GLOBAL_UNCERTAINTY_ASSIGNED_CONTEXT ( ( #264 ) ) GLOBAL_UNIT_ASSIGNED_CONTEXT ( ( #226, #68, #129 ) ) REPRESENTATION_CONTEXT ( 'NONE', 'WORKASPACE' ) );
#276 = LENGTH_MEASURE_WITH_UNIT ( LENGTH_MEASURE( 0.02539999999999999897 ), #102 );
#277 = DIRECTION ( 'NONE',  ( 0.000000000000000000, 0.000000000000000000, -1.000000000000000000 ) ) ;
#278 = AXIS2_PLACEMENT_3D ( 'NONE', #257, #127, #54 ) ;
#279 =( CONVERSION_BASED_UNIT ( 'INCH', #81 ) LENGTH_UNIT ( ) NAMED_UNIT ( #4 ) );
#280 = FACE_OUTER_BOUND ( 'NONE', #297, .T. ) ;
#281 = PLANE ( 'NONE',  #266 ) ;
#282 = ADVANCED_FACE ( 'NONE', ( #252 ), #288, .T. ) ;
#283 = DIRECTION ( 'NONE',  ( -6.123233995736763571E-17, 1.000000000000000000, -0.000000000000000000 ) ) ;
#284 = CIRCLE ( 'NONE', #69, 0.2500000000000000555 ) ;
#285 = SURFACE_STYLE_USAGE ( .BOTH. , #86 ) ;
#286 = VERTEX_POINT ( 'NONE', #50 ) ;
#287 = ORIENTED_EDGE ( 'NONE', *, *, #186, .F. ) ;
#288 = PLANE ( 'NONE',  #75 ) ;
#289 = UNCERTAINTY_MEASURE_WITH_UNIT (LENGTH_MEASURE( 1.000000000000000082E-05 ), #274, 'distance_accuracy_value', 'NONE');
#290 = FILL_AREA_STYLE_COLOUR ( '', #48 ) ;
#291 = PRESENTATION_LAYER_ASSIGNMENT (  '', '', ( #3 ) ) ;
#292 = DIRECTION ( 'NONE',  ( -6.123233995736763571E-17, 1.000000000000000000, 0.000000000000000000 ) ) ;
#293 = ORIENTED_EDGE ( 'NONE', *, *, #97, .T. ) ;
#294 = PRESENTATION_STYLE_ASSIGNMENT (( #197 ) ) ;
#295 = VECTOR ( 'NONE', #136, 39.37007874015748143 ) ;
#296 = PRESENTATION_LAYER_ASSIGNMENT (  '', '', ( #254 ) ) ;
#297 = EDGE_LOOP ( 'NONE', ( #306, #230 ) ) ;
#298 = DIRECTION ( 'NONE',  ( 0.000000000000000000, 0.000000000000000000, 1.000000000000000000 ) ) ;
#299 = ORIENTED_EDGE ( 'NONE', *, *, #161, .F. ) ;
#300 = EDGE_CURVE ( 'NONE', #30, #76, #166, .T. ) ;
#301 = CARTESIAN_POINT ( 'NONE',  ( -0.2500000000000002776, 4.000000000000000000, 0.000000000000000000 ) ) ;
#302 = AXIS2_PLACEMENT_3D ( 'NONE', #269, #114, #180 ) ;
#303 = ORIENTED_EDGE ( 'NONE', *, *, #191, .F. ) ;
#304 = CARTESIAN_POINT ( 'NONE',  ( 0.000000000000000000, 0.000000000000000000, 0.000000000000000000 ) ) ;
#305 = CARTESIAN_POINT ( 'NONE',  ( 3.061616997868383634E-17, 2.000000000000000000, 0.2500000000000000555 ) ) ;
#306 = ORIENTED_EDGE ( 'NONE', *, *, #35, .T. ) ;
#307 = COLOUR_RGB ( '',1.000000000000000000, 0.000000000000000000, 0.000000000000000000 ) ;
#308 = ORIENTED_EDGE ( 'NONE', *, *, #116, .F. ) ;
#309 = SURFACE_SIDE_STYLE ('',( #145 ) ) ;
ENDSEC;
END-ISO-10303-21;
