ISO-10303-21;
HEADER;
FILE_DESCRIPTION (( 'STEP AP214' ),
    '1' );
FILE_NAME ('05097.STEP',
    '2023-06-22T15:51:41',
    ( '' ),
    ( '' ),
    'SwSTEP 2.0',
    'SolidWorks 2023',
    '' );
FILE_SCHEMA (( 'AUTOMOTIVE_DESIGN' ));
ENDSEC;

DATA;
#1 = CARTESIAN_POINT ( 'NONE',  ( 1.148106374200643401E-17, 0.7500000000000001110, 0.09374999999999998612 ) ) ;
#2 = LENGTH_MEASURE_WITH_UNIT ( LENGTH_MEASURE( 0.02539999999999999897 ), #164 );
#3 = EDGE_LOOP ( 'NONE', ( #71, #10, #102, #237 ) ) ;
#4 = SURFACE_STYLE_FILL_AREA ( #162 ) ;
#5 = ORIENTED_EDGE ( 'NONE', *, *, #92, .F. ) ;
#6 = PRODUCT ( '05097', '05097', '', ( #130 ) ) ;
#7 = CARTESIAN_POINT ( 'NONE',  ( -0.09374999999999998612, 0.7499999999999998890, 0.000000000000000000 ) ) ;
#8 = LINE ( 'NONE', #195, #32 ) ;
#9 = PRESENTATION_STYLE_ASSIGNMENT (( #31 ) ) ;
#10 = ORIENTED_EDGE ( 'NONE', *, *, #229, .T. ) ;
#11 = UNCERTAINTY_MEASURE_WITH_UNIT (LENGTH_MEASURE( 1.000000000000000082E-05 ), #128, 'distance_accuracy_value', 'NONE');
#12 = CIRCLE ( 'NONE', #112, 0.09374999999999998612 ) ;
#13 = EDGE_CURVE ( 'NONE', #167, #187, #176, .T. ) ;
#14 =( GEOMETRIC_REPRESENTATION_CONTEXT ( 3 ) GLOBAL_UNCERTAINTY_ASSIGNED_CONTEXT ( ( #11 ) ) GLOBAL_UNIT_ASSIGNED_CONTEXT ( ( #128, #289, #241 ) ) REPRESENTATION_CONTEXT ( 'NONE', 'WORKASPACE' ) );
#15 = EDGE_CURVE ( 'NONE', #146, #187, #8, .T. ) ;
#16 = DIRECTION ( 'NONE',  ( 0.000000000000000000, 0.000000000000000000, -1.000000000000000000 ) ) ;
#17 = PRESENTATION_LAYER_ASSIGNMENT (  '', '', ( #74 ) ) ;
#18 = APPLICATION_PROTOCOL_DEFINITION ( 'draft international standard', 'automotive_design', 1998, #89 ) ;
#19 = FILL_AREA_STYLE ('',( #91 ) ) ;
#20 = CARTESIAN_POINT ( 'NONE',  ( -0.09375000000000009714, 2.500000000000000000, 0.000000000000000000 ) ) ;
#21 = DIRECTION ( 'NONE',  ( 1.000000000000000000, 3.498990854706722745E-17, 0.000000000000000000 ) ) ;
#22 = AXIS2_PLACEMENT_3D ( 'NONE', #291, #217, #245 ) ;
#23 = DIMENSIONAL_EXPONENTS ( 1.000000000000000000, 0.000000000000000000, 0.000000000000000000, 0.000000000000000000, 0.000000000000000000, 0.000000000000000000, 0.000000000000000000 ) ;
#24 = DIRECTION ( 'NONE',  ( -1.000000000000000000, -3.498990854706722745E-17, 0.000000000000000000 ) ) ;
#25 = PLANE ( 'NONE',  #148 ) ;
#26 = DIRECTION ( 'NONE',  ( -3.498990854706722745E-17, 1.000000000000000000, -0.000000000000000000 ) ) ;
#27 = MECHANICAL_DESIGN_GEOMETRIC_PRESENTATION_REPRESENTATION (  '', ( #114 ), #280 ) ;
#28 = SURFACE_SIDE_STYLE ('',( #129 ) ) ;
#29 = PRESENTATION_STYLE_ASSIGNMENT (( #79 ) ) ;
#30 = DIRECTION ( 'NONE',  ( -0.000000000000000000, -1.000000000000000000, -0.000000000000000000 ) ) ;
#31 = SURFACE_STYLE_USAGE ( .BOTH. , #236 ) ;
#32 = VECTOR ( 'NONE', #80, 39.37007874015748143 ) ;
#33 = AXIS2_PLACEMENT_3D ( 'NONE', #248, #38, #220 ) ;
#34 = CARTESIAN_POINT ( 'NONE',  ( -6.123233995736766036E-17, 2.500000000000000000, 0.000000000000000000 ) ) ;
#35 = DIRECTION ( 'NONE',  ( -1.000000000000000000, 0.000000000000000000, 0.000000000000000000 ) ) ;
#36 = DIRECTION ( 'NONE',  ( -0.000000000000000000, -1.000000000000000000, -0.000000000000000000 ) ) ;
#37 =( NAMED_UNIT ( * ) SI_UNIT ( $, .STERADIAN. ) SOLID_ANGLE_UNIT ( ) );
#38 = DIRECTION ( 'NONE',  ( -0.000000000000000000, -1.000000000000000000, -0.000000000000000000 ) ) ;
#39 = COLOUR_RGB ( '',1.000000000000000000, 0.000000000000000000, 0.000000000000000000 ) ;
#40 = EDGE_CURVE ( 'NONE', #187, #167, #126, .T. ) ;
#41 = CYLINDRICAL_SURFACE ( 'NONE', #131, 0.09374999999999998612 ) ;
#42 = SURFACE_STYLE_USAGE ( .BOTH. , #251 ) ;
#43 = CLOSED_SHELL ( 'NONE', ( #288, #183, #171, #309 ) ) ;
#44 = DIRECTION ( 'NONE',  ( 0.000000000000000000, 0.000000000000000000, -1.000000000000000000 ) ) ;
#45 = EDGE_LOOP ( 'NONE', ( #113, #193 ) ) ;
#46 = CARTESIAN_POINT ( 'NONE',  ( 0.000000000000000000, 0.7500000000000001110, 0.000000000000000000 ) ) ;
#47 = COLOUR_RGB ( '',1.000000000000000000, 0.000000000000000000, 0.000000000000000000 ) ;
#48 = DIRECTION ( 'NONE',  ( -3.498990854706722745E-17, 1.000000000000000000, 0.000000000000000000 ) ) ;
#49 = SURFACE_STYLE_USAGE ( .BOTH. , #282 ) ;
#50 = PLANE ( 'NONE',  #258 ) ;
#51 = VECTOR ( 'NONE', #36, 39.37007874015748143 ) ;
#52 = FILL_AREA_STYLE_COLOUR ( '', #232 ) ;
#53 = CARTESIAN_POINT ( 'NONE',  ( 0.09374999999999995837, 2.500000000000000000, 1.148106374200644017E-17 ) ) ;
#54 = VERTEX_POINT ( 'NONE', #1 ) ;
#55 = EDGE_LOOP ( 'NONE', ( #265, #297 ) ) ;
#56 =( NAMED_UNIT ( * ) SI_UNIT ( $, .STERADIAN. ) SOLID_ANGLE_UNIT ( ) );
#57 = AXIS2_PLACEMENT_3D ( 'NONE', #155, #285, #95 ) ;
#58 = EDGE_LOOP ( 'NONE', ( #306, #170 ) ) ;
#59 = EDGE_CURVE ( 'NONE', #261, #147, #252, .T. ) ;
#60 = CARTESIAN_POINT ( 'NONE',  ( 0.000000000000000000, 0.7500000000000001110, -0.09374999999999998612 ) ) ;
#61 = DIRECTION ( 'NONE',  ( 1.000000000000000000, 0.000000000000000000, 0.000000000000000000 ) ) ;
#62 =( NAMED_UNIT ( * ) SI_UNIT ( $, .STERADIAN. ) SOLID_ANGLE_UNIT ( ) );
#63 = ADVANCED_FACE ( 'NONE', ( #211 ), #216, .T. ) ;
#64 = CIRCLE ( 'NONE', #57, 0.09374999999999998612 ) ;
#65 = DIMENSIONAL_EXPONENTS ( 1.000000000000000000, 0.000000000000000000, 0.000000000000000000, 0.000000000000000000, 0.000000000000000000, 0.000000000000000000, 0.000000000000000000 ) ;
#66 = SURFACE_STYLE_FILL_AREA ( #19 ) ;
#67 = CARTESIAN_POINT ( 'NONE',  ( 0.000000000000000000, 0.000000000000000000, -0.09375000000000001388 ) ) ;
#68 = APPLICATION_CONTEXT ( 'automotive_design' ) ;
#69 = ORIENTED_EDGE ( 'NONE', *, *, #253, .F. ) ;
#70 = FILL_AREA_STYLE ('',( #230 ) ) ;
#71 = ORIENTED_EDGE ( 'NONE', *, *, #294, .F. ) ;
#72 = DIRECTION ( 'NONE',  ( -1.000000000000000000, 0.000000000000000000, 0.000000000000000000 ) ) ;
#73 = PRODUCT_RELATED_PRODUCT_CATEGORY ( 'part', '', ( #6 ) ) ;
#74 = STYLED_ITEM ( 'NONE', ( #199 ), #180 ) ;
#75 = CARTESIAN_POINT ( 'NONE',  ( -6.123233995736766036E-17, 2.500000000000000000, 0.000000000000000000 ) ) ;
#76 = SURFACE_SIDE_STYLE ('',( #188 ) ) ;
#77 = DIRECTION ( 'NONE',  ( -3.498990854706722745E-17, 1.000000000000000000, -0.000000000000000000 ) ) ;
#78 = AXIS2_PLACEMENT_3D ( 'NONE', #75, #175, #159 ) ;
#79 = SURFACE_STYLE_USAGE ( .BOTH. , #76 ) ;
#80 = DIRECTION ( 'NONE',  ( -0.000000000000000000, -1.000000000000000000, -0.000000000000000000 ) ) ;
#81 = UNCERTAINTY_MEASURE_WITH_UNIT (LENGTH_MEASURE( 1.000000000000000082E-05 ), #269, 'distance_accuracy_value', 'NONE');
#82 = ORIENTED_EDGE ( 'NONE', *, *, #13, .F. ) ;
#83 = FILL_AREA_STYLE ('',( #287 ) ) ;
#84 = FILL_AREA_STYLE ('',( #52 ) ) ;
#85 = AXIS2_PLACEMENT_3D ( 'NONE', #218, #127, #244 ) ;
#86 = CIRCLE ( 'NONE', #219, 0.09375000000000005551 ) ;
#87 = DIRECTION ( 'NONE',  ( -1.000000000000000000, 0.000000000000000000, 0.000000000000000000 ) ) ;
#88 = PRODUCT_DEFINITION_CONTEXT ( 'detailed design', #89, 'design' ) ;
#89 = APPLICATION_CONTEXT ( 'automotive_design' ) ;
#90 = FACE_OUTER_BOUND ( 'NONE', #231, .T. ) ;
#91 = FILL_AREA_STYLE_COLOUR ( '', #215 ) ;
#92 = EDGE_CURVE ( 'NONE', #293, #156, #12, .T. ) ;
#93 = DIRECTION ( 'NONE',  ( 0.000000000000000000, -0.000000000000000000, 1.000000000000000000 ) ) ;
#94 = PRESENTATION_LAYER_ASSIGNMENT (  '', '', ( #142 ) ) ;
#95 = DIRECTION ( 'NONE',  ( -1.000000000000000000, 0.000000000000000000, 0.000000000000000000 ) ) ;
#96 = DIMENSIONAL_EXPONENTS ( 1.000000000000000000, 0.000000000000000000, 0.000000000000000000, 0.000000000000000000, 0.000000000000000000, 0.000000000000000000, 0.000000000000000000 ) ;
#97 = CARTESIAN_POINT ( 'NONE',  ( 5.738876719369350386E-35, 0.7500000000000001110, 0.000000000000000000 ) ) ;
#98 = MECHANICAL_DESIGN_GEOMETRIC_PRESENTATION_REPRESENTATION (  '', ( #202 ), #308 ) ;
#99 = SURFACE_STYLE_FILL_AREA ( #70 ) ;
#100 = ORIENTED_EDGE ( 'NONE', *, *, #92, .T. ) ;
#101 = DIRECTION ( 'NONE',  ( 0.000000000000000000, -1.000000000000000000, -0.000000000000000000 ) ) ;
#102 = ORIENTED_EDGE ( 'NONE', *, *, #200, .T. ) ;
#103 = STYLED_ITEM ( 'NONE', ( #144 ), #138 ) ;
#104 = ORIENTED_EDGE ( 'NONE', *, *, #141, .F. ) ;
#105 = ORIENTED_EDGE ( 'NONE', *, *, #229, .F. ) ;
#106 = ORIENTED_EDGE ( 'NONE', *, *, #15, .T. ) ;
#107 = AXIS2_PLACEMENT_3D ( 'NONE', #290, #77, #163 ) ;
#108 =( CONVERSION_BASED_UNIT ( 'INCH', #201 ) LENGTH_UNIT ( ) NAMED_UNIT ( #281 ) );
#109 = CARTESIAN_POINT ( 'NONE',  ( -0.09375000000000012490, 2.500000000000000000, 0.000000000000000000 ) ) ;
#110 = CARTESIAN_POINT ( 'NONE',  ( 1.148106374200643555E-17, 0.000000000000000000, 0.09375000000000001388 ) ) ;
#111 = CYLINDRICAL_SURFACE ( 'NONE', #78, 0.09375000000000002776 ) ;
#112 = AXIS2_PLACEMENT_3D ( 'NONE', #298, #194, #87 ) ;
#113 = ORIENTED_EDGE ( 'NONE', *, *, #40, .T. ) ;
#114 = STYLED_ITEM ( 'NONE', ( #259 ), #183 ) ;
#115 = DIRECTION ( 'NONE',  ( 0.000000000000000000, 1.000000000000000000, 0.000000000000000000 ) ) ;
#116 = FACE_OUTER_BOUND ( 'NONE', #58, .T. ) ;
#117 = FACE_OUTER_BOUND ( 'NONE', #273, .T. ) ;
#118 = AXIS2_PLACEMENT_3D ( 'NONE', #295, #30, #160 ) ;
#119 = SURFACE_STYLE_USAGE ( .BOTH. , #28 ) ;
#120 = CARTESIAN_POINT ( 'NONE',  ( 0.000000000000000000, 0.000000000000000000, 0.000000000000000000 ) ) ;
#121 =( LENGTH_UNIT ( ) NAMED_UNIT ( * ) SI_UNIT ( $, .METRE. ) );
#122 = UNCERTAINTY_MEASURE_WITH_UNIT (LENGTH_MEASURE( 1.000000000000000082E-05 ), #300, 'distance_accuracy_value', 'NONE');
#123 =( LENGTH_UNIT ( ) NAMED_UNIT ( * ) SI_UNIT ( $, .METRE. ) );
#124 = ORIENTED_EDGE ( 'NONE', *, *, #200, .F. ) ;
#125 = PRODUCT_DEFINITION ( 'UNKNOWN', '', #192, #88 ) ;
#126 = CIRCLE ( 'NONE', #85, 0.09375000000000001388 ) ;
#127 = DIRECTION ( 'NONE',  ( -0.000000000000000000, -1.000000000000000000, -0.000000000000000000 ) ) ;
#128 =( CONVERSION_BASED_UNIT ( 'INCH', #264 ) LENGTH_UNIT ( ) NAMED_UNIT ( #226 ) );
#129 = SURFACE_STYLE_FILL_AREA ( #84 ) ;
#130 = PRODUCT_CONTEXT ( 'NONE', #68, 'mechanical' ) ;
#131 = AXIS2_PLACEMENT_3D ( 'NONE', #278, #223, #16 ) ;
#132 = LENGTH_MEASURE_WITH_UNIT ( LENGTH_MEASURE( 0.02539999999999999897 ), #204 );
#133 = LENGTH_MEASURE_WITH_UNIT ( LENGTH_MEASURE( 0.02539999999999999897 ), #121 );
#134 = PRESENTATION_LAYER_ASSIGNMENT (  '', '', ( #114 ) ) ;
#135 = CARTESIAN_POINT ( 'NONE',  ( 0.09374999999999998612, 2.500000000000000000, 0.000000000000000000 ) ) ;
#136 =( CONVERSION_BASED_UNIT ( 'INCH', #185 ) LENGTH_UNIT ( ) NAMED_UNIT ( #23 ) );
#137 = EDGE_LOOP ( 'NONE', ( #5, #105 ) ) ;
#138 = MANIFOLD_SOLID_BREP ( 'Revolve - Cutting Edge', #43 ) ;
#139 = MECHANICAL_DESIGN_GEOMETRIC_PRESENTATION_REPRESENTATION (  '', ( #103 ), #158 ) ;
#140 =( NAMED_UNIT ( * ) PLANE_ANGLE_UNIT ( ) SI_UNIT ( $, .RADIAN. ) );
#141 = EDGE_CURVE ( 'NONE', #54, #167, #172, .T. ) ;
#142 = STYLED_ITEM ( 'NONE', ( #250 ), #171 ) ;
#143 = DIRECTION ( 'NONE',  ( 0.000000000000000000, 0.000000000000000000, -1.000000000000000000 ) ) ;
#144 = PRESENTATION_STYLE_ASSIGNMENT (( #119 ) ) ;
#145 = FACE_OUTER_BOUND ( 'NONE', #45, .T. ) ;
#146 = VERTEX_POINT ( 'NONE', #60 ) ;
#147 = VERTEX_POINT ( 'NONE', #109 ) ;
#148 = AXIS2_PLACEMENT_3D ( 'NONE', #181, #115, #93 ) ;
#149 =( NAMED_UNIT ( * ) PLANE_ANGLE_UNIT ( ) SI_UNIT ( $, .RADIAN. ) );
#150 = STYLED_ITEM ( 'NONE', ( #29 ), #288 ) ;
#151 = DIMENSIONAL_EXPONENTS ( 1.000000000000000000, 0.000000000000000000, 0.000000000000000000, 0.000000000000000000, 0.000000000000000000, 0.000000000000000000, 0.000000000000000000 ) ;
#152 = PLANE ( 'NONE',  #206 ) ;
#153 = AXIS2_PLACEMENT_3D ( 'NONE', #34, #246, #35 ) ;
#154 = FACE_OUTER_BOUND ( 'NONE', #214, .T. ) ;
#155 = CARTESIAN_POINT ( 'NONE',  ( -7.582401355855259480E-33, 0.7499999999999998890, 0.000000000000000000 ) ) ;
#156 = VERTEX_POINT ( 'NONE', #222 ) ;
#157 =( NAMED_UNIT ( * ) PLANE_ANGLE_UNIT ( ) SI_UNIT ( $, .RADIAN. ) );
#158 =( GEOMETRIC_REPRESENTATION_CONTEXT ( 3 ) GLOBAL_UNCERTAINTY_ASSIGNED_CONTEXT ( ( #122 ) ) GLOBAL_UNIT_ASSIGNED_CONTEXT ( ( #300, #149, #299 ) ) REPRESENTATION_CONTEXT ( 'NONE', 'WORKASPACE' ) );
#159 = DIRECTION ( 'NONE',  ( -1.000000000000000000, 0.000000000000000000, 0.000000000000000000 ) ) ;
#160 = DIRECTION ( 'NONE',  ( 0.000000000000000000, 0.000000000000000000, -1.000000000000000000 ) ) ;
#161 =( GEOMETRIC_REPRESENTATION_CONTEXT ( 3 ) GLOBAL_UNCERTAINTY_ASSIGNED_CONTEXT ( ( #266 ) ) GLOBAL_UNIT_ASSIGNED_CONTEXT ( ( #108, #275, #62 ) ) REPRESENTATION_CONTEXT ( 'NONE', 'WORKASPACE' ) );
#162 = FILL_AREA_STYLE ('',( #296 ) ) ;
#163 = DIRECTION ( 'NONE',  ( -1.000000000000000000, 0.000000000000000000, 0.000000000000000000 ) ) ;
#164 =( LENGTH_UNIT ( ) NAMED_UNIT ( * ) SI_UNIT ( $, .METRE. ) );
#165 = ORIENTED_EDGE ( 'NONE', *, *, #40, .F. ) ;
#166 =( NAMED_UNIT ( * ) PLANE_ANGLE_UNIT ( ) SI_UNIT ( $, .RADIAN. ) );
#167 = VERTEX_POINT ( 'NONE', #110 ) ;
#168 = CLOSED_SHELL ( 'NONE', ( #234, #182, #63, #260 ) ) ;
#169 = CIRCLE ( 'NONE', #262, 0.09374999999999998612 ) ;
#170 = ORIENTED_EDGE ( 'NONE', *, *, #59, .T. ) ;
#171 = ADVANCED_FACE ( 'NONE', ( #90 ), #41, .T. ) ;
#172 = LINE ( 'NONE', #304, #51 ) ;
#173 = EDGE_CURVE ( 'NONE', #146, #54, #210, .T. ) ;
#174 = SURFACE_STYLE_FILL_AREA ( #279 ) ;
#175 = DIRECTION ( 'NONE',  ( -3.498990854706722745E-17, 1.000000000000000000, -0.000000000000000000 ) ) ;
#176 = CIRCLE ( 'NONE', #118, 0.09375000000000001388 ) ;
#177 = PRESENTATION_LAYER_ASSIGNMENT (  '', '', ( #202 ) ) ;
#178 = PRODUCT_DEFINITION_SHAPE ( 'NONE', 'NONE',  #125 ) ;
#179 =( LENGTH_UNIT ( ) NAMED_UNIT ( * ) SI_UNIT ( $, .METRE. ) );
#180 = MANIFOLD_SOLID_BREP ( 'Revolve - Tool Body (Straight Shanked)', #168 ) ;
#181 = CARTESIAN_POINT ( 'NONE',  ( 0.000000000000000000, 0.7500000000000001110, 0.000000000000000000 ) ) ;
#182 = ADVANCED_FACE ( 'NONE', ( #305 ), #152, .F. ) ;
#183 = ADVANCED_FACE ( 'NONE', ( #233 ), #25, .T. ) ;
#184 = VECTOR ( 'NONE', #213, 39.37007874015748143 ) ;
#185 = LENGTH_MEASURE_WITH_UNIT ( LENGTH_MEASURE( 0.02539999999999999897 ), #179 );
#186 = ADVANCED_BREP_SHAPE_REPRESENTATION ( '05097', ( #138, #180, #239 ), #263 ) ;
#187 = VERTEX_POINT ( 'NONE', #67 ) ;
#188 = SURFACE_STYLE_FILL_AREA ( #83 ) ;
#189 = ORIENTED_EDGE ( 'NONE', *, *, #294, .T. ) ;
#190 = UNCERTAINTY_MEASURE_WITH_UNIT (LENGTH_MEASURE( 1.000000000000000082E-05 ), #247, 'distance_accuracy_value', 'NONE');
#191 =( GEOMETRIC_REPRESENTATION_CONTEXT ( 3 ) GLOBAL_UNCERTAINTY_ASSIGNED_CONTEXT ( ( #190 ) ) GLOBAL_UNIT_ASSIGNED_CONTEXT ( ( #247, #157, #307 ) ) REPRESENTATION_CONTEXT ( 'NONE', 'WORKASPACE' ) );
#192 = PRODUCT_DEFINITION_FORMATION_WITH_SPECIFIED_SOURCE ( 'ANY', '', #6, .NOT_KNOWN. ) ;
#193 = ORIENTED_EDGE ( 'NONE', *, *, #13, .T. ) ;
#194 = DIRECTION ( 'NONE',  ( -3.498990854706722745E-17, 1.000000000000000000, -0.000000000000000000 ) ) ;
#195 = CARTESIAN_POINT ( 'NONE',  ( 0.000000000000000000, 0.000000000000000000, -0.09374999999999998612 ) ) ;
#196 = VECTOR ( 'NONE', #26, 39.37007874015748143 ) ;
#197 = FILL_AREA_STYLE_COLOUR ( '', #39 ) ;
#198 = UNCERTAINTY_MEASURE_WITH_UNIT (LENGTH_MEASURE( 1.000000000000000082E-05 ), #240, 'distance_accuracy_value', 'NONE');
#199 = PRESENTATION_STYLE_ASSIGNMENT (( #42 ) ) ;
#200 = EDGE_CURVE ( 'NONE', #293, #147, #207, .T. ) ;
#201 = LENGTH_MEASURE_WITH_UNIT ( LENGTH_MEASURE( 0.02539999999999999897 ), #227 );
#202 = STYLED_ITEM ( 'NONE', ( #9 ), #309 ) ;
#203 = SURFACE_SIDE_STYLE ('',( #174 ) ) ;
#204 =( LENGTH_UNIT ( ) NAMED_UNIT ( * ) SI_UNIT ( $, .METRE. ) );
#205 = CARTESIAN_POINT ( 'NONE',  ( 0.09374999999999998612, 2.500000000000000000, 1.148106374200644171E-17 ) ) ;
#206 = AXIS2_PLACEMENT_3D ( 'NONE', #97, #48, #24 ) ;
#207 = LINE ( 'NONE', #20, #196 ) ;
#208 = PLANE ( 'NONE',  #292 ) ;
#209 = DIRECTION ( 'NONE',  ( -0.000000000000000000, -1.000000000000000000, -0.000000000000000000 ) ) ;
#210 = CIRCLE ( 'NONE', #33, 0.09374999999999998612 ) ;
#211 = FACE_OUTER_BOUND ( 'NONE', #3, .T. ) ;
#212 = LENGTH_MEASURE_WITH_UNIT ( LENGTH_MEASURE( 0.02539999999999999897 ), #267 );
#213 = DIRECTION ( 'NONE',  ( -3.498990854706722745E-17, 1.000000000000000000, -0.000000000000000000 ) ) ;
#214 = EDGE_LOOP ( 'NONE', ( #268, #283, #165, #242 ) ) ;
#215 = COLOUR_RGB ( '',0.7921568627450980005, 0.8196078431372548767, 0.9333333333333333481 ) ;
#216 = CYLINDRICAL_SURFACE ( 'NONE', #107, 0.09375000000000002776 ) ;
#217 = DIRECTION ( 'NONE',  ( -0.000000000000000000, -1.000000000000000000, -0.000000000000000000 ) ) ;
#218 = CARTESIAN_POINT ( 'NONE',  ( 0.000000000000000000, 0.000000000000000000, 0.000000000000000000 ) ) ;
#219 = AXIS2_PLACEMENT_3D ( 'NONE', #235, #255, #72 ) ;
#220 = DIRECTION ( 'NONE',  ( 0.000000000000000000, 0.000000000000000000, -1.000000000000000000 ) ) ;
#221 =( NAMED_UNIT ( * ) PLANE_ANGLE_UNIT ( ) SI_UNIT ( $, .RADIAN. ) );
#222 = CARTESIAN_POINT ( 'NONE',  ( 0.09374999999999998612, 0.7499999999999998890, 1.148106374200644171E-17 ) ) ;
#223 = DIRECTION ( 'NONE',  ( -0.000000000000000000, -1.000000000000000000, -0.000000000000000000 ) ) ;
#224 = APPLICATION_PROTOCOL_DEFINITION ( 'draft international standard', 'automotive_design', 1998, #68 ) ;
#225 = COLOUR_RGB ( '',1.000000000000000000, 0.000000000000000000, 0.000000000000000000 ) ;
#226 = DIMENSIONAL_EXPONENTS ( 1.000000000000000000, 0.000000000000000000, 0.000000000000000000, 0.000000000000000000, 0.000000000000000000, 0.000000000000000000, 0.000000000000000000 ) ;
#227 =( LENGTH_UNIT ( ) NAMED_UNIT ( * ) SI_UNIT ( $, .METRE. ) );
#228 = DIRECTION ( 'NONE',  ( 3.498990854706722745E-17, -1.000000000000000000, 0.000000000000000000 ) ) ;
#229 = EDGE_CURVE ( 'NONE', #156, #293, #64, .T. ) ;
#230 = FILL_AREA_STYLE_COLOUR ( '', #286 ) ;
#231 = EDGE_LOOP ( 'NONE', ( #104, #270, #106, #82 ) ) ;
#232 = COLOUR_RGB ( '',0.7921568627450980005, 0.8196078431372548767, 0.9333333333333333481 ) ;
#233 = FACE_OUTER_BOUND ( 'NONE', #55, .T. ) ;
#234 = ADVANCED_FACE ( 'NONE', ( #117 ), #111, .T. ) ;
#235 = CARTESIAN_POINT ( 'NONE',  ( -6.123233995736766036E-17, 2.500000000000000000, 0.000000000000000000 ) ) ;
#236 = SURFACE_SIDE_STYLE ('',( #4 ) ) ;
#237 = ORIENTED_EDGE ( 'NONE', *, *, #59, .F. ) ;
#238 = PRESENTATION_LAYER_ASSIGNMENT (  '', '', ( #150 ) ) ;
#239 = AXIS2_PLACEMENT_3D ( 'NONE', #272, #301, #61 ) ;
#240 =( CONVERSION_BASED_UNIT ( 'INCH', #2 ) LENGTH_UNIT ( ) NAMED_UNIT ( #96 ) );
#241 =( NAMED_UNIT ( * ) SI_UNIT ( $, .STERADIAN. ) SOLID_ANGLE_UNIT ( ) );
#242 = ORIENTED_EDGE ( 'NONE', *, *, #15, .F. ) ;
#243 = LINE ( 'NONE', #53, #184 ) ;
#244 = DIRECTION ( 'NONE',  ( 0.000000000000000000, 0.000000000000000000, -1.000000000000000000 ) ) ;
#245 = DIRECTION ( 'NONE',  ( 0.000000000000000000, 0.000000000000000000, -1.000000000000000000 ) ) ;
#246 = DIRECTION ( 'NONE',  ( -3.498990854706722745E-17, 1.000000000000000000, -0.000000000000000000 ) ) ;
#247 =( CONVERSION_BASED_UNIT ( 'INCH', #132 ) LENGTH_UNIT ( ) NAMED_UNIT ( #151 ) );
#248 = CARTESIAN_POINT ( 'NONE',  ( 0.000000000000000000, 0.7500000000000001110, 0.000000000000000000 ) ) ;
#249 = MECHANICAL_DESIGN_GEOMETRIC_PRESENTATION_REPRESENTATION (  '', ( #74 ), #191 ) ;
#250 = PRESENTATION_STYLE_ASSIGNMENT (( #274 ) ) ;
#251 = SURFACE_SIDE_STYLE ('',( #66 ) ) ;
#252 = CIRCLE ( 'NONE', #153, 0.09375000000000005551 ) ;
#253 = EDGE_CURVE ( 'NONE', #147, #261, #86, .T. ) ;
#254 = MECHANICAL_DESIGN_GEOMETRIC_PRESENTATION_REPRESENTATION (  '', ( #150 ), #14 ) ;
#255 = DIRECTION ( 'NONE',  ( -3.498990854706722745E-17, 1.000000000000000000, -0.000000000000000000 ) ) ;
#256 = CYLINDRICAL_SURFACE ( 'NONE', #22, 0.09374999999999998612 ) ;
#257 = EDGE_CURVE ( 'NONE', #54, #146, #169, .T. ) ;
#258 = AXIS2_PLACEMENT_3D ( 'NONE', #120, #101, #143 ) ;
#259 = PRESENTATION_STYLE_ASSIGNMENT (( #49 ) ) ;
#260 = ADVANCED_FACE ( 'NONE', ( #116 ), #208, .F. ) ;
#261 = VERTEX_POINT ( 'NONE', #205 ) ;
#262 = AXIS2_PLACEMENT_3D ( 'NONE', #46, #209, #44 ) ;
#263 =( GEOMETRIC_REPRESENTATION_CONTEXT ( 3 ) GLOBAL_UNCERTAINTY_ASSIGNED_CONTEXT ( ( #198 ) ) GLOBAL_UNIT_ASSIGNED_CONTEXT ( ( #240, #221, #37 ) ) REPRESENTATION_CONTEXT ( 'NONE', 'WORKASPACE' ) );
#264 = LENGTH_MEASURE_WITH_UNIT ( LENGTH_MEASURE( 0.02539999999999999897 ), #123 );
#265 = ORIENTED_EDGE ( 'NONE', *, *, #173, .F. ) ;
#266 = UNCERTAINTY_MEASURE_WITH_UNIT (LENGTH_MEASURE( 1.000000000000000082E-05 ), #108, 'distance_accuracy_value', 'NONE');
#267 =( LENGTH_UNIT ( ) NAMED_UNIT ( * ) SI_UNIT ( $, .METRE. ) );
#268 = ORIENTED_EDGE ( 'NONE', *, *, #173, .T. ) ;
#269 =( CONVERSION_BASED_UNIT ( 'INCH', #212 ) LENGTH_UNIT ( ) NAMED_UNIT ( #65 ) );
#270 = ORIENTED_EDGE ( 'NONE', *, *, #257, .T. ) ;
#271 = UNCERTAINTY_MEASURE_WITH_UNIT (LENGTH_MEASURE( 1.000000000000000082E-05 ), #136, 'distance_accuracy_value', 'NONE');
#272 = CARTESIAN_POINT ( 'NONE',  ( 0.000000000000000000, 0.000000000000000000, 0.000000000000000000 ) ) ;
#273 = EDGE_LOOP ( 'NONE', ( #100, #189, #69, #124 ) ) ;
#274 = SURFACE_STYLE_USAGE ( .BOTH. , #203 ) ;
#275 =( NAMED_UNIT ( * ) PLANE_ANGLE_UNIT ( ) SI_UNIT ( $, .RADIAN. ) );
#276 = PRESENTATION_LAYER_ASSIGNMENT (  '', '', ( #103 ) ) ;
#277 = SHAPE_DEFINITION_REPRESENTATION ( #178, #186 ) ;
#278 = CARTESIAN_POINT ( 'NONE',  ( 0.000000000000000000, 0.000000000000000000, 0.000000000000000000 ) ) ;
#279 = FILL_AREA_STYLE ('',( #197 ) ) ;
#280 =( GEOMETRIC_REPRESENTATION_CONTEXT ( 3 ) GLOBAL_UNCERTAINTY_ASSIGNED_CONTEXT ( ( #271 ) ) GLOBAL_UNIT_ASSIGNED_CONTEXT ( ( #136, #140, #284 ) ) REPRESENTATION_CONTEXT ( 'NONE', 'WORKASPACE' ) );
#281 = DIMENSIONAL_EXPONENTS ( 1.000000000000000000, 0.000000000000000000, 0.000000000000000000, 0.000000000000000000, 0.000000000000000000, 0.000000000000000000, 0.000000000000000000 ) ;
#282 = SURFACE_SIDE_STYLE ('',( #99 ) ) ;
#283 = ORIENTED_EDGE ( 'NONE', *, *, #141, .T. ) ;
#284 =( NAMED_UNIT ( * ) SI_UNIT ( $, .STERADIAN. ) SOLID_ANGLE_UNIT ( ) );
#285 = DIRECTION ( 'NONE',  ( -3.498990854706722745E-17, 1.000000000000000000, -0.000000000000000000 ) ) ;
#286 = COLOUR_RGB ( '',1.000000000000000000, 0.000000000000000000, 0.000000000000000000 ) ;
#287 = FILL_AREA_STYLE_COLOUR ( '', #225 ) ;
#288 = ADVANCED_FACE ( 'NONE', ( #154 ), #256, .T. ) ;
#289 =( NAMED_UNIT ( * ) PLANE_ANGLE_UNIT ( ) SI_UNIT ( $, .RADIAN. ) );
#290 = CARTESIAN_POINT ( 'NONE',  ( -6.123233995736766036E-17, 2.500000000000000000, 0.000000000000000000 ) ) ;
#291 = CARTESIAN_POINT ( 'NONE',  ( 0.000000000000000000, 0.000000000000000000, 0.000000000000000000 ) ) ;
#292 = AXIS2_PLACEMENT_3D ( 'NONE', #135, #228, #21 ) ;
#293 = VERTEX_POINT ( 'NONE', #7 ) ;
#294 = EDGE_CURVE ( 'NONE', #156, #261, #243, .T. ) ;
#295 = CARTESIAN_POINT ( 'NONE',  ( 0.000000000000000000, 0.000000000000000000, 0.000000000000000000 ) ) ;
#296 = FILL_AREA_STYLE_COLOUR ( '', #47 ) ;
#297 = ORIENTED_EDGE ( 'NONE', *, *, #257, .F. ) ;
#298 = CARTESIAN_POINT ( 'NONE',  ( -7.582401355855259480E-33, 0.7499999999999998890, 0.000000000000000000 ) ) ;
#299 =( NAMED_UNIT ( * ) SI_UNIT ( $, .STERADIAN. ) SOLID_ANGLE_UNIT ( ) );
#300 =( CONVERSION_BASED_UNIT ( 'INCH', #133 ) LENGTH_UNIT ( ) NAMED_UNIT ( #303 ) );
#301 = DIRECTION ( 'NONE',  ( 0.000000000000000000, 0.000000000000000000, 1.000000000000000000 ) ) ;
#302 = MECHANICAL_DESIGN_GEOMETRIC_PRESENTATION_REPRESENTATION (  '', ( #142 ), #161 ) ;
#303 = DIMENSIONAL_EXPONENTS ( 1.000000000000000000, 0.000000000000000000, 0.000000000000000000, 0.000000000000000000, 0.000000000000000000, 0.000000000000000000, 0.000000000000000000 ) ;
#304 = CARTESIAN_POINT ( 'NONE',  ( 1.148106374200643401E-17, 0.000000000000000000, 0.09374999999999998612 ) ) ;
#305 = FACE_OUTER_BOUND ( 'NONE', #137, .T. ) ;
#306 = ORIENTED_EDGE ( 'NONE', *, *, #253, .T. ) ;
#307 =( NAMED_UNIT ( * ) SI_UNIT ( $, .STERADIAN. ) SOLID_ANGLE_UNIT ( ) );
#308 =( GEOMETRIC_REPRESENTATION_CONTEXT ( 3 ) GLOBAL_UNCERTAINTY_ASSIGNED_CONTEXT ( ( #81 ) ) GLOBAL_UNIT_ASSIGNED_CONTEXT ( ( #269, #166, #56 ) ) REPRESENTATION_CONTEXT ( 'NONE', 'WORKASPACE' ) );
#309 = ADVANCED_FACE ( 'NONE', ( #145 ), #50, .T. ) ;
ENDSEC;
END-ISO-10303-21;
