ISO-10303-21;
HEADER;
FILE_DESCRIPTION (( 'STEP AP214' ),
    '1' );
FILE_NAME ('59251.STEP',
    '2023-06-22T22:09:20',
    ( '' ),
    ( '' ),
    'SwSTEP 2.0',
    'SolidWorks 2023',
    '' );
FILE_SCHEMA (( 'AUTOMOTIVE_DESIGN' ));
ENDSEC;

DATA;
#1 = AXIS2_PLACEMENT_3D ( 'NONE', #53, #193, #270 ) ;
#2 = ORIENTED_EDGE ( 'NONE', *, *, #264, .T. ) ;
#3 = UNCERTAINTY_MEASURE_WITH_UNIT (LENGTH_MEASURE( 1.000000000000000082E-05 ), #46, 'distance_accuracy_value', 'NONE');
#4 = SURFACE_SIDE_STYLE ('',( #223 ) ) ;
#5 =( GEOMETRIC_REPRESENTATION_CONTEXT ( 3 ) GLOBAL_UNCERTAINTY_ASSIGNED_CONTEXT ( ( #25 ) ) GLOBAL_UNIT_ASSIGNED_CONTEXT ( ( #183, #266, #45 ) ) REPRESENTATION_CONTEXT ( 'NONE', 'WORKASPACE' ) );
#6 = CARTESIAN_POINT ( 'NONE',  ( 0.000000000000000000, 0.000000000000000000, 0.000000000000000000 ) ) ;
#7 = CYLINDRICAL_SURFACE ( 'NONE', #180, 0.1250000000000000278 ) ;
#8 = PLANE ( 'NONE',  #17 ) ;
#9 = CARTESIAN_POINT ( 'NONE',  ( -0.1250000000000001110, 2.500000000000000000, 0.000000000000000000 ) ) ;
#10 = FILL_AREA_STYLE ('',( #151 ) ) ;
#11 = DIRECTION ( 'NONE',  ( -3.061616997868379936E-17, 1.000000000000000000, -0.000000000000000000 ) ) ;
#12 = SURFACE_SIDE_STYLE ('',( #85 ) ) ;
#13 = EDGE_CURVE ( 'NONE', #139, #156, #58, .T. ) ;
#14 =( LENGTH_UNIT ( ) NAMED_UNIT ( * ) SI_UNIT ( $, .METRE. ) );
#15 = DIRECTION ( 'NONE',  ( -0.000000000000000000, -1.000000000000000000, -0.000000000000000000 ) ) ;
#16 = ORIENTED_EDGE ( 'NONE', *, *, #153, .T. ) ;
#17 = AXIS2_PLACEMENT_3D ( 'NONE', #20, #23, #117 ) ;
#18 = LENGTH_MEASURE_WITH_UNIT ( LENGTH_MEASURE( 0.02539999999999999897 ), #215 );
#19 = LENGTH_MEASURE_WITH_UNIT ( LENGTH_MEASURE( 0.02539999999999999897 ), #255 );
#20 = CARTESIAN_POINT ( 'NONE',  ( 0.000000000000000000, 0.000000000000000000, 0.000000000000000000 ) ) ;
#21 = LENGTH_MEASURE_WITH_UNIT ( LENGTH_MEASURE( 0.02539999999999999897 ), #220 );
#22 = FILL_AREA_STYLE_COLOUR ( '', #258 ) ;
#23 = DIRECTION ( 'NONE',  ( 0.000000000000000000, -1.000000000000000000, -0.000000000000000000 ) ) ;
#24 = DIMENSIONAL_EXPONENTS ( 1.000000000000000000, 0.000000000000000000, 0.000000000000000000, 0.000000000000000000, 0.000000000000000000, 0.000000000000000000, 0.000000000000000000 ) ;
#25 = UNCERTAINTY_MEASURE_WITH_UNIT (LENGTH_MEASURE( 1.000000000000000082E-05 ), #183, 'distance_accuracy_value', 'NONE');
#26 = DIRECTION ( 'NONE',  ( 0.000000000000000000, -0.000000000000000000, 1.000000000000000000 ) ) ;
#27 = MECHANICAL_DESIGN_GEOMETRIC_PRESENTATION_REPRESENTATION (  '', ( #271 ), #39 ) ;
#28 = CYLINDRICAL_SURFACE ( 'NONE', #38, 0.1250000000000000278 ) ;
#29 = ORIENTED_EDGE ( 'NONE', *, *, #192, .F. ) ;
#30 = DIRECTION ( 'NONE',  ( 0.000000000000000000, 0.000000000000000000, -1.000000000000000000 ) ) ;
#31 = ADVANCED_FACE ( 'NONE', ( #213 ), #306, .T. ) ;
#32 = CIRCLE ( 'NONE', #112, 0.1250000000000000000 ) ;
#33 =( CONVERSION_BASED_UNIT ( 'INCH', #174 ) LENGTH_UNIT ( ) NAMED_UNIT ( #96 ) );
#34 = DIRECTION ( 'NONE',  ( 0.000000000000000000, 0.000000000000000000, 1.000000000000000000 ) ) ;
#35 = FACE_OUTER_BOUND ( 'NONE', #294, .T. ) ;
#36 = ORIENTED_EDGE ( 'NONE', *, *, #296, .T. ) ;
#37 = ORIENTED_EDGE ( 'NONE', *, *, #175, .T. ) ;
#38 = AXIS2_PLACEMENT_3D ( 'NONE', #144, #172, #225 ) ;
#39 =( GEOMETRIC_REPRESENTATION_CONTEXT ( 3 ) GLOBAL_UNCERTAINTY_ASSIGNED_CONTEXT ( ( #66 ) ) GLOBAL_UNIT_ASSIGNED_CONTEXT ( ( #269, #93, #44 ) ) REPRESENTATION_CONTEXT ( 'NONE', 'WORKASPACE' ) );
#40 = CARTESIAN_POINT ( 'NONE',  ( 0.000000000000000000, 0.000000000000000000, -0.1250000000000000278 ) ) ;
#41 =( NAMED_UNIT ( * ) PLANE_ANGLE_UNIT ( ) SI_UNIT ( $, .RADIAN. ) );
#42 = EDGE_LOOP ( 'NONE', ( #158, #100, #136, #143 ) ) ;
#43 = CIRCLE ( 'NONE', #97, 0.1250000000000000555 ) ;
#44 =( NAMED_UNIT ( * ) SI_UNIT ( $, .STERADIAN. ) SOLID_ANGLE_UNIT ( ) );
#45 =( NAMED_UNIT ( * ) SI_UNIT ( $, .STERADIAN. ) SOLID_ANGLE_UNIT ( ) );
#46 =( CONVERSION_BASED_UNIT ( 'INCH', #19 ) LENGTH_UNIT ( ) NAMED_UNIT ( #263 ) );
#47 = VECTOR ( 'NONE', #109, 39.37007874015748143 ) ;
#48 = PRODUCT_DEFINITION_CONTEXT ( 'detailed design', #131, 'design' ) ;
#49 = DIRECTION ( 'NONE',  ( 0.000000000000000000, 0.000000000000000000, -1.000000000000000000 ) ) ;
#50 = DIRECTION ( 'NONE',  ( -1.000000000000000000, 0.000000000000000000, 0.000000000000000000 ) ) ;
#51 = CIRCLE ( 'NONE', #186, 0.1250000000000000000 ) ;
#52 = EDGE_CURVE ( 'NONE', #147, #60, #285, .T. ) ;
#53 = CARTESIAN_POINT ( 'NONE',  ( 5.858436651022869520E-35, 0.5000000000000000000, 0.000000000000000000 ) ) ;
#54 =( NAMED_UNIT ( * ) SI_UNIT ( $, .STERADIAN. ) SOLID_ANGLE_UNIT ( ) );
#55 = CARTESIAN_POINT ( 'NONE',  ( -6.123233995736759873E-17, 2.500000000000000000, 0.000000000000000000 ) ) ;
#56 = CIRCLE ( 'NONE', #65, 0.1250000000000000000 ) ;
#57 = SURFACE_STYLE_FILL_AREA ( #159 ) ;
#58 = LINE ( 'NONE', #9, #165 ) ;
#59 = SURFACE_STYLE_USAGE ( .BOTH. , #137 ) ;
#60 = VERTEX_POINT ( 'NONE', #132 ) ;
#61 = SHAPE_DEFINITION_REPRESENTATION ( #295, #145 ) ;
#62 = DIRECTION ( 'NONE',  ( -3.061616997868379936E-17, 1.000000000000000000, -0.000000000000000000 ) ) ;
#63 = LINE ( 'NONE', #228, #146 ) ;
#64 = FILL_AREA_STYLE_COLOUR ( '', #133 ) ;
#65 = AXIS2_PLACEMENT_3D ( 'NONE', #115, #309, #92 ) ;
#66 = UNCERTAINTY_MEASURE_WITH_UNIT (LENGTH_MEASURE( 1.000000000000000082E-05 ), #269, 'distance_accuracy_value', 'NONE');
#67 = PRESENTATION_LAYER_ASSIGNMENT (  '', '', ( #202 ) ) ;
#68 = COLOUR_RGB ( '',1.000000000000000000, 0.000000000000000000, 0.000000000000000000 ) ;
#69 = LENGTH_MEASURE_WITH_UNIT ( LENGTH_MEASURE( 0.02539999999999999897 ), #307 );
#70 =( NAMED_UNIT ( * ) SI_UNIT ( $, .STERADIAN. ) SOLID_ANGLE_UNIT ( ) );
#71 = AXIS2_PLACEMENT_3D ( 'NONE', #55, #62, #298 ) ;
#72 = PRESENTATION_STYLE_ASSIGNMENT (( #287 ) ) ;
#73 = VECTOR ( 'NONE', #15, 39.37007874015748143 ) ;
#74 = DIRECTION ( 'NONE',  ( -0.000000000000000000, -1.000000000000000000, -0.000000000000000000 ) ) ;
#75 = EDGE_CURVE ( 'NONE', #139, #227, #32, .T. ) ;
#76 = ORIENTED_EDGE ( 'NONE', *, *, #52, .F. ) ;
#77 = AXIS2_PLACEMENT_3D ( 'NONE', #113, #154, #87 ) ;
#78 =( NAMED_UNIT ( * ) PLANE_ANGLE_UNIT ( ) SI_UNIT ( $, .RADIAN. ) );
#79 =( CONVERSION_BASED_UNIT ( 'INCH', #197 ) LENGTH_UNIT ( ) NAMED_UNIT ( #24 ) );
#80 = UNCERTAINTY_MEASURE_WITH_UNIT (LENGTH_MEASURE( 1.000000000000000082E-05 ), #253, 'distance_accuracy_value', 'NONE');
#81 = STYLED_ITEM ( 'NONE', ( #300 ), #304 ) ;
#82 = DIRECTION ( 'NONE',  ( -1.000000000000000000, 0.000000000000000000, 0.000000000000000000 ) ) ;
#83 = COLOUR_RGB ( '',0.7921568627450980005, 0.8196078431372548767, 0.9333333333333333481 ) ;
#84 =( NAMED_UNIT ( * ) PLANE_ANGLE_UNIT ( ) SI_UNIT ( $, .RADIAN. ) );
#85 = SURFACE_STYLE_FILL_AREA ( #301 ) ;
#86 = CARTESIAN_POINT ( 'NONE',  ( 1.530808498934192125E-17, 0.000000000000000000, 0.1250000000000000555 ) ) ;
#87 = DIRECTION ( 'NONE',  ( -1.000000000000000000, 0.000000000000000000, 0.000000000000000000 ) ) ;
#88 = ORIENTED_EDGE ( 'NONE', *, *, #153, .F. ) ;
#89 = STYLED_ITEM ( 'NONE', ( #72 ), #184 ) ;
#90 = CARTESIAN_POINT ( 'NONE',  ( 0.000000000000000000, 0.000000000000000000, 0.000000000000000000 ) ) ;
#91 = AXIS2_PLACEMENT_3D ( 'NONE', #297, #34, #103 ) ;
#92 = DIRECTION ( 'NONE',  ( 0.000000000000000000, 0.000000000000000000, -1.000000000000000000 ) ) ;
#93 =( NAMED_UNIT ( * ) PLANE_ANGLE_UNIT ( ) SI_UNIT ( $, .RADIAN. ) );
#94 = EDGE_CURVE ( 'NONE', #227, #139, #51, .T. ) ;
#95 = SURFACE_SIDE_STYLE ('',( #308 ) ) ;
#96 = DIMENSIONAL_EXPONENTS ( 1.000000000000000000, 0.000000000000000000, 0.000000000000000000, 0.000000000000000000, 0.000000000000000000, 0.000000000000000000, 0.000000000000000000 ) ;
#97 = AXIS2_PLACEMENT_3D ( 'NONE', #196, #291, #50 ) ;
#98 = DIRECTION ( 'NONE',  ( -0.000000000000000000, -1.000000000000000000, -0.000000000000000000 ) ) ;
#99 = PRESENTATION_STYLE_ASSIGNMENT (( #123 ) ) ;
#100 = ORIENTED_EDGE ( 'NONE', *, *, #164, .T. ) ;
#101 = FACE_OUTER_BOUND ( 'NONE', #42, .T. ) ;
#102 = ORIENTED_EDGE ( 'NONE', *, *, #94, .F. ) ;
#103 = DIRECTION ( 'NONE',  ( 1.000000000000000000, 0.000000000000000000, 0.000000000000000000 ) ) ;
#104 = SURFACE_STYLE_FILL_AREA ( #10 ) ;
#105 = PRESENTATION_LAYER_ASSIGNMENT (  '', '', ( #81 ) ) ;
#106 = CARTESIAN_POINT ( 'NONE',  ( 0.000000000000000000, 0.5000000000000001110, 0.000000000000000000 ) ) ;
#107 = ORIENTED_EDGE ( 'NONE', *, *, #243, .T. ) ;
#108 = DIRECTION ( 'NONE',  ( 1.000000000000000000, 3.061616997868379936E-17, 0.000000000000000000 ) ) ;
#109 = DIRECTION ( 'NONE',  ( -0.000000000000000000, -1.000000000000000000, -0.000000000000000000 ) ) ;
#110 = ORIENTED_EDGE ( 'NONE', *, *, #175, .F. ) ;
#111 = SURFACE_SIDE_STYLE ('',( #57 ) ) ;
#112 = AXIS2_PLACEMENT_3D ( 'NONE', #163, #214, #234 ) ;
#113 = CARTESIAN_POINT ( 'NONE',  ( -6.123233995736759873E-17, 2.500000000000000000, 0.000000000000000000 ) ) ;
#114 = DIMENSIONAL_EXPONENTS ( 1.000000000000000000, 0.000000000000000000, 0.000000000000000000, 0.000000000000000000, 0.000000000000000000, 0.000000000000000000, 0.000000000000000000 ) ;
#115 = CARTESIAN_POINT ( 'NONE',  ( 0.000000000000000000, 0.5000000000000000000, 0.000000000000000000 ) ) ;
#116 = PRODUCT_DEFINITION_FORMATION_WITH_SPECIFIED_SOURCE ( 'ANY', '', #173, .NOT_KNOWN. ) ;
#117 = DIRECTION ( 'NONE',  ( 0.000000000000000000, 0.000000000000000000, -1.000000000000000000 ) ) ;
#118 = PRODUCT_DEFINITION ( 'UNKNOWN', '', #116, #48 ) ;
#119 = FACE_OUTER_BOUND ( 'NONE', #292, .T. ) ;
#120 = CARTESIAN_POINT ( 'NONE',  ( 0.1250000000000000278, 0.5000000000000001110, 1.530808498934192125E-17 ) ) ;
#121 = CLOSED_SHELL ( 'NONE', ( #149, #273, #304, #184 ) ) ;
#122 = VERTEX_POINT ( 'NONE', #207 ) ;
#123 = SURFACE_STYLE_USAGE ( .BOTH. , #4 ) ;
#124 = FILL_AREA_STYLE_COLOUR ( '', #68 ) ;
#125 = AXIS2_PLACEMENT_3D ( 'NONE', #170, #135, #108 ) ;
#126 = PRESENTATION_LAYER_ASSIGNMENT (  '', '', ( #89 ) ) ;
#127 = EDGE_LOOP ( 'NONE', ( #237, #102 ) ) ;
#128 = FILL_AREA_STYLE_COLOUR ( '', #83 ) ;
#129 = DIRECTION ( 'NONE',  ( 0.000000000000000000, 0.000000000000000000, -1.000000000000000000 ) ) ;
#130 =( LENGTH_UNIT ( ) NAMED_UNIT ( * ) SI_UNIT ( $, .METRE. ) );
#131 = APPLICATION_CONTEXT ( 'automotive_design' ) ;
#132 = CARTESIAN_POINT ( 'NONE',  ( 1.530808498934191817E-17, 0.5000000000000000000, 0.1250000000000000000 ) ) ;
#133 = COLOUR_RGB ( '',1.000000000000000000, 0.000000000000000000, 0.000000000000000000 ) ;
#134 = APPLICATION_PROTOCOL_DEFINITION ( 'draft international standard', 'automotive_design', 1998, #160 ) ;
#135 = DIRECTION ( 'NONE',  ( 3.061616997868379936E-17, -1.000000000000000000, 0.000000000000000000 ) ) ;
#136 = ORIENTED_EDGE ( 'NONE', *, *, #296, .F. ) ;
#137 = SURFACE_SIDE_STYLE ('',( #104 ) ) ;
#138 = SURFACE_STYLE_USAGE ( .BOTH. , #111 ) ;
#139 = VERTEX_POINT ( 'NONE', #178 ) ;
#140 = FILL_AREA_STYLE_COLOUR ( '', #226 ) ;
#141 = CARTESIAN_POINT ( 'NONE',  ( 0.000000000000000000, 0.5000000000000000000, 0.000000000000000000 ) ) ;
#142 = FACE_OUTER_BOUND ( 'NONE', #182, .T. ) ;
#143 = ORIENTED_EDGE ( 'NONE', *, *, #13, .F. ) ;
#144 = CARTESIAN_POINT ( 'NONE',  ( -6.123233995736759873E-17, 2.500000000000000000, 0.000000000000000000 ) ) ;
#145 = ADVANCED_BREP_SHAPE_REPRESENTATION ( '59251', ( #179, #181, #91 ), #274 ) ;
#146 = VECTOR ( 'NONE', #302, 39.37007874015748143 ) ;
#147 = VERTEX_POINT ( 'NONE', #303 ) ;
#148 = FACE_OUTER_BOUND ( 'NONE', #127, .T. ) ;
#149 = ADVANCED_FACE ( 'NONE', ( #205 ), #278, .T. ) ;
#150 = ORIENTED_EDGE ( 'NONE', *, *, #94, .T. ) ;
#151 = FILL_AREA_STYLE_COLOUR ( '', #194 ) ;
#152 = CIRCLE ( 'NONE', #224, 0.1250000000000000278 ) ;
#153 = EDGE_CURVE ( 'NONE', #60, #176, #206, .T. ) ;
#154 = DIRECTION ( 'NONE',  ( -3.061616997868379936E-17, 1.000000000000000000, -0.000000000000000000 ) ) ;
#155 = APPLICATION_PROTOCOL_DEFINITION ( 'draft international standard', 'automotive_design', 1998, #131 ) ;
#156 = VERTEX_POINT ( 'NONE', #275 ) ;
#157 =( NAMED_UNIT ( * ) SI_UNIT ( $, .STERADIAN. ) SOLID_ANGLE_UNIT ( ) );
#158 = ORIENTED_EDGE ( 'NONE', *, *, #75, .T. ) ;
#159 = FILL_AREA_STYLE ('',( #128 ) ) ;
#160 = APPLICATION_CONTEXT ( 'automotive_design' ) ;
#161 = LINE ( 'NONE', #40, #73 ) ;
#162 = ORIENTED_EDGE ( 'NONE', *, *, #192, .T. ) ;
#163 = CARTESIAN_POINT ( 'NONE',  ( 0.000000000000000000, 0.5000000000000001110, 0.000000000000000000 ) ) ;
#164 = EDGE_CURVE ( 'NONE', #227, #259, #63, .T. ) ;
#165 = VECTOR ( 'NONE', #235, 39.37007874015748143 ) ;
#166 = FILL_AREA_STYLE ('',( #140 ) ) ;
#167 = CARTESIAN_POINT ( 'NONE',  ( 0.000000000000000000, 0.000000000000000000, 0.000000000000000000 ) ) ;
#168 = AXIS2_PLACEMENT_3D ( 'NONE', #167, #265, #49 ) ;
#169 =( NAMED_UNIT ( * ) SI_UNIT ( $, .STERADIAN. ) SOLID_ANGLE_UNIT ( ) );
#170 = CARTESIAN_POINT ( 'NONE',  ( 0.1250000000000000000, 2.500000000000000000, 0.000000000000000000 ) ) ;
#171 = CIRCLE ( 'NONE', #168, 0.1250000000000000278 ) ;
#172 = DIRECTION ( 'NONE',  ( -3.061616997868379936E-17, 1.000000000000000000, -0.000000000000000000 ) ) ;
#173 = PRODUCT ( '59251', '59251', '', ( #198 ) ) ;
#174 = LENGTH_MEASURE_WITH_UNIT ( LENGTH_MEASURE( 0.02539999999999999897 ), #14 );
#175 = EDGE_CURVE ( 'NONE', #147, #122, #161, .T. ) ;
#176 = VERTEX_POINT ( 'NONE', #86 ) ;
#177 = STYLED_ITEM ( 'NONE', ( #99 ), #273 ) ;
#178 = CARTESIAN_POINT ( 'NONE',  ( -0.1250000000000000000, 0.5000000000000001110, 0.000000000000000000 ) ) ;
#179 = MANIFOLD_SOLID_BREP ( 'Revolve - Cutting Edge', #121 ) ;
#180 = AXIS2_PLACEMENT_3D ( 'NONE', #236, #200, #232 ) ;
#181 = MANIFOLD_SOLID_BREP ( 'Revolve - Tool Body (Straight Shanked)', #187 ) ;
#182 = EDGE_LOOP ( 'NONE', ( #76, #29 ) ) ;
#183 =( CONVERSION_BASED_UNIT ( 'INCH', #69 ) LENGTH_UNIT ( ) NAMED_UNIT ( #241 ) );
#184 = ADVANCED_FACE ( 'NONE', ( #189 ), #8, .T. ) ;
#185 =( CONVERSION_BASED_UNIT ( 'INCH', #18 ) LENGTH_UNIT ( ) NAMED_UNIT ( #114 ) );
#186 = AXIS2_PLACEMENT_3D ( 'NONE', #106, #11, #82 ) ;
#187 = CLOSED_SHELL ( 'NONE', ( #245, #210, #31, #286 ) ) ;
#188 = DIMENSIONAL_EXPONENTS ( 1.000000000000000000, 0.000000000000000000, 0.000000000000000000, 0.000000000000000000, 0.000000000000000000, 0.000000000000000000, 0.000000000000000000 ) ;
#189 = FACE_OUTER_BOUND ( 'NONE', #256, .T. ) ;
#190 = SURFACE_SIDE_STYLE ('',( #262 ) ) ;
#191 =( GEOMETRIC_REPRESENTATION_CONTEXT ( 3 ) GLOBAL_UNCERTAINTY_ASSIGNED_CONTEXT ( ( #199 ) ) GLOBAL_UNIT_ASSIGNED_CONTEXT ( ( #79, #78, #54 ) ) REPRESENTATION_CONTEXT ( 'NONE', 'WORKASPACE' ) );
#192 = EDGE_CURVE ( 'NONE', #60, #147, #56, .T. ) ;
#193 = DIRECTION ( 'NONE',  ( -3.061616997868379936E-17, 1.000000000000000000, 0.000000000000000000 ) ) ;
#194 = COLOUR_RGB ( '',1.000000000000000000, 0.000000000000000000, 0.000000000000000000 ) ;
#195 = UNCERTAINTY_MEASURE_WITH_UNIT (LENGTH_MEASURE( 1.000000000000000082E-05 ), #185, 'distance_accuracy_value', 'NONE');
#196 = CARTESIAN_POINT ( 'NONE',  ( -6.123233995736759873E-17, 2.500000000000000000, 0.000000000000000000 ) ) ;
#197 = LENGTH_MEASURE_WITH_UNIT ( LENGTH_MEASURE( 0.02539999999999999897 ), #221 );
#198 = PRODUCT_CONTEXT ( 'NONE', #160, 'mechanical' ) ;
#199 = UNCERTAINTY_MEASURE_WITH_UNIT (LENGTH_MEASURE( 1.000000000000000082E-05 ), #79, 'distance_accuracy_value', 'NONE');
#200 = DIRECTION ( 'NONE',  ( -0.000000000000000000, -1.000000000000000000, -0.000000000000000000 ) ) ;
#201 = EDGE_CURVE ( 'NONE', #122, #176, #171, .T. ) ;
#202 = STYLED_ITEM ( 'NONE', ( #282 ), #181 ) ;
#203 = MECHANICAL_DESIGN_GEOMETRIC_PRESENTATION_REPRESENTATION (  '', ( #89 ), #5 ) ;
#204 = PRESENTATION_LAYER_ASSIGNMENT (  '', '', ( #254 ) ) ;
#205 = FACE_OUTER_BOUND ( 'NONE', #230, .T. ) ;
#206 = LINE ( 'NONE', #229, #47 ) ;
#207 = CARTESIAN_POINT ( 'NONE',  ( 0.000000000000000000, 0.000000000000000000, -0.1250000000000000278 ) ) ;
#208 = PRODUCT_RELATED_PRODUCT_CATEGORY ( 'part', '', ( #173 ) ) ;
#209 = ORIENTED_EDGE ( 'NONE', *, *, #52, .T. ) ;
#210 = ADVANCED_FACE ( 'NONE', ( #148 ), #250, .F. ) ;
#211 = PRESENTATION_STYLE_ASSIGNMENT (( #138 ) ) ;
#212 = PRESENTATION_LAYER_ASSIGNMENT (  '', '', ( #177 ) ) ;
#213 = FACE_OUTER_BOUND ( 'NONE', #288, .T. ) ;
#214 = DIRECTION ( 'NONE',  ( -3.061616997868379936E-17, 1.000000000000000000, -0.000000000000000000 ) ) ;
#215 =( LENGTH_UNIT ( ) NAMED_UNIT ( * ) SI_UNIT ( $, .METRE. ) );
#216 = PRESENTATION_STYLE_ASSIGNMENT (( #305 ) ) ;
#217 = CIRCLE ( 'NONE', #71, 0.1250000000000000555 ) ;
#218 = DIMENSIONAL_EXPONENTS ( 1.000000000000000000, 0.000000000000000000, 0.000000000000000000, 0.000000000000000000, 0.000000000000000000, 0.000000000000000000, 0.000000000000000000 ) ;
#219 =( GEOMETRIC_REPRESENTATION_CONTEXT ( 3 ) GLOBAL_UNCERTAINTY_ASSIGNED_CONTEXT ( ( #3 ) ) GLOBAL_UNIT_ASSIGNED_CONTEXT ( ( #46, #41, #169 ) ) REPRESENTATION_CONTEXT ( 'NONE', 'WORKASPACE' ) );
#220 =( LENGTH_UNIT ( ) NAMED_UNIT ( * ) SI_UNIT ( $, .METRE. ) );
#221 =( LENGTH_UNIT ( ) NAMED_UNIT ( * ) SI_UNIT ( $, .METRE. ) );
#222 = AXIS2_PLACEMENT_3D ( 'NONE', #90, #74, #251 ) ;
#223 = SURFACE_STYLE_FILL_AREA ( #249 ) ;
#224 = AXIS2_PLACEMENT_3D ( 'NONE', #6, #98, #30 ) ;
#225 = DIRECTION ( 'NONE',  ( -1.000000000000000000, 0.000000000000000000, 0.000000000000000000 ) ) ;
#226 = COLOUR_RGB ( '',1.000000000000000000, 0.000000000000000000, 0.000000000000000000 ) ;
#227 = VERTEX_POINT ( 'NONE', #120 ) ;
#228 = CARTESIAN_POINT ( 'NONE',  ( 0.1249999999999999584, 2.500000000000000000, 1.530808498934191817E-17 ) ) ;
#229 = CARTESIAN_POINT ( 'NONE',  ( 1.530808498934191817E-17, 0.000000000000000000, 0.1250000000000000278 ) ) ;
#230 = EDGE_LOOP ( 'NONE', ( #209, #16, #280, #110 ) ) ;
#231 =( GEOMETRIC_REPRESENTATION_CONTEXT ( 3 ) GLOBAL_UNCERTAINTY_ASSIGNED_CONTEXT ( ( #195 ) ) GLOBAL_UNIT_ASSIGNED_CONTEXT ( ( #185, #284, #70 ) ) REPRESENTATION_CONTEXT ( 'NONE', 'WORKASPACE' ) );
#232 = DIRECTION ( 'NONE',  ( 0.000000000000000000, 0.000000000000000000, -1.000000000000000000 ) ) ;
#233 = AXIS2_PLACEMENT_3D ( 'NONE', #239, #281, #129 ) ;
#234 = DIRECTION ( 'NONE',  ( -1.000000000000000000, 0.000000000000000000, 0.000000000000000000 ) ) ;
#235 = DIRECTION ( 'NONE',  ( -3.061616997868379936E-17, 1.000000000000000000, -0.000000000000000000 ) ) ;
#236 = CARTESIAN_POINT ( 'NONE',  ( 0.000000000000000000, 0.000000000000000000, 0.000000000000000000 ) ) ;
#237 = ORIENTED_EDGE ( 'NONE', *, *, #75, .F. ) ;
#238 = SURFACE_STYLE_USAGE ( .BOTH. , #95 ) ;
#239 = CARTESIAN_POINT ( 'NONE',  ( 0.000000000000000000, 0.5000000000000000000, 0.000000000000000000 ) ) ;
#240 = FILL_AREA_STYLE ('',( #22 ) ) ;
#241 = DIMENSIONAL_EXPONENTS ( 1.000000000000000000, 0.000000000000000000, 0.000000000000000000, 0.000000000000000000, 0.000000000000000000, 0.000000000000000000, 0.000000000000000000 ) ;
#242 = ORIENTED_EDGE ( 'NONE', *, *, #243, .F. ) ;
#243 = EDGE_CURVE ( 'NONE', #259, #156, #43, .T. ) ;
#244 = DIRECTION ( 'NONE',  ( 0.000000000000000000, 1.000000000000000000, 0.000000000000000000 ) ) ;
#245 = ADVANCED_FACE ( 'NONE', ( #101 ), #28, .T. ) ;
#246 =( NAMED_UNIT ( * ) SI_UNIT ( $, .STERADIAN. ) SOLID_ANGLE_UNIT ( ) );
#247 = MECHANICAL_DESIGN_GEOMETRIC_PRESENTATION_REPRESENTATION (  '', ( #202 ), #231 ) ;
#248 = MECHANICAL_DESIGN_GEOMETRIC_PRESENTATION_REPRESENTATION (  '', ( #177 ), #191 ) ;
#249 = FILL_AREA_STYLE ('',( #124 ) ) ;
#250 = PLANE ( 'NONE',  #1 ) ;
#251 = DIRECTION ( 'NONE',  ( 0.000000000000000000, 0.000000000000000000, -1.000000000000000000 ) ) ;
#252 = ORIENTED_EDGE ( 'NONE', *, *, #13, .T. ) ;
#253 =( CONVERSION_BASED_UNIT ( 'INCH', #279 ) LENGTH_UNIT ( ) NAMED_UNIT ( #218 ) );
#254 = STYLED_ITEM ( 'NONE', ( #211 ), #179 ) ;
#255 =( LENGTH_UNIT ( ) NAMED_UNIT ( * ) SI_UNIT ( $, .METRE. ) );
#256 = EDGE_LOOP ( 'NONE', ( #277, #2 ) ) ;
#257 = MECHANICAL_DESIGN_GEOMETRIC_PRESENTATION_REPRESENTATION (  '', ( #81 ), #261 ) ;
#258 = COLOUR_RGB ( '',0.7921568627450980005, 0.8196078431372548767, 0.9333333333333333481 ) ;
#259 = VERTEX_POINT ( 'NONE', #268 ) ;
#260 =( NAMED_UNIT ( * ) PLANE_ANGLE_UNIT ( ) SI_UNIT ( $, .RADIAN. ) );
#261 =( GEOMETRIC_REPRESENTATION_CONTEXT ( 3 ) GLOBAL_UNCERTAINTY_ASSIGNED_CONTEXT ( ( #80 ) ) GLOBAL_UNIT_ASSIGNED_CONTEXT ( ( #253, #84, #157 ) ) REPRESENTATION_CONTEXT ( 'NONE', 'WORKASPACE' ) );
#262 = SURFACE_STYLE_FILL_AREA ( #166 ) ;
#263 = DIMENSIONAL_EXPONENTS ( 1.000000000000000000, 0.000000000000000000, 0.000000000000000000, 0.000000000000000000, 0.000000000000000000, 0.000000000000000000, 0.000000000000000000 ) ;
#264 = EDGE_CURVE ( 'NONE', #176, #122, #152, .T. ) ;
#265 = DIRECTION ( 'NONE',  ( -0.000000000000000000, -1.000000000000000000, -0.000000000000000000 ) ) ;
#266 =( NAMED_UNIT ( * ) PLANE_ANGLE_UNIT ( ) SI_UNIT ( $, .RADIAN. ) );
#267 = AXIS2_PLACEMENT_3D ( 'NONE', #141, #244, #26 ) ;
#268 = CARTESIAN_POINT ( 'NONE',  ( 0.1250000000000000278, 2.500000000000000000, 1.530808498934192125E-17 ) ) ;
#269 =( CONVERSION_BASED_UNIT ( 'INCH', #21 ) LENGTH_UNIT ( ) NAMED_UNIT ( #188 ) );
#270 = DIRECTION ( 'NONE',  ( -1.000000000000000000, -3.061616997868379936E-17, 0.000000000000000000 ) ) ;
#271 = STYLED_ITEM ( 'NONE', ( #216 ), #149 ) ;
#272 = ORIENTED_EDGE ( 'NONE', *, *, #264, .F. ) ;
#273 = ADVANCED_FACE ( 'NONE', ( #142 ), #293, .T. ) ;
#274 =( GEOMETRIC_REPRESENTATION_CONTEXT ( 3 ) GLOBAL_UNCERTAINTY_ASSIGNED_CONTEXT ( ( #289 ) ) GLOBAL_UNIT_ASSIGNED_CONTEXT ( ( #33, #260, #246 ) ) REPRESENTATION_CONTEXT ( 'NONE', 'WORKASPACE' ) );
#275 = CARTESIAN_POINT ( 'NONE',  ( -0.1250000000000001388, 2.500000000000000000, 0.000000000000000000 ) ) ;
#276 = ORIENTED_EDGE ( 'NONE', *, *, #164, .F. ) ;
#277 = ORIENTED_EDGE ( 'NONE', *, *, #201, .T. ) ;
#278 = CYLINDRICAL_SURFACE ( 'NONE', #222, 0.1250000000000000278 ) ;
#279 = LENGTH_MEASURE_WITH_UNIT ( LENGTH_MEASURE( 0.02539999999999999897 ), #130 );
#280 = ORIENTED_EDGE ( 'NONE', *, *, #201, .F. ) ;
#281 = DIRECTION ( 'NONE',  ( -0.000000000000000000, -1.000000000000000000, -0.000000000000000000 ) ) ;
#282 = PRESENTATION_STYLE_ASSIGNMENT (( #238 ) ) ;
#283 = MECHANICAL_DESIGN_GEOMETRIC_PRESENTATION_REPRESENTATION (  '', ( #254 ), #219 ) ;
#284 =( NAMED_UNIT ( * ) PLANE_ANGLE_UNIT ( ) SI_UNIT ( $, .RADIAN. ) );
#285 = CIRCLE ( 'NONE', #233, 0.1250000000000000000 ) ;
#286 = ADVANCED_FACE ( 'NONE', ( #119 ), #290, .F. ) ;
#287 = SURFACE_STYLE_USAGE ( .BOTH. , #190 ) ;
#288 = EDGE_LOOP ( 'NONE', ( #276, #150, #252, #242 ) ) ;
#289 = UNCERTAINTY_MEASURE_WITH_UNIT (LENGTH_MEASURE( 1.000000000000000082E-05 ), #33, 'distance_accuracy_value', 'NONE');
#290 = PLANE ( 'NONE',  #125 ) ;
#291 = DIRECTION ( 'NONE',  ( -3.061616997868379936E-17, 1.000000000000000000, -0.000000000000000000 ) ) ;
#292 = EDGE_LOOP ( 'NONE', ( #36, #107 ) ) ;
#293 = PLANE ( 'NONE',  #267 ) ;
#294 = EDGE_LOOP ( 'NONE', ( #88, #162, #37, #272 ) ) ;
#295 = PRODUCT_DEFINITION_SHAPE ( 'NONE', 'NONE',  #118 ) ;
#296 = EDGE_CURVE ( 'NONE', #156, #259, #217, .T. ) ;
#297 = CARTESIAN_POINT ( 'NONE',  ( 0.000000000000000000, 0.000000000000000000, 0.000000000000000000 ) ) ;
#298 = DIRECTION ( 'NONE',  ( -1.000000000000000000, 0.000000000000000000, 0.000000000000000000 ) ) ;
#299 = PRESENTATION_LAYER_ASSIGNMENT (  '', '', ( #271 ) ) ;
#300 = PRESENTATION_STYLE_ASSIGNMENT (( #59 ) ) ;
#301 = FILL_AREA_STYLE ('',( #64 ) ) ;
#302 = DIRECTION ( 'NONE',  ( -3.061616997868379936E-17, 1.000000000000000000, -0.000000000000000000 ) ) ;
#303 = CARTESIAN_POINT ( 'NONE',  ( 0.000000000000000000, 0.5000000000000000000, -0.1250000000000000000 ) ) ;
#304 = ADVANCED_FACE ( 'NONE', ( #35 ), #7, .T. ) ;
#305 = SURFACE_STYLE_USAGE ( .BOTH. , #12 ) ;
#306 = CYLINDRICAL_SURFACE ( 'NONE', #77, 0.1250000000000000278 ) ;
#307 =( LENGTH_UNIT ( ) NAMED_UNIT ( * ) SI_UNIT ( $, .METRE. ) );
#308 = SURFACE_STYLE_FILL_AREA ( #240 ) ;
#309 = DIRECTION ( 'NONE',  ( -0.000000000000000000, -1.000000000000000000, -0.000000000000000000 ) ) ;
ENDSEC;
END-ISO-10303-21;
